ISO-10303-21;
HEADER;
/* Generated by software containing ST-Developer
 * from STEP Tools, Inc. (www.steptools.com) 
 */
/* OPTION: using custom renumber hook */

FILE_DESCRIPTION(
/* description */ ('STEP AP214'),
/* implementation_level */ '2;1');

FILE_NAME(
/* name */ '187079_MA-40-10-R1_4-EN',
/* time_stamp */ '2024-09-05T03:14:49+02:00',
/* author */ ('License CC BY-ND 4.0'),
/* organization */ ('CADENAS'),
/* preprocessor_version */ 'ST-DEVELOPER v19.3',
/* originating_system */ 'PARTsolutions',
/* authorisation */ '  ');

FILE_SCHEMA (('AUTOMOTIVE_DESIGN {1 0 10303 214 3 1 1}'));
ENDSEC;

DATA;
#10=PROPERTY_DEFINITION_REPRESENTATION(#14,#12);
#11=PROPERTY_DEFINITION_REPRESENTATION(#15,#13);
#12=REPRESENTATION('',(#16),#305);
#13=REPRESENTATION('',(#17),#305);
#14=PROPERTY_DEFINITION('pmi validation property','',#310);
#15=PROPERTY_DEFINITION('pmi validation property','',#310);
#16=VALUE_REPRESENTATION_ITEM('number of annotations',COUNT_MEASURE(0.));
#17=VALUE_REPRESENTATION_ITEM('number of views',COUNT_MEASURE(0.));
#18=SHAPE_REPRESENTATION_RELATIONSHIP('','',#189,#19);
#19=ADVANCED_BREP_SHAPE_REPRESENTATION('',(#187),#305);
#20=CONICAL_SURFACE('',#204,6.79703679316978,0.0312094049979787);
#21=CONICAL_SURFACE('',#206,6.41876787145694,0.785398163397449);
#22=LINE('',#270,#34);
#23=LINE('',#273,#35);
#24=LINE('',#275,#36);
#25=LINE('',#277,#37);
#26=LINE('',#279,#38);
#27=LINE('',#282,#39);
#28=LINE('',#283,#40);
#29=LINE('',#285,#41);
#30=LINE('',#287,#42);
#31=LINE('',#289,#43);
#32=LINE('',#291,#44);
#33=LINE('',#293,#45);
#34=VECTOR('',#225,1000.);
#35=VECTOR('',#226,1000.);
#36=VECTOR('',#227,1000.);
#37=VECTOR('',#228,1000.);
#38=VECTOR('',#231,1000.);
#39=VECTOR('',#232,1000.);
#40=VECTOR('',#233,1000.);
#41=VECTOR('',#236,1000.);
#42=VECTOR('',#237,1000.);
#43=VECTOR('',#240,1000.);
#44=VECTOR('',#241,1000.);
#45=VECTOR('',#244,1000.);
#46=TOROIDAL_SURFACE('',#195,16.5,3.);
#47=CYLINDRICAL_SURFACE('',#193,19.5);
#48=ORIENTED_EDGE('',*,*,#84,.F.);
#49=ORIENTED_EDGE('',*,*,#85,.F.);
#50=ORIENTED_EDGE('',*,*,#84,.T.);
#51=ORIENTED_EDGE('',*,*,#85,.T.);
#52=ORIENTED_EDGE('',*,*,#86,.F.);
#53=ORIENTED_EDGE('',*,*,#87,.T.);
#54=ORIENTED_EDGE('',*,*,#88,.F.);
#55=ORIENTED_EDGE('',*,*,#89,.F.);
#56=ORIENTED_EDGE('',*,*,#90,.F.);
#57=ORIENTED_EDGE('',*,*,#86,.T.);
#58=ORIENTED_EDGE('',*,*,#91,.F.);
#59=ORIENTED_EDGE('',*,*,#92,.F.);
#60=ORIENTED_EDGE('',*,*,#90,.T.);
#61=ORIENTED_EDGE('',*,*,#93,.T.);
#62=ORIENTED_EDGE('',*,*,#94,.F.);
#63=ORIENTED_EDGE('',*,*,#93,.F.);
#64=ORIENTED_EDGE('',*,*,#89,.T.);
#65=ORIENTED_EDGE('',*,*,#95,.T.);
#66=ORIENTED_EDGE('',*,*,#96,.F.);
#67=ORIENTED_EDGE('',*,*,#95,.F.);
#68=ORIENTED_EDGE('',*,*,#88,.T.);
#69=ORIENTED_EDGE('',*,*,#97,.T.);
#70=ORIENTED_EDGE('',*,*,#98,.F.);
#71=ORIENTED_EDGE('',*,*,#97,.F.);
#72=ORIENTED_EDGE('',*,*,#87,.F.);
#73=ORIENTED_EDGE('',*,*,#92,.T.);
#74=ORIENTED_EDGE('',*,*,#99,.F.);
#75=ORIENTED_EDGE('',*,*,#91,.T.);
#76=ORIENTED_EDGE('',*,*,#94,.T.);
#77=ORIENTED_EDGE('',*,*,#96,.T.);
#78=ORIENTED_EDGE('',*,*,#98,.T.);
#79=ORIENTED_EDGE('',*,*,#100,.F.);
#80=ORIENTED_EDGE('',*,*,#99,.T.);
#81=ORIENTED_EDGE('',*,*,#101,.F.);
#82=ORIENTED_EDGE('',*,*,#100,.T.);
#83=ORIENTED_EDGE('',*,*,#101,.T.);
#84=EDGE_CURVE('',#102,#102,#116,.T.);
#85=EDGE_CURVE('',#103,#103,#117,.T.);
#86=EDGE_CURVE('',#104,#104,#118,.T.);
#87=EDGE_CURVE('',#105,#106,#22,.T.);
#88=EDGE_CURVE('',#107,#106,#23,.T.);
#89=EDGE_CURVE('',#108,#107,#24,.T.);
#90=EDGE_CURVE('',#105,#108,#25,.T.);
#91=EDGE_CURVE('',#109,#110,#26,.T.);
#92=EDGE_CURVE('',#105,#109,#27,.T.);
#93=EDGE_CURVE('',#108,#110,#28,.T.);
#94=EDGE_CURVE('',#110,#111,#29,.T.);
#95=EDGE_CURVE('',#107,#111,#30,.T.);
#96=EDGE_CURVE('',#111,#112,#31,.T.);
#97=EDGE_CURVE('',#106,#112,#32,.T.);
#98=EDGE_CURVE('',#112,#109,#33,.T.);
#99=EDGE_CURVE('',#113,#113,#119,.T.);
#100=EDGE_CURVE('',#114,#114,#120,.T.);
#101=EDGE_CURVE('',#115,#115,#121,.T.);
#102=VERTEX_POINT('',#262);
#103=VERTEX_POINT('',#265);
#104=VERTEX_POINT('',#268);
#105=VERTEX_POINT('',#271);
#106=VERTEX_POINT('',#272);
#107=VERTEX_POINT('',#274);
#108=VERTEX_POINT('',#276);
#109=VERTEX_POINT('',#280);
#110=VERTEX_POINT('',#281);
#111=VERTEX_POINT('',#286);
#112=VERTEX_POINT('',#290);
#113=VERTEX_POINT('',#296);
#114=VERTEX_POINT('',#299);
#115=VERTEX_POINT('',#302);
#116=CIRCLE('',#192,19.5);
#117=CIRCLE('',#194,19.5);
#118=CIRCLE('',#196,16.5);
#119=CIRCLE('',#203,6.79703679316978);
#120=CIRCLE('',#205,6.41876787145694);
#121=CIRCLE('',#207,5.53518274871162);
#122=EDGE_LOOP('',(#48));
#123=EDGE_LOOP('',(#49));
#124=EDGE_LOOP('',(#50));
#125=EDGE_LOOP('',(#51));
#126=EDGE_LOOP('',(#52));
#127=EDGE_LOOP('',(#53,#54,#55,#56));
#128=EDGE_LOOP('',(#57));
#129=EDGE_LOOP('',(#58,#59,#60,#61));
#130=EDGE_LOOP('',(#62,#63,#64,#65));
#131=EDGE_LOOP('',(#66,#67,#68,#69));
#132=EDGE_LOOP('',(#70,#71,#72,#73));
#133=EDGE_LOOP('',(#74));
#134=EDGE_LOOP('',(#75,#76,#77,#78));
#135=EDGE_LOOP('',(#79));
#136=EDGE_LOOP('',(#80));
#137=EDGE_LOOP('',(#81));
#138=EDGE_LOOP('',(#82));
#139=EDGE_LOOP('',(#83));
#140=FACE_BOUND('',#122,.T.);
#141=FACE_BOUND('',#123,.T.);
#142=FACE_BOUND('',#124,.T.);
#143=FACE_BOUND('',#125,.T.);
#144=FACE_BOUND('',#126,.T.);
#145=FACE_BOUND('',#127,.T.);
#146=FACE_BOUND('',#128,.T.);
#147=FACE_BOUND('',#129,.T.);
#148=FACE_BOUND('',#130,.T.);
#149=FACE_BOUND('',#131,.T.);
#150=FACE_BOUND('',#132,.T.);
#151=FACE_BOUND('',#133,.T.);
#152=FACE_BOUND('',#134,.T.);
#153=FACE_BOUND('',#135,.T.);
#154=FACE_BOUND('',#136,.T.);
#155=FACE_BOUND('',#137,.T.);
#156=FACE_BOUND('',#138,.T.);
#157=FACE_BOUND('',#139,.T.);
#158=PLANE('',#191);
#159=PLANE('',#197);
#160=PLANE('',#198);
#161=PLANE('',#199);
#162=PLANE('',#200);
#163=PLANE('',#201);
#164=PLANE('',#202);
#165=PLANE('',#208);
#166=ADVANCED_FACE('',(#140),#158,.F.);
#167=ADVANCED_FACE('',(#141,#142),#47,.T.);
#168=ADVANCED_FACE('',(#143,#144),#46,.T.);
#169=ADVANCED_FACE('',(#145,#146),#159,.F.);
#170=ADVANCED_FACE('',(#147),#160,.T.);
#171=ADVANCED_FACE('',(#148),#161,.T.);
#172=ADVANCED_FACE('',(#149),#162,.T.);
#173=ADVANCED_FACE('',(#150),#163,.T.);
#174=ADVANCED_FACE('',(#151,#152),#164,.T.);
#175=ADVANCED_FACE('',(#153,#154),#20,.T.);
#176=ADVANCED_FACE('',(#155,#156),#21,.T.);
#177=ADVANCED_FACE('',(#157),#165,.F.);
#178=CLOSED_SHELL('',(#166,#167,#168,#169,#170,#171,#172,#173,#174,#175,
#176,#177));
#179=STYLED_ITEM('',(#180),#187);
#180=PRESENTATION_STYLE_ASSIGNMENT((#181));
#181=SURFACE_STYLE_USAGE(.BOTH.,#182);
#182=SURFACE_SIDE_STYLE('',(#183));
#183=SURFACE_STYLE_FILL_AREA(#184);
#184=FILL_AREA_STYLE('',(#185));
#185=FILL_AREA_STYLE_COLOUR('',#186);
#186=COLOUR_RGB('',0.689999997615814,0.689999997615814,0.689999997615814);
#187=MANIFOLD_SOLID_BREP('187079 MA-40-10-R1/4-EN',#178);
#188=SHAPE_DEFINITION_REPRESENTATION(#310,#189);
#189=SHAPE_REPRESENTATION('187079 MA-40-10-R1/4-EN',(#190),#305);
#190=AXIS2_PLACEMENT_3D('',#259,#209,#210);
#191=AXIS2_PLACEMENT_3D('',#260,#211,#212);
#192=AXIS2_PLACEMENT_3D('',#261,#213,#214);
#193=AXIS2_PLACEMENT_3D('',#263,#215,#216);
#194=AXIS2_PLACEMENT_3D('',#264,#217,#218);
#195=AXIS2_PLACEMENT_3D('',#266,#219,#220);
#196=AXIS2_PLACEMENT_3D('',#267,#221,#222);
#197=AXIS2_PLACEMENT_3D('',#269,#223,#224);
#198=AXIS2_PLACEMENT_3D('',#278,#229,#230);
#199=AXIS2_PLACEMENT_3D('',#284,#234,#235);
#200=AXIS2_PLACEMENT_3D('',#288,#238,#239);
#201=AXIS2_PLACEMENT_3D('',#292,#242,#243);
#202=AXIS2_PLACEMENT_3D('',#294,#245,#246);
#203=AXIS2_PLACEMENT_3D('',#295,#247,#248);
#204=AXIS2_PLACEMENT_3D('',#297,#249,#250);
#205=AXIS2_PLACEMENT_3D('',#298,#251,#252);
#206=AXIS2_PLACEMENT_3D('',#300,#253,#254);
#207=AXIS2_PLACEMENT_3D('',#301,#255,#256);
#208=AXIS2_PLACEMENT_3D('',#303,#257,#258);
#209=DIRECTION('',(0.,0.,1.));
#210=DIRECTION('',(1.,0.,0.));
#211=DIRECTION('',(1.,0.,0.));
#212=DIRECTION('',(0.,0.,-1.));
#213=DIRECTION('',(1.,0.,0.));
#214=DIRECTION('',(0.,0.,-1.));
#215=DIRECTION('',(1.,0.,0.));
#216=DIRECTION('',(0.,0.,-1.));
#217=DIRECTION('',(1.,0.,0.));
#218=DIRECTION('',(0.,0.,-1.));
#219=DIRECTION('',(1.,0.,0.));
#220=DIRECTION('',(0.,0.,-1.));
#221=DIRECTION('',(1.,0.,0.));
#222=DIRECTION('',(0.,0.,-1.));
#223=DIRECTION('',(-1.,0.,0.));
#224=DIRECTION('',(0.,0.,1.));
#225=DIRECTION('',(0.,0.,-1.));
#226=DIRECTION('',(0.,1.,0.));
#227=DIRECTION('',(0.,0.,-1.));
#228=DIRECTION('',(0.,-1.,0.));
#229=DIRECTION('',(0.,0.,1.));
#230=DIRECTION('',(1.,0.,0.));
#231=DIRECTION('',(0.,-1.,0.));
#232=DIRECTION('',(1.,0.,0.));
#233=DIRECTION('',(1.,0.,0.));
#234=DIRECTION('',(0.,-1.,0.));
#235=DIRECTION('',(0.,0.,-1.));
#236=DIRECTION('',(0.,0.,-1.));
#237=DIRECTION('',(1.,0.,0.));
#238=DIRECTION('',(0.,0.,-1.));
#239=DIRECTION('',(-1.,0.,0.));
#240=DIRECTION('',(0.,1.,0.));
#241=DIRECTION('',(1.,0.,0.));
#242=DIRECTION('',(0.,1.,0.));
#243=DIRECTION('',(0.,0.,1.));
#244=DIRECTION('',(0.,0.,1.));
#245=DIRECTION('',(1.,0.,0.));
#246=DIRECTION('',(0.,0.,-1.));
#247=DIRECTION('',(1.,0.,0.));
#248=DIRECTION('',(0.,0.,-1.));
#249=DIRECTION('',(-1.,0.,0.));
#250=DIRECTION('',(0.,0.,1.));
#251=DIRECTION('',(1.,0.,0.));
#252=DIRECTION('',(0.,0.,-1.));
#253=DIRECTION('',(-1.,0.,0.));
#254=DIRECTION('',(0.,0.,1.));
#255=DIRECTION('',(1.,0.,0.));
#256=DIRECTION('',(0.,0.,-1.));
#257=DIRECTION('',(-1.,0.,0.));
#258=DIRECTION('',(0.,0.,1.));
#259=CARTESIAN_POINT('',(0.,0.,0.));
#260=CARTESIAN_POINT('',(-33.5,0.,0.));
#261=CARTESIAN_POINT('',(-33.5,0.,0.));
#262=CARTESIAN_POINT('',(-33.5,0.,-19.5));
#263=CARTESIAN_POINT('',(-8.,0.,0.));
#264=CARTESIAN_POINT('',(-11.,0.,0.));
#265=CARTESIAN_POINT('',(-11.,0.,-19.5));
#266=CARTESIAN_POINT('',(-11.,0.,0.));
#267=CARTESIAN_POINT('',(-8.,0.,0.));
#268=CARTESIAN_POINT('',(-8.,0.,-16.5));
#269=CARTESIAN_POINT('',(-8.,16.5,0.));
#270=CARTESIAN_POINT('',(-8.,7.,0.));
#271=CARTESIAN_POINT('',(-8.,7.,7.));
#272=CARTESIAN_POINT('',(-8.,7.,-7.));
#273=CARTESIAN_POINT('',(-8.,-7.,-7.));
#274=CARTESIAN_POINT('',(-8.,-7.,-7.));
#275=CARTESIAN_POINT('',(-8.,-7.,7.));
#276=CARTESIAN_POINT('',(-8.,-7.,7.));
#277=CARTESIAN_POINT('',(-8.,7.,7.));
#278=CARTESIAN_POINT('',(-8.,7.,7.));
#279=CARTESIAN_POINT('',(0.,7.,7.));
#280=CARTESIAN_POINT('',(0.,7.,7.));
#281=CARTESIAN_POINT('',(0.,-7.,7.));
#282=CARTESIAN_POINT('',(-8.,7.,7.));
#283=CARTESIAN_POINT('',(-8.,-7.,7.));
#284=CARTESIAN_POINT('',(-8.,-7.,7.));
#285=CARTESIAN_POINT('',(0.,-7.,7.));
#286=CARTESIAN_POINT('',(0.,-7.,-7.));
#287=CARTESIAN_POINT('',(-8.,-7.,-7.));
#288=CARTESIAN_POINT('',(-8.,-7.,-7.));
#289=CARTESIAN_POINT('',(0.,-7.,-7.));
#290=CARTESIAN_POINT('',(0.,7.,-7.));
#291=CARTESIAN_POINT('',(-8.,7.,-7.));
#292=CARTESIAN_POINT('',(-8.,7.,-7.));
#293=CARTESIAN_POINT('',(0.,7.,-7.));
#294=CARTESIAN_POINT('',(0.,0.,0.));
#295=CARTESIAN_POINT('',(0.,0.,0.));
#296=CARTESIAN_POINT('',(0.,0.,-6.79703679316978));
#297=CARTESIAN_POINT('',(0.,0.,0.));
#298=CARTESIAN_POINT('',(12.1164148772547,0.,0.));
#299=CARTESIAN_POINT('',(12.1164148772547,0.,-6.41876787145694));
#300=CARTESIAN_POINT('',(12.1164148772547,0.,0.));
#301=CARTESIAN_POINT('',(13.,0.,0.));
#302=CARTESIAN_POINT('',(13.,0.,-5.53518274871162));
#303=CARTESIAN_POINT('',(13.,5.53518274871162,0.));
#304=MECHANICAL_DESIGN_GEOMETRIC_PRESENTATION_REPRESENTATION('',(#179),
#305);
#305=(
GEOMETRIC_REPRESENTATION_CONTEXT(3)
GLOBAL_UNCERTAINTY_ASSIGNED_CONTEXT((#306))
GLOBAL_UNIT_ASSIGNED_CONTEXT((#309,#308,#307))
REPRESENTATION_CONTEXT('187079 MA-40-10-R1/4-EN',
'TOP_LEVEL_ASSEMBLY_PART')
);
#306=UNCERTAINTY_MEASURE_WITH_UNIT(LENGTH_MEASURE(0.005),#309,
'DISTANCE_ACCURACY_VALUE','Maximum Tolerance applied to model');
#307=(
NAMED_UNIT(*)
SI_UNIT($,.STERADIAN.)
SOLID_ANGLE_UNIT()
);
#308=(
NAMED_UNIT(*)
PLANE_ANGLE_UNIT()
SI_UNIT($,.RADIAN.)
);
#309=(
LENGTH_UNIT()
NAMED_UNIT(*)
SI_UNIT(.MILLI.,.METRE.)
);
#310=PRODUCT_DEFINITION_SHAPE('','',#311);
#311=PRODUCT_DEFINITION('','',#313,#312);
#312=PRODUCT_DEFINITION_CONTEXT('',#319,'design');
#313=PRODUCT_DEFINITION_FORMATION_WITH_SPECIFIED_SOURCE('','',#315,
 .NOT_KNOWN.);
#314=PRODUCT_RELATED_PRODUCT_CATEGORY('','',(#315));
#315=PRODUCT('187079 MA-40-10-R1/4-EN','187079 MA-40-10-R1/4-EN',
'187079 MA-40-10-R1/4-EN',(#317));
#316=PRODUCT_CATEGORY('','');
#317=PRODUCT_CONTEXT('',#319,'mechanical');
#318=APPLICATION_PROTOCOL_DEFINITION('international standard',
'automotive_design',2010,#319);
#319=APPLICATION_CONTEXT(
'core data for automotive mechanical design processes');
ENDSEC;
END-ISO-10303-21;
