ISO-10303-21;
HEADER;
/* Generated by software containing ST-Developer
 * from STEP Tools, Inc. (www.steptools.com) 
 */
/* OPTION: using custom renumber hook */

FILE_DESCRIPTION(
/* description */ ('STEP AP214'),
/* implementation_level */ '2;1');

FILE_NAME(
/* name */ '189266_ESS-2-SS',
/* time_stamp */ '2024-08-28T08:53:40+02:00',
/* author */ ('License CC BY-ND 4.0'),
/* organization */ ('CADENAS'),
/* preprocessor_version */ 'ST-DEVELOPER v19.3',
/* originating_system */ 'PARTsolutions',
/* authorisation */ '  ');

FILE_SCHEMA (('AUTOMOTIVE_DESIGN {1 0 10303 214 3 1 1}'));
ENDSEC;

DATA;
#10=PROPERTY_DEFINITION_REPRESENTATION(#14,#12);
#11=PROPERTY_DEFINITION_REPRESENTATION(#15,#13);
#12=REPRESENTATION('',(#16),#257);
#13=REPRESENTATION('',(#17),#257);
#14=PROPERTY_DEFINITION('pmi validation property','',#262);
#15=PROPERTY_DEFINITION('pmi validation property','',#262);
#16=VALUE_REPRESENTATION_ITEM('number of annotations',COUNT_MEASURE(0.));
#17=VALUE_REPRESENTATION_ITEM('number of views',COUNT_MEASURE(0.));
#18=SHAPE_REPRESENTATION_RELATIONSHIP('','',#152,#19);
#19=ADVANCED_BREP_SHAPE_REPRESENTATION('',(#150),#257);
#20=PLANE('',#169);
#21=PLANE('',#175);
#22=TOROIDAL_SURFACE('',#163,0.891421356237309,0.0999999999999997);
#23=TOROIDAL_SURFACE('',#173,1.2,0.400000000000001);
#24=CONICAL_SURFACE('',#157,0.3,0.785398163397448);
#25=CONICAL_SURFACE('',#159,1.,0.785398163397449);
#26=CONICAL_SURFACE('',#161,1.25,0.785398163397448);
#27=CONICAL_SURFACE('',#165,0.820710678118655,0.785398163397449);
#28=ORIENTED_EDGE('',*,*,#50,.T.);
#29=ORIENTED_EDGE('',*,*,#51,.F.);
#30=ORIENTED_EDGE('',*,*,#52,.T.);
#31=ORIENTED_EDGE('',*,*,#50,.F.);
#32=ORIENTED_EDGE('',*,*,#53,.T.);
#33=ORIENTED_EDGE('',*,*,#52,.F.);
#34=ORIENTED_EDGE('',*,*,#54,.T.);
#35=ORIENTED_EDGE('',*,*,#53,.F.);
#36=ORIENTED_EDGE('',*,*,#54,.F.);
#37=ORIENTED_EDGE('',*,*,#55,.T.);
#38=ORIENTED_EDGE('',*,*,#56,.T.);
#39=ORIENTED_EDGE('',*,*,#55,.F.);
#40=ORIENTED_EDGE('',*,*,#57,.T.);
#41=ORIENTED_EDGE('',*,*,#56,.F.);
#42=ORIENTED_EDGE('',*,*,#58,.T.);
#43=ORIENTED_EDGE('',*,*,#57,.F.);
#44=ORIENTED_EDGE('',*,*,#59,.T.);
#45=ORIENTED_EDGE('',*,*,#58,.F.);
#46=ORIENTED_EDGE('',*,*,#60,.T.);
#47=ORIENTED_EDGE('',*,*,#59,.F.);
#48=ORIENTED_EDGE('',*,*,#51,.T.);
#49=ORIENTED_EDGE('',*,*,#60,.F.);
#50=EDGE_CURVE('',#61,#61,#72,.T.);
#51=EDGE_CURVE('',#62,#62,#73,.T.);
#52=EDGE_CURVE('',#63,#63,#74,.T.);
#53=EDGE_CURVE('',#64,#64,#75,.T.);
#54=EDGE_CURVE('',#65,#65,#76,.T.);
#55=EDGE_CURVE('',#66,#66,#77,.T.);
#56=EDGE_CURVE('',#67,#67,#78,.T.);
#57=EDGE_CURVE('',#68,#68,#79,.T.);
#58=EDGE_CURVE('',#69,#69,#80,.T.);
#59=EDGE_CURVE('',#70,#70,#81,.T.);
#60=EDGE_CURVE('',#71,#71,#82,.T.);
#61=VERTEX_POINT('',#225);
#62=VERTEX_POINT('',#227);
#63=VERTEX_POINT('',#230);
#64=VERTEX_POINT('',#233);
#65=VERTEX_POINT('',#236);
#66=VERTEX_POINT('',#239);
#67=VERTEX_POINT('',#242);
#68=VERTEX_POINT('',#245);
#69=VERTEX_POINT('',#248);
#70=VERTEX_POINT('',#251);
#71=VERTEX_POINT('',#254);
#72=CIRCLE('',#155,0.3);
#73=CIRCLE('',#156,0.3);
#74=CIRCLE('',#158,1.);
#75=CIRCLE('',#160,1.25);
#76=CIRCLE('',#162,0.820710678118655);
#77=CIRCLE('',#164,0.820710678118655);
#78=CIRCLE('',#166,2.);
#79=CIRCLE('',#168,2.);
#80=CIRCLE('',#170,1.6);
#81=CIRCLE('',#172,1.6);
#82=CIRCLE('',#174,1.2);
#83=EDGE_LOOP('',(#28));
#84=EDGE_LOOP('',(#29));
#85=EDGE_LOOP('',(#30));
#86=EDGE_LOOP('',(#31));
#87=EDGE_LOOP('',(#32));
#88=EDGE_LOOP('',(#33));
#89=EDGE_LOOP('',(#34));
#90=EDGE_LOOP('',(#35));
#91=EDGE_LOOP('',(#36));
#92=EDGE_LOOP('',(#37));
#93=EDGE_LOOP('',(#38));
#94=EDGE_LOOP('',(#39));
#95=EDGE_LOOP('',(#40));
#96=EDGE_LOOP('',(#41));
#97=EDGE_LOOP('',(#42));
#98=EDGE_LOOP('',(#43));
#99=EDGE_LOOP('',(#44));
#100=EDGE_LOOP('',(#45));
#101=EDGE_LOOP('',(#46));
#102=EDGE_LOOP('',(#47));
#103=EDGE_LOOP('',(#48));
#104=EDGE_LOOP('',(#49));
#105=FACE_BOUND('',#83,.T.);
#106=FACE_BOUND('',#84,.T.);
#107=FACE_BOUND('',#85,.T.);
#108=FACE_BOUND('',#86,.T.);
#109=FACE_BOUND('',#87,.T.);
#110=FACE_BOUND('',#88,.T.);
#111=FACE_BOUND('',#89,.T.);
#112=FACE_BOUND('',#90,.T.);
#113=FACE_BOUND('',#91,.T.);
#114=FACE_BOUND('',#92,.T.);
#115=FACE_BOUND('',#93,.T.);
#116=FACE_BOUND('',#94,.T.);
#117=FACE_BOUND('',#95,.T.);
#118=FACE_BOUND('',#96,.T.);
#119=FACE_BOUND('',#97,.T.);
#120=FACE_BOUND('',#98,.T.);
#121=FACE_BOUND('',#99,.T.);
#122=FACE_BOUND('',#100,.T.);
#123=FACE_BOUND('',#101,.T.);
#124=FACE_BOUND('',#102,.T.);
#125=FACE_BOUND('',#103,.T.);
#126=FACE_BOUND('',#104,.T.);
#127=CYLINDRICAL_SURFACE('',#154,0.3);
#128=CYLINDRICAL_SURFACE('',#167,2.);
#129=CYLINDRICAL_SURFACE('',#171,1.6);
#130=ADVANCED_FACE('',(#105,#106),#127,.F.);
#131=ADVANCED_FACE('',(#107,#108),#24,.F.);
#132=ADVANCED_FACE('',(#109,#110),#25,.T.);
#133=ADVANCED_FACE('',(#111,#112),#26,.T.);
#134=ADVANCED_FACE('',(#113,#114),#22,.F.);
#135=ADVANCED_FACE('',(#115,#116),#27,.T.);
#136=ADVANCED_FACE('',(#117,#118),#128,.T.);
#137=ADVANCED_FACE('',(#119,#120),#20,.T.);
#138=ADVANCED_FACE('',(#121,#122),#129,.T.);
#139=ADVANCED_FACE('',(#123,#124),#23,.T.);
#140=ADVANCED_FACE('',(#125,#126),#21,.T.);
#141=CLOSED_SHELL('',(#130,#131,#132,#133,#134,#135,#136,#137,#138,#139,
#140));
#142=STYLED_ITEM('',(#143),#150);
#143=PRESENTATION_STYLE_ASSIGNMENT((#144));
#144=SURFACE_STYLE_USAGE(.BOTH.,#145);
#145=SURFACE_SIDE_STYLE('',(#146));
#146=SURFACE_STYLE_FILL_AREA(#147);
#147=FILL_AREA_STYLE('',(#148));
#148=FILL_AREA_STYLE_COLOUR('',#149);
#149=COLOUR_RGB('',0.949999988079071,0.949999988079071,0.949999988079071);
#150=MANIFOLD_SOLID_BREP('189266 ESS-2-SS',#141);
#151=SHAPE_DEFINITION_REPRESENTATION(#262,#152);
#152=SHAPE_REPRESENTATION('189266 ESS-2-SS',(#153),#257);
#153=AXIS2_PLACEMENT_3D('',#222,#176,#177);
#154=AXIS2_PLACEMENT_3D('',#223,#178,#179);
#155=AXIS2_PLACEMENT_3D('',#224,#180,#181);
#156=AXIS2_PLACEMENT_3D('',#226,#182,#183);
#157=AXIS2_PLACEMENT_3D('',#228,#184,#185);
#158=AXIS2_PLACEMENT_3D('',#229,#186,#187);
#159=AXIS2_PLACEMENT_3D('',#231,#188,#189);
#160=AXIS2_PLACEMENT_3D('',#232,#190,#191);
#161=AXIS2_PLACEMENT_3D('',#234,#192,#193);
#162=AXIS2_PLACEMENT_3D('',#235,#194,#195);
#163=AXIS2_PLACEMENT_3D('',#237,#196,#197);
#164=AXIS2_PLACEMENT_3D('',#238,#198,#199);
#165=AXIS2_PLACEMENT_3D('',#240,#200,#201);
#166=AXIS2_PLACEMENT_3D('',#241,#202,#203);
#167=AXIS2_PLACEMENT_3D('',#243,#204,#205);
#168=AXIS2_PLACEMENT_3D('',#244,#206,#207);
#169=AXIS2_PLACEMENT_3D('',#246,#208,#209);
#170=AXIS2_PLACEMENT_3D('',#247,#210,#211);
#171=AXIS2_PLACEMENT_3D('',#249,#212,#213);
#172=AXIS2_PLACEMENT_3D('',#250,#214,#215);
#173=AXIS2_PLACEMENT_3D('',#252,#216,#217);
#174=AXIS2_PLACEMENT_3D('',#253,#218,#219);
#175=AXIS2_PLACEMENT_3D('',#255,#220,#221);
#176=DIRECTION('',(0.,0.,1.));
#177=DIRECTION('',(1.,0.,0.));
#178=DIRECTION('',(0.,-1.,0.));
#179=DIRECTION('',(0.,0.,-1.));
#180=DIRECTION('',(0.,-1.,0.));
#181=DIRECTION('',(0.,0.,-1.));
#182=DIRECTION('',(0.,-1.,0.));
#183=DIRECTION('',(0.,0.,-1.));
#184=DIRECTION('',(0.,-1.,0.));
#185=DIRECTION('',(0.,0.,-1.));
#186=DIRECTION('',(0.,-1.,0.));
#187=DIRECTION('',(0.,0.,-1.));
#188=DIRECTION('',(0.,1.,0.));
#189=DIRECTION('',(0.,0.,1.));
#190=DIRECTION('',(0.,-1.,0.));
#191=DIRECTION('',(0.,0.,-1.));
#192=DIRECTION('',(0.,-1.,0.));
#193=DIRECTION('',(0.,0.,-1.));
#194=DIRECTION('',(0.,-1.,0.));
#195=DIRECTION('',(0.,0.,-1.));
#196=DIRECTION('',(0.,-1.,0.));
#197=DIRECTION('',(0.,0.,-1.));
#198=DIRECTION('',(0.,-1.,0.));
#199=DIRECTION('',(0.,0.,-1.));
#200=DIRECTION('',(0.,1.,0.));
#201=DIRECTION('',(0.,0.,1.));
#202=DIRECTION('',(0.,-1.,0.));
#203=DIRECTION('',(0.,0.,-1.));
#204=DIRECTION('',(0.,-1.,0.));
#205=DIRECTION('',(0.,0.,-1.));
#206=DIRECTION('',(0.,-1.,0.));
#207=DIRECTION('',(0.,0.,-1.));
#208=DIRECTION('',(0.,1.,0.));
#209=DIRECTION('',(0.,0.,1.));
#210=DIRECTION('',(0.,-1.,0.));
#211=DIRECTION('',(0.,0.,-1.));
#212=DIRECTION('',(0.,-1.,0.));
#213=DIRECTION('',(0.,0.,-1.));
#214=DIRECTION('',(0.,-1.,0.));
#215=DIRECTION('',(0.,0.,-1.));
#216=DIRECTION('',(0.,-1.,0.));
#217=DIRECTION('',(0.,0.,-1.));
#218=DIRECTION('',(0.,-1.,0.));
#219=DIRECTION('',(0.,0.,-1.));
#220=DIRECTION('',(0.,1.,0.));
#221=DIRECTION('',(0.,0.,1.));
#222=CARTESIAN_POINT('',(0.,0.,0.));
#223=CARTESIAN_POINT('',(0.,0.,0.));
#224=CARTESIAN_POINT('',(0.,0.7,0.));
#225=CARTESIAN_POINT('',(0.,0.7,-0.3));
#226=CARTESIAN_POINT('',(0.,8.,0.));
#227=CARTESIAN_POINT('',(0.,8.,-0.3));
#228=CARTESIAN_POINT('',(0.,0.7,0.));
#229=CARTESIAN_POINT('',(0.,0.,0.));
#230=CARTESIAN_POINT('',(0.,0.,-1.));
#231=CARTESIAN_POINT('',(0.,0.,0.));
#232=CARTESIAN_POINT('',(0.,0.25,0.));
#233=CARTESIAN_POINT('',(0.,0.25,-1.25));
#234=CARTESIAN_POINT('',(0.,0.25,0.));
#235=CARTESIAN_POINT('',(0.,0.679289321881345,0.));
#236=CARTESIAN_POINT('',(0.,0.679289321881345,-0.820710678118655));
#237=CARTESIAN_POINT('',(0.,0.75,0.));
#238=CARTESIAN_POINT('',(0.,0.820710678118655,0.));
#239=CARTESIAN_POINT('',(0.,0.820710678118655,-0.820710678118655));
#240=CARTESIAN_POINT('',(0.,0.820710678118655,0.));
#241=CARTESIAN_POINT('',(0.,2.,0.));
#242=CARTESIAN_POINT('',(0.,2.,-2.));
#243=CARTESIAN_POINT('',(0.,0.,0.));
#244=CARTESIAN_POINT('',(0.,4.,0.));
#245=CARTESIAN_POINT('',(0.,4.,-2.));
#246=CARTESIAN_POINT('',(2.,4.,0.));
#247=CARTESIAN_POINT('',(0.,4.,0.));
#248=CARTESIAN_POINT('',(0.,4.,-1.6));
#249=CARTESIAN_POINT('',(0.,0.,0.));
#250=CARTESIAN_POINT('',(0.,7.6,0.));
#251=CARTESIAN_POINT('',(0.,7.6,-1.6));
#252=CARTESIAN_POINT('',(0.,7.6,0.));
#253=CARTESIAN_POINT('',(0.,8.,0.));
#254=CARTESIAN_POINT('',(0.,8.,-1.2));
#255=CARTESIAN_POINT('',(1.2,8.,0.));
#256=MECHANICAL_DESIGN_GEOMETRIC_PRESENTATION_REPRESENTATION('',(#142),
#257);
#257=(
GEOMETRIC_REPRESENTATION_CONTEXT(3)
GLOBAL_UNCERTAINTY_ASSIGNED_CONTEXT((#258))
GLOBAL_UNIT_ASSIGNED_CONTEXT((#261,#260,#259))
REPRESENTATION_CONTEXT('189266 ESS-2-SS','TOP_LEVEL_ASSEMBLY_PART')
);
#258=UNCERTAINTY_MEASURE_WITH_UNIT(LENGTH_MEASURE(0.005),#261,
'DISTANCE_ACCURACY_VALUE','Maximum Tolerance applied to model');
#259=(
NAMED_UNIT(*)
SI_UNIT($,.STERADIAN.)
SOLID_ANGLE_UNIT()
);
#260=(
NAMED_UNIT(*)
PLANE_ANGLE_UNIT()
SI_UNIT($,.RADIAN.)
);
#261=(
LENGTH_UNIT()
NAMED_UNIT(*)
SI_UNIT(.MILLI.,.METRE.)
);
#262=PRODUCT_DEFINITION_SHAPE('','',#263);
#263=PRODUCT_DEFINITION('','',#265,#264);
#264=PRODUCT_DEFINITION_CONTEXT('',#271,'design');
#265=PRODUCT_DEFINITION_FORMATION_WITH_SPECIFIED_SOURCE('','',#267,
 .NOT_KNOWN.);
#266=PRODUCT_RELATED_PRODUCT_CATEGORY('','',(#267));
#267=PRODUCT('189266 ESS-2-SS','189266 ESS-2-SS','189266 ESS-2-SS',(#269));
#268=PRODUCT_CATEGORY('','');
#269=PRODUCT_CONTEXT('',#271,'mechanical');
#270=APPLICATION_PROTOCOL_DEFINITION('international standard',
'automotive_design',2010,#271);
#271=APPLICATION_CONTEXT(
'core data for automotive mechanical design processes');
ENDSEC;
END-ISO-10303-21;
