ISO-10303-21;
HEADER;
/* Generated by software containing ST-Developer
 * from STEP Tools, Inc. (www.steptools.com) 
 */
/* OPTION: using custom renumber hook */

FILE_DESCRIPTION(
/* description */ ('STEP AP214'),
/* implementation_level */ '2;1');

FILE_NAME(
/* name */ '189281_ESS-8-SS',
/* time_stamp */ '2024-08-28T10:44:02+02:00',
/* author */ ('License CC BY-ND 4.0'),
/* organization */ ('CADENAS'),
/* preprocessor_version */ 'ST-DEVELOPER v19.3',
/* originating_system */ 'PARTsolutions',
/* authorisation */ '  ');

FILE_SCHEMA (('AUTOMOTIVE_DESIGN {1 0 10303 214 3 1 1}'));
ENDSEC;

DATA;
#10=PROPERTY_DEFINITION_REPRESENTATION(#14,#12);
#11=PROPERTY_DEFINITION_REPRESENTATION(#15,#13);
#12=REPRESENTATION('',(#16),#277);
#13=REPRESENTATION('',(#17),#277);
#14=PROPERTY_DEFINITION('pmi validation property','',#282);
#15=PROPERTY_DEFINITION('pmi validation property','',#282);
#16=VALUE_REPRESENTATION_ITEM('number of annotations',COUNT_MEASURE(0.));
#17=VALUE_REPRESENTATION_ITEM('number of views',COUNT_MEASURE(0.));
#18=SHAPE_REPRESENTATION_RELATIONSHIP('','',#163,#19);
#19=ADVANCED_BREP_SHAPE_REPRESENTATION('',(#161),#277);
#20=TOROIDAL_SURFACE('',#180,2.625,0.374999999999999);
#21=TOROIDAL_SURFACE('',#186,1.3,0.5);
#22=CONICAL_SURFACE('',#170,1.71954981558864,1.0471975511966);
#23=CONICAL_SURFACE('',#172,4.,0.698131700797731);
#24=CONICAL_SURFACE('',#174,4.41954981558864,0.959931088596881);
#25=CONICAL_SURFACE('',#176,2.38081391687915,0.523598775598299);
#26=PLANE('',#168);
#27=PLANE('',#182);
#28=PLANE('',#188);
#29=ORIENTED_EDGE('',*,*,#53,.T.);
#30=ORIENTED_EDGE('',*,*,#54,.F.);
#31=ORIENTED_EDGE('',*,*,#55,.T.);
#32=ORIENTED_EDGE('',*,*,#53,.F.);
#33=ORIENTED_EDGE('',*,*,#56,.T.);
#34=ORIENTED_EDGE('',*,*,#55,.F.);
#35=ORIENTED_EDGE('',*,*,#57,.T.);
#36=ORIENTED_EDGE('',*,*,#56,.F.);
#37=ORIENTED_EDGE('',*,*,#58,.T.);
#38=ORIENTED_EDGE('',*,*,#57,.F.);
#39=ORIENTED_EDGE('',*,*,#59,.T.);
#40=ORIENTED_EDGE('',*,*,#58,.F.);
#41=ORIENTED_EDGE('',*,*,#60,.T.);
#42=ORIENTED_EDGE('',*,*,#59,.F.);
#43=ORIENTED_EDGE('',*,*,#61,.T.);
#44=ORIENTED_EDGE('',*,*,#60,.F.);
#45=ORIENTED_EDGE('',*,*,#62,.T.);
#46=ORIENTED_EDGE('',*,*,#61,.F.);
#47=ORIENTED_EDGE('',*,*,#63,.T.);
#48=ORIENTED_EDGE('',*,*,#62,.F.);
#49=ORIENTED_EDGE('',*,*,#63,.F.);
#50=ORIENTED_EDGE('',*,*,#64,.T.);
#51=ORIENTED_EDGE('',*,*,#54,.T.);
#52=ORIENTED_EDGE('',*,*,#64,.F.);
#53=EDGE_CURVE('',#65,#65,#77,.T.);
#54=EDGE_CURVE('',#66,#66,#78,.T.);
#55=EDGE_CURVE('',#67,#67,#79,.T.);
#56=EDGE_CURVE('',#68,#68,#80,.T.);
#57=EDGE_CURVE('',#69,#69,#81,.T.);
#58=EDGE_CURVE('',#70,#70,#82,.T.);
#59=EDGE_CURVE('',#71,#71,#83,.T.);
#60=EDGE_CURVE('',#72,#72,#84,.T.);
#61=EDGE_CURVE('',#73,#73,#85,.T.);
#62=EDGE_CURVE('',#74,#74,#86,.T.);
#63=EDGE_CURVE('',#75,#75,#87,.T.);
#64=EDGE_CURVE('',#76,#76,#88,.T.);
#65=VERTEX_POINT('',#242);
#66=VERTEX_POINT('',#244);
#67=VERTEX_POINT('',#247);
#68=VERTEX_POINT('',#250);
#69=VERTEX_POINT('',#253);
#70=VERTEX_POINT('',#256);
#71=VERTEX_POINT('',#259);
#72=VERTEX_POINT('',#262);
#73=VERTEX_POINT('',#265);
#74=VERTEX_POINT('',#268);
#75=VERTEX_POINT('',#271);
#76=VERTEX_POINT('',#274);
#77=CIRCLE('',#166,1.);
#78=CIRCLE('',#167,1.);
#79=CIRCLE('',#169,1.71954981558864);
#80=CIRCLE('',#171,4.);
#81=CIRCLE('',#173,4.41954981558864);
#82=CIRCLE('',#175,2.38081391687915);
#83=CIRCLE('',#177,3.);
#84=CIRCLE('',#179,3.);
#85=CIRCLE('',#181,2.625);
#86=CIRCLE('',#183,1.3);
#87=CIRCLE('',#185,1.3);
#88=CIRCLE('',#187,1.3);
#89=EDGE_LOOP('',(#29));
#90=EDGE_LOOP('',(#30));
#91=EDGE_LOOP('',(#31));
#92=EDGE_LOOP('',(#32));
#93=EDGE_LOOP('',(#33));
#94=EDGE_LOOP('',(#34));
#95=EDGE_LOOP('',(#35));
#96=EDGE_LOOP('',(#36));
#97=EDGE_LOOP('',(#37));
#98=EDGE_LOOP('',(#38));
#99=EDGE_LOOP('',(#39));
#100=EDGE_LOOP('',(#40));
#101=EDGE_LOOP('',(#41));
#102=EDGE_LOOP('',(#42));
#103=EDGE_LOOP('',(#43));
#104=EDGE_LOOP('',(#44));
#105=EDGE_LOOP('',(#45));
#106=EDGE_LOOP('',(#46));
#107=EDGE_LOOP('',(#47));
#108=EDGE_LOOP('',(#48));
#109=EDGE_LOOP('',(#49));
#110=EDGE_LOOP('',(#50));
#111=EDGE_LOOP('',(#51));
#112=EDGE_LOOP('',(#52));
#113=FACE_BOUND('',#89,.T.);
#114=FACE_BOUND('',#90,.T.);
#115=FACE_BOUND('',#91,.T.);
#116=FACE_BOUND('',#92,.T.);
#117=FACE_BOUND('',#93,.T.);
#118=FACE_BOUND('',#94,.T.);
#119=FACE_BOUND('',#95,.T.);
#120=FACE_BOUND('',#96,.T.);
#121=FACE_BOUND('',#97,.T.);
#122=FACE_BOUND('',#98,.T.);
#123=FACE_BOUND('',#99,.T.);
#124=FACE_BOUND('',#100,.T.);
#125=FACE_BOUND('',#101,.T.);
#126=FACE_BOUND('',#102,.T.);
#127=FACE_BOUND('',#103,.T.);
#128=FACE_BOUND('',#104,.T.);
#129=FACE_BOUND('',#105,.T.);
#130=FACE_BOUND('',#106,.T.);
#131=FACE_BOUND('',#107,.T.);
#132=FACE_BOUND('',#108,.T.);
#133=FACE_BOUND('',#109,.T.);
#134=FACE_BOUND('',#110,.T.);
#135=FACE_BOUND('',#111,.T.);
#136=FACE_BOUND('',#112,.T.);
#137=CYLINDRICAL_SURFACE('',#165,1.);
#138=CYLINDRICAL_SURFACE('',#178,3.);
#139=CYLINDRICAL_SURFACE('',#184,1.3);
#140=ADVANCED_FACE('',(#113,#114),#137,.F.);
#141=ADVANCED_FACE('',(#115,#116),#26,.T.);
#142=ADVANCED_FACE('',(#117,#118),#22,.F.);
#143=ADVANCED_FACE('',(#119,#120),#23,.T.);
#144=ADVANCED_FACE('',(#121,#122),#24,.T.);
#145=ADVANCED_FACE('',(#123,#124),#25,.T.);
#146=ADVANCED_FACE('',(#125,#126),#138,.T.);
#147=ADVANCED_FACE('',(#127,#128),#20,.T.);
#148=ADVANCED_FACE('',(#129,#130),#27,.T.);
#149=ADVANCED_FACE('',(#131,#132),#139,.F.);
#150=ADVANCED_FACE('',(#133,#134),#21,.F.);
#151=ADVANCED_FACE('',(#135,#136),#28,.T.);
#152=CLOSED_SHELL('',(#140,#141,#142,#143,#144,#145,#146,#147,#148,#149,
#150,#151));
#153=STYLED_ITEM('',(#154),#161);
#154=PRESENTATION_STYLE_ASSIGNMENT((#155));
#155=SURFACE_STYLE_USAGE(.BOTH.,#156);
#156=SURFACE_SIDE_STYLE('',(#157));
#157=SURFACE_STYLE_FILL_AREA(#158);
#158=FILL_AREA_STYLE('',(#159));
#159=FILL_AREA_STYLE_COLOUR('',#160);
#160=COLOUR_RGB('',0.949999988079071,0.949999988079071,0.949999988079071);
#161=MANIFOLD_SOLID_BREP('189281 ESS-8-SS',#152);
#162=SHAPE_DEFINITION_REPRESENTATION(#282,#163);
#163=SHAPE_REPRESENTATION('189281 ESS-8-SS',(#164),#277);
#164=AXIS2_PLACEMENT_3D('',#239,#189,#190);
#165=AXIS2_PLACEMENT_3D('',#240,#191,#192);
#166=AXIS2_PLACEMENT_3D('',#241,#193,#194);
#167=AXIS2_PLACEMENT_3D('',#243,#195,#196);
#168=AXIS2_PLACEMENT_3D('',#245,#197,#198);
#169=AXIS2_PLACEMENT_3D('',#246,#199,#200);
#170=AXIS2_PLACEMENT_3D('',#248,#201,#202);
#171=AXIS2_PLACEMENT_3D('',#249,#203,#204);
#172=AXIS2_PLACEMENT_3D('',#251,#205,#206);
#173=AXIS2_PLACEMENT_3D('',#252,#207,#208);
#174=AXIS2_PLACEMENT_3D('',#254,#209,#210);
#175=AXIS2_PLACEMENT_3D('',#255,#211,#212);
#176=AXIS2_PLACEMENT_3D('',#257,#213,#214);
#177=AXIS2_PLACEMENT_3D('',#258,#215,#216);
#178=AXIS2_PLACEMENT_3D('',#260,#217,#218);
#179=AXIS2_PLACEMENT_3D('',#261,#219,#220);
#180=AXIS2_PLACEMENT_3D('',#263,#221,#222);
#181=AXIS2_PLACEMENT_3D('',#264,#223,#224);
#182=AXIS2_PLACEMENT_3D('',#266,#225,#226);
#183=AXIS2_PLACEMENT_3D('',#267,#227,#228);
#184=AXIS2_PLACEMENT_3D('',#269,#229,#230);
#185=AXIS2_PLACEMENT_3D('',#270,#231,#232);
#186=AXIS2_PLACEMENT_3D('',#272,#233,#234);
#187=AXIS2_PLACEMENT_3D('',#273,#235,#236);
#188=AXIS2_PLACEMENT_3D('',#275,#237,#238);
#189=DIRECTION('',(0.,0.,1.));
#190=DIRECTION('',(1.,0.,0.));
#191=DIRECTION('',(0.,-1.,0.));
#192=DIRECTION('',(0.,0.,-1.));
#193=DIRECTION('',(0.,-1.,0.));
#194=DIRECTION('',(0.,0.,-1.));
#195=DIRECTION('',(0.,-1.,0.));
#196=DIRECTION('',(0.,0.,-1.));
#197=DIRECTION('',(0.,-1.,0.));
#198=DIRECTION('',(0.,0.,-1.));
#199=DIRECTION('',(0.,-1.,0.));
#200=DIRECTION('',(0.,0.,-1.));
#201=DIRECTION('',(0.,-1.,0.));
#202=DIRECTION('',(0.,0.,-1.));
#203=DIRECTION('',(0.,-1.,0.));
#204=DIRECTION('',(0.,0.,-1.));
#205=DIRECTION('',(0.,1.,0.));
#206=DIRECTION('',(0.,0.,1.));
#207=DIRECTION('',(0.,-1.,0.));
#208=DIRECTION('',(0.,0.,-1.));
#209=DIRECTION('',(0.,-1.,0.));
#210=DIRECTION('',(0.,0.,-1.));
#211=DIRECTION('',(0.,-1.,0.));
#212=DIRECTION('',(0.,0.,-1.));
#213=DIRECTION('',(0.,1.,0.));
#214=DIRECTION('',(0.,0.,1.));
#215=DIRECTION('',(0.,-1.,0.));
#216=DIRECTION('',(0.,0.,-1.));
#217=DIRECTION('',(0.,-1.,0.));
#218=DIRECTION('',(0.,0.,-1.));
#219=DIRECTION('',(0.,-1.,0.));
#220=DIRECTION('',(0.,0.,-1.));
#221=DIRECTION('',(0.,-1.,0.));
#222=DIRECTION('',(0.,0.,-1.));
#223=DIRECTION('',(0.,-1.,0.));
#224=DIRECTION('',(0.,0.,-1.));
#225=DIRECTION('',(0.,1.,0.));
#226=DIRECTION('',(0.,0.,1.));
#227=DIRECTION('',(0.,-1.,0.));
#228=DIRECTION('',(0.,0.,-1.));
#229=DIRECTION('',(0.,-1.,0.));
#230=DIRECTION('',(0.,0.,-1.));
#231=DIRECTION('',(0.,-1.,0.));
#232=DIRECTION('',(0.,0.,-1.));
#233=DIRECTION('',(0.,-1.,0.));
#234=DIRECTION('',(0.,0.,-1.));
#235=DIRECTION('',(0.,-1.,0.));
#236=DIRECTION('',(0.,0.,-1.));
#237=DIRECTION('',(0.,1.,0.));
#238=DIRECTION('',(0.,0.,1.));
#239=CARTESIAN_POINT('',(0.,0.,0.));
#240=CARTESIAN_POINT('',(0.,0.,0.));
#241=CARTESIAN_POINT('',(0.,1.31661852784343,0.));
#242=CARTESIAN_POINT('',(0.,1.31661852784343,-1.));
#243=CARTESIAN_POINT('',(0.,2.75,0.));
#244=CARTESIAN_POINT('',(0.,2.75,-1.));
#245=CARTESIAN_POINT('',(1.,1.31661852784343,0.));
#246=CARTESIAN_POINT('',(0.,1.31661852784343,0.));
#247=CARTESIAN_POINT('',(0.,1.31661852784343,-1.71954981558864));
#248=CARTESIAN_POINT('',(0.,1.31661852784343,0.));
#249=CARTESIAN_POINT('',(0.,-2.16840434497101E-16,0.));
#250=CARTESIAN_POINT('',(0.,-2.16840434497101E-16,-4.));
#251=CARTESIAN_POINT('',(0.,-2.16840434497101E-16,0.));
#252=CARTESIAN_POINT('',(0.,0.5,0.));
#253=CARTESIAN_POINT('',(0.,0.5,-4.41954981558864));
#254=CARTESIAN_POINT('',(0.,0.5,0.));
#255=CARTESIAN_POINT('',(0.,1.92753824469513,0.));
#256=CARTESIAN_POINT('',(0.,1.92753824469513,-2.38081391687915));
#257=CARTESIAN_POINT('',(0.,1.92753824469513,0.));
#258=CARTESIAN_POINT('',(0.,3.,0.));
#259=CARTESIAN_POINT('',(0.,3.,-3.));
#260=CARTESIAN_POINT('',(0.,0.,0.));
#261=CARTESIAN_POINT('',(0.,5.125,0.));
#262=CARTESIAN_POINT('',(0.,5.125,-3.));
#263=CARTESIAN_POINT('',(0.,5.125,0.));
#264=CARTESIAN_POINT('',(0.,5.5,0.));
#265=CARTESIAN_POINT('',(0.,5.5,-2.625));
#266=CARTESIAN_POINT('',(2.625,5.5,0.));
#267=CARTESIAN_POINT('',(0.,5.5,0.));
#268=CARTESIAN_POINT('',(0.,5.5,-1.3));
#269=CARTESIAN_POINT('',(0.,0.,0.));
#270=CARTESIAN_POINT('',(0.,3.75,0.));
#271=CARTESIAN_POINT('',(0.,3.75,-1.3));
#272=CARTESIAN_POINT('',(0.,3.25,0.));
#273=CARTESIAN_POINT('',(0.,2.75,0.));
#274=CARTESIAN_POINT('',(0.,2.75,-1.3));
#275=CARTESIAN_POINT('',(1.3,2.75,0.));
#276=MECHANICAL_DESIGN_GEOMETRIC_PRESENTATION_REPRESENTATION('',(#153),
#277);
#277=(
GEOMETRIC_REPRESENTATION_CONTEXT(3)
GLOBAL_UNCERTAINTY_ASSIGNED_CONTEXT((#278))
GLOBAL_UNIT_ASSIGNED_CONTEXT((#281,#280,#279))
REPRESENTATION_CONTEXT('189281 ESS-8-SS','TOP_LEVEL_ASSEMBLY_PART')
);
#278=UNCERTAINTY_MEASURE_WITH_UNIT(LENGTH_MEASURE(0.005),#281,
'DISTANCE_ACCURACY_VALUE','Maximum Tolerance applied to model');
#279=(
NAMED_UNIT(*)
SI_UNIT($,.STERADIAN.)
SOLID_ANGLE_UNIT()
);
#280=(
NAMED_UNIT(*)
PLANE_ANGLE_UNIT()
SI_UNIT($,.RADIAN.)
);
#281=(
LENGTH_UNIT()
NAMED_UNIT(*)
SI_UNIT(.MILLI.,.METRE.)
);
#282=PRODUCT_DEFINITION_SHAPE('','',#283);
#283=PRODUCT_DEFINITION('','',#285,#284);
#284=PRODUCT_DEFINITION_CONTEXT('',#291,'design');
#285=PRODUCT_DEFINITION_FORMATION_WITH_SPECIFIED_SOURCE('','',#287,
 .NOT_KNOWN.);
#286=PRODUCT_RELATED_PRODUCT_CATEGORY('','',(#287));
#287=PRODUCT('189281 ESS-8-SS','189281 ESS-8-SS','189281 ESS-8-SS',(#289));
#288=PRODUCT_CATEGORY('','');
#289=PRODUCT_CONTEXT('',#291,'mechanical');
#290=APPLICATION_PROTOCOL_DEFINITION('international standard',
'automotive_design',2010,#291);
#291=APPLICATION_CONTEXT(
'core data for automotive mechanical design processes');
ENDSEC;
END-ISO-10303-21;
