ISO-10303-21;
HEADER;
/* Generated by software containing ST-Developer
 * from STEP Tools, Inc. (www.steptools.com) 
 */
/* OPTION: using custom renumber hook */

FILE_DESCRIPTION(
/* description */ ('STEP AP214'),
/* implementation_level */ '2;1');

FILE_NAME(
/* name */ '189286_ESS-10-SS',
/* time_stamp */ '2024-08-28T08:22:22+02:00',
/* author */ ('License CC BY-ND 4.0'),
/* organization */ ('CADENAS'),
/* preprocessor_version */ 'ST-DEVELOPER v19.3',
/* originating_system */ 'PARTsolutions',
/* authorisation */ '  ');

FILE_SCHEMA (('AUTOMOTIVE_DESIGN {1 0 10303 214 3 1 1}'));
ENDSEC;

DATA;
#10=PROPERTY_DEFINITION_REPRESENTATION(#14,#12);
#11=PROPERTY_DEFINITION_REPRESENTATION(#15,#13);
#12=REPRESENTATION('',(#16),#558);
#13=REPRESENTATION('',(#17),#558);
#14=PROPERTY_DEFINITION('pmi validation property','',#563);
#15=PROPERTY_DEFINITION('pmi validation property','',#563);
#16=VALUE_REPRESENTATION_ITEM('number of annotations',COUNT_MEASURE(0.));
#17=VALUE_REPRESENTATION_ITEM('number of views',COUNT_MEASURE(0.));
#18=SHAPE_REPRESENTATION_RELATIONSHIP('','',#386,#19);
#19=ADVANCED_BREP_SHAPE_REPRESENTATION('',(#384),#558);
#20=TOROIDAL_SURFACE('',#396,4.375,0.625000000000001);
#21=CYLINDRICAL_SURFACE('',#392,2.);
#22=CYLINDRICAL_SURFACE('',#398,5.);
#23=CONICAL_SURFACE('',#390,1.5705,0.78539816339745);
#24=CONICAL_SURFACE('',#400,5.00000000000001,0.698131700797731);
#25=CONICAL_SURFACE('',#402,3.66725020957559,1.0471975511966);
#26=CONICAL_SURFACE('',#404,5.41954981558865,0.698131700797729);
#27=CONICAL_SURFACE('',#406,5.00000000000001,1.0471975511966);
#28=LINE('',#493,#46);
#29=LINE('',#496,#47);
#30=LINE('',#498,#48);
#31=LINE('',#500,#49);
#32=LINE('',#502,#50);
#33=LINE('',#504,#51);
#34=LINE('',#533,#52);
#35=LINE('',#536,#53);
#36=LINE('',#538,#54);
#37=LINE('',#540,#55);
#38=LINE('',#542,#56);
#39=LINE('',#544,#57);
#40=LINE('',#546,#58);
#41=LINE('',#547,#59);
#42=LINE('',#549,#60);
#43=LINE('',#551,#61);
#44=LINE('',#553,#62);
#45=LINE('',#555,#63);
#46=VECTOR('',#421,1000.);
#47=VECTOR('',#422,1000.);
#48=VECTOR('',#423,1000.);
#49=VECTOR('',#424,1000.);
#50=VECTOR('',#425,1000.);
#51=VECTOR('',#426,1000.);
#52=VECTOR('',#465,1000.);
#53=VECTOR('',#466,1000.);
#54=VECTOR('',#467,1000.);
#55=VECTOR('',#468,1000.);
#56=VECTOR('',#469,1000.);
#57=VECTOR('',#470,1000.);
#58=VECTOR('',#473,1000.);
#59=VECTOR('',#474,1000.);
#60=VECTOR('',#477,1000.);
#61=VECTOR('',#480,1000.);
#62=VECTOR('',#483,1000.);
#63=VECTOR('',#486,1000.);
#64=ORIENTED_EDGE('',*,*,#120,.F.);
#65=ORIENTED_EDGE('',*,*,#121,.F.);
#66=ORIENTED_EDGE('',*,*,#122,.F.);
#67=ORIENTED_EDGE('',*,*,#123,.F.);
#68=ORIENTED_EDGE('',*,*,#124,.F.);
#69=ORIENTED_EDGE('',*,*,#125,.F.);
#70=ORIENTED_EDGE('',*,*,#126,.F.);
#71=ORIENTED_EDGE('',*,*,#127,.F.);
#72=ORIENTED_EDGE('',*,*,#120,.T.);
#73=ORIENTED_EDGE('',*,*,#128,.F.);
#74=ORIENTED_EDGE('',*,*,#127,.T.);
#75=ORIENTED_EDGE('',*,*,#129,.F.);
#76=ORIENTED_EDGE('',*,*,#128,.T.);
#77=ORIENTED_EDGE('',*,*,#129,.T.);
#78=ORIENTED_EDGE('',*,*,#130,.F.);
#79=ORIENTED_EDGE('',*,*,#131,.F.);
#80=ORIENTED_EDGE('',*,*,#130,.T.);
#81=ORIENTED_EDGE('',*,*,#132,.F.);
#82=ORIENTED_EDGE('',*,*,#131,.T.);
#83=ORIENTED_EDGE('',*,*,#133,.F.);
#84=ORIENTED_EDGE('',*,*,#132,.T.);
#85=ORIENTED_EDGE('',*,*,#134,.F.);
#86=ORIENTED_EDGE('',*,*,#133,.T.);
#87=ORIENTED_EDGE('',*,*,#135,.F.);
#88=ORIENTED_EDGE('',*,*,#134,.T.);
#89=ORIENTED_EDGE('',*,*,#136,.T.);
#90=ORIENTED_EDGE('',*,*,#137,.T.);
#91=ORIENTED_EDGE('',*,*,#138,.T.);
#92=ORIENTED_EDGE('',*,*,#139,.T.);
#93=ORIENTED_EDGE('',*,*,#140,.T.);
#94=ORIENTED_EDGE('',*,*,#141,.T.);
#95=ORIENTED_EDGE('',*,*,#135,.T.);
#96=ORIENTED_EDGE('',*,*,#142,.T.);
#97=ORIENTED_EDGE('',*,*,#123,.T.);
#98=ORIENTED_EDGE('',*,*,#143,.F.);
#99=ORIENTED_EDGE('',*,*,#140,.F.);
#100=ORIENTED_EDGE('',*,*,#143,.T.);
#101=ORIENTED_EDGE('',*,*,#122,.T.);
#102=ORIENTED_EDGE('',*,*,#144,.F.);
#103=ORIENTED_EDGE('',*,*,#141,.F.);
#104=ORIENTED_EDGE('',*,*,#144,.T.);
#105=ORIENTED_EDGE('',*,*,#121,.T.);
#106=ORIENTED_EDGE('',*,*,#145,.F.);
#107=ORIENTED_EDGE('',*,*,#136,.F.);
#108=ORIENTED_EDGE('',*,*,#145,.T.);
#109=ORIENTED_EDGE('',*,*,#126,.T.);
#110=ORIENTED_EDGE('',*,*,#146,.F.);
#111=ORIENTED_EDGE('',*,*,#137,.F.);
#112=ORIENTED_EDGE('',*,*,#146,.T.);
#113=ORIENTED_EDGE('',*,*,#125,.T.);
#114=ORIENTED_EDGE('',*,*,#147,.F.);
#115=ORIENTED_EDGE('',*,*,#138,.F.);
#116=ORIENTED_EDGE('',*,*,#147,.T.);
#117=ORIENTED_EDGE('',*,*,#124,.T.);
#118=ORIENTED_EDGE('',*,*,#142,.F.);
#119=ORIENTED_EDGE('',*,*,#139,.F.);
#120=EDGE_CURVE('',#148,#148,#170,.T.);
#121=EDGE_CURVE('',#149,#150,#28,.T.);
#122=EDGE_CURVE('',#151,#149,#29,.T.);
#123=EDGE_CURVE('',#152,#151,#30,.T.);
#124=EDGE_CURVE('',#153,#152,#31,.T.);
#125=EDGE_CURVE('',#154,#153,#32,.T.);
#126=EDGE_CURVE('',#150,#154,#33,.T.);
#127=EDGE_CURVE('',#155,#155,#171,.T.);
#128=EDGE_CURVE('',#156,#156,#172,.T.);
#129=EDGE_CURVE('',#157,#157,#173,.T.);
#130=EDGE_CURVE('',#158,#158,#174,.T.);
#131=EDGE_CURVE('',#159,#159,#175,.T.);
#132=EDGE_CURVE('',#160,#160,#176,.T.);
#133=EDGE_CURVE('',#161,#161,#177,.T.);
#134=EDGE_CURVE('',#162,#162,#178,.T.);
#135=EDGE_CURVE('',#163,#163,#179,.T.);
#136=EDGE_CURVE('',#164,#165,#34,.T.);
#137=EDGE_CURVE('',#165,#166,#35,.T.);
#138=EDGE_CURVE('',#166,#167,#36,.T.);
#139=EDGE_CURVE('',#167,#168,#37,.T.);
#140=EDGE_CURVE('',#168,#169,#38,.T.);
#141=EDGE_CURVE('',#169,#164,#39,.T.);
#142=EDGE_CURVE('',#168,#152,#40,.T.);
#143=EDGE_CURVE('',#169,#151,#41,.T.);
#144=EDGE_CURVE('',#164,#149,#42,.T.);
#145=EDGE_CURVE('',#165,#150,#43,.T.);
#146=EDGE_CURVE('',#166,#154,#44,.T.);
#147=EDGE_CURVE('',#167,#153,#45,.T.);
#148=VERTEX_POINT('',#492);
#149=VERTEX_POINT('',#494);
#150=VERTEX_POINT('',#495);
#151=VERTEX_POINT('',#497);
#152=VERTEX_POINT('',#499);
#153=VERTEX_POINT('',#501);
#154=VERTEX_POINT('',#503);
#155=VERTEX_POINT('',#507);
#156=VERTEX_POINT('',#510);
#157=VERTEX_POINT('',#513);
#158=VERTEX_POINT('',#516);
#159=VERTEX_POINT('',#519);
#160=VERTEX_POINT('',#522);
#161=VERTEX_POINT('',#525);
#162=VERTEX_POINT('',#528);
#163=VERTEX_POINT('',#531);
#164=VERTEX_POINT('',#534);
#165=VERTEX_POINT('',#535);
#166=VERTEX_POINT('',#537);
#167=VERTEX_POINT('',#539);
#168=VERTEX_POINT('',#541);
#169=VERTEX_POINT('',#543);
#170=CIRCLE('',#389,1.5705);
#171=CIRCLE('',#391,2.);
#172=CIRCLE('',#393,2.);
#173=CIRCLE('',#395,4.375);
#174=CIRCLE('',#397,5.);
#175=CIRCLE('',#399,5.00000000000001);
#176=CIRCLE('',#401,3.66725020957559);
#177=CIRCLE('',#403,5.41954981558865);
#178=CIRCLE('',#405,5.00000000000001);
#179=CIRCLE('',#407,1.91954981558865);
#180=EDGE_LOOP('',(#64));
#181=EDGE_LOOP('',(#65,#66,#67,#68,#69,#70));
#182=EDGE_LOOP('',(#71));
#183=EDGE_LOOP('',(#72));
#184=EDGE_LOOP('',(#73));
#185=EDGE_LOOP('',(#74));
#186=EDGE_LOOP('',(#75));
#187=EDGE_LOOP('',(#76));
#188=EDGE_LOOP('',(#77));
#189=EDGE_LOOP('',(#78));
#190=EDGE_LOOP('',(#79));
#191=EDGE_LOOP('',(#80));
#192=EDGE_LOOP('',(#81));
#193=EDGE_LOOP('',(#82));
#194=EDGE_LOOP('',(#83));
#195=EDGE_LOOP('',(#84));
#196=EDGE_LOOP('',(#85));
#197=EDGE_LOOP('',(#86));
#198=EDGE_LOOP('',(#87));
#199=EDGE_LOOP('',(#88));
#200=EDGE_LOOP('',(#89,#90,#91,#92,#93,#94));
#201=EDGE_LOOP('',(#95));
#202=EDGE_LOOP('',(#96,#97,#98,#99));
#203=EDGE_LOOP('',(#100,#101,#102,#103));
#204=EDGE_LOOP('',(#104,#105,#106,#107));
#205=EDGE_LOOP('',(#108,#109,#110,#111));
#206=EDGE_LOOP('',(#112,#113,#114,#115));
#207=EDGE_LOOP('',(#116,#117,#118,#119));
#208=FACE_BOUND('',#180,.T.);
#209=FACE_BOUND('',#181,.T.);
#210=FACE_BOUND('',#182,.T.);
#211=FACE_BOUND('',#183,.T.);
#212=FACE_BOUND('',#184,.T.);
#213=FACE_BOUND('',#185,.T.);
#214=FACE_BOUND('',#186,.T.);
#215=FACE_BOUND('',#187,.T.);
#216=FACE_BOUND('',#188,.T.);
#217=FACE_BOUND('',#189,.T.);
#218=FACE_BOUND('',#190,.T.);
#219=FACE_BOUND('',#191,.T.);
#220=FACE_BOUND('',#192,.T.);
#221=FACE_BOUND('',#193,.T.);
#222=FACE_BOUND('',#194,.T.);
#223=FACE_BOUND('',#195,.T.);
#224=FACE_BOUND('',#196,.T.);
#225=FACE_BOUND('',#197,.T.);
#226=FACE_BOUND('',#198,.T.);
#227=FACE_BOUND('',#199,.T.);
#228=FACE_BOUND('',#200,.T.);
#229=FACE_BOUND('',#201,.T.);
#230=FACE_BOUND('',#202,.T.);
#231=FACE_BOUND('',#203,.T.);
#232=FACE_BOUND('',#204,.T.);
#233=FACE_BOUND('',#205,.T.);
#234=FACE_BOUND('',#206,.T.);
#235=FACE_BOUND('',#207,.T.);
#236=PLANE('',#388);
#237=PLANE('',#394);
#238=PLANE('',#408);
#239=PLANE('',#409);
#240=PLANE('',#410);
#241=PLANE('',#411);
#242=PLANE('',#412);
#243=PLANE('',#413);
#244=PLANE('',#414);
#245=STYLED_ITEM('',(#262),#366);
#246=STYLED_ITEM('',(#263),#367);
#247=STYLED_ITEM('',(#264),#368);
#248=STYLED_ITEM('',(#265),#369);
#249=STYLED_ITEM('',(#266),#370);
#250=STYLED_ITEM('',(#267),#371);
#251=STYLED_ITEM('',(#268),#372);
#252=STYLED_ITEM('',(#269),#373);
#253=STYLED_ITEM('',(#270),#374);
#254=STYLED_ITEM('',(#271),#375);
#255=STYLED_ITEM('',(#272),#376);
#256=STYLED_ITEM('',(#273),#377);
#257=STYLED_ITEM('',(#274),#378);
#258=STYLED_ITEM('',(#275),#379);
#259=STYLED_ITEM('',(#276),#380);
#260=STYLED_ITEM('',(#277),#381);
#261=STYLED_ITEM('',(#278),#382);
#262=PRESENTATION_STYLE_ASSIGNMENT((#279));
#263=PRESENTATION_STYLE_ASSIGNMENT((#280));
#264=PRESENTATION_STYLE_ASSIGNMENT((#281));
#265=PRESENTATION_STYLE_ASSIGNMENT((#282));
#266=PRESENTATION_STYLE_ASSIGNMENT((#283));
#267=PRESENTATION_STYLE_ASSIGNMENT((#284));
#268=PRESENTATION_STYLE_ASSIGNMENT((#285));
#269=PRESENTATION_STYLE_ASSIGNMENT((#286));
#270=PRESENTATION_STYLE_ASSIGNMENT((#287));
#271=PRESENTATION_STYLE_ASSIGNMENT((#288));
#272=PRESENTATION_STYLE_ASSIGNMENT((#289));
#273=PRESENTATION_STYLE_ASSIGNMENT((#290));
#274=PRESENTATION_STYLE_ASSIGNMENT((#291));
#275=PRESENTATION_STYLE_ASSIGNMENT((#292));
#276=PRESENTATION_STYLE_ASSIGNMENT((#293));
#277=PRESENTATION_STYLE_ASSIGNMENT((#294));
#278=PRESENTATION_STYLE_ASSIGNMENT((#295));
#279=SURFACE_STYLE_USAGE(.BOTH.,#296);
#280=SURFACE_STYLE_USAGE(.BOTH.,#297);
#281=SURFACE_STYLE_USAGE(.BOTH.,#298);
#282=SURFACE_STYLE_USAGE(.BOTH.,#299);
#283=SURFACE_STYLE_USAGE(.BOTH.,#300);
#284=SURFACE_STYLE_USAGE(.BOTH.,#301);
#285=SURFACE_STYLE_USAGE(.BOTH.,#302);
#286=SURFACE_STYLE_USAGE(.BOTH.,#303);
#287=SURFACE_STYLE_USAGE(.BOTH.,#304);
#288=SURFACE_STYLE_USAGE(.BOTH.,#305);
#289=SURFACE_STYLE_USAGE(.BOTH.,#306);
#290=SURFACE_STYLE_USAGE(.BOTH.,#307);
#291=SURFACE_STYLE_USAGE(.BOTH.,#308);
#292=SURFACE_STYLE_USAGE(.BOTH.,#309);
#293=SURFACE_STYLE_USAGE(.BOTH.,#310);
#294=SURFACE_STYLE_USAGE(.BOTH.,#311);
#295=SURFACE_STYLE_USAGE(.BOTH.,#312);
#296=SURFACE_SIDE_STYLE('',(#313));
#297=SURFACE_SIDE_STYLE('',(#314));
#298=SURFACE_SIDE_STYLE('',(#315));
#299=SURFACE_SIDE_STYLE('',(#316));
#300=SURFACE_SIDE_STYLE('',(#317));
#301=SURFACE_SIDE_STYLE('',(#318));
#302=SURFACE_SIDE_STYLE('',(#319));
#303=SURFACE_SIDE_STYLE('',(#320));
#304=SURFACE_SIDE_STYLE('',(#321));
#305=SURFACE_SIDE_STYLE('',(#322));
#306=SURFACE_SIDE_STYLE('',(#323));
#307=SURFACE_SIDE_STYLE('',(#324));
#308=SURFACE_SIDE_STYLE('',(#325));
#309=SURFACE_SIDE_STYLE('',(#326));
#310=SURFACE_SIDE_STYLE('',(#327));
#311=SURFACE_SIDE_STYLE('',(#328));
#312=SURFACE_SIDE_STYLE('',(#329));
#313=SURFACE_STYLE_FILL_AREA(#330);
#314=SURFACE_STYLE_FILL_AREA(#331);
#315=SURFACE_STYLE_FILL_AREA(#332);
#316=SURFACE_STYLE_FILL_AREA(#333);
#317=SURFACE_STYLE_FILL_AREA(#334);
#318=SURFACE_STYLE_FILL_AREA(#335);
#319=SURFACE_STYLE_FILL_AREA(#336);
#320=SURFACE_STYLE_FILL_AREA(#337);
#321=SURFACE_STYLE_FILL_AREA(#338);
#322=SURFACE_STYLE_FILL_AREA(#339);
#323=SURFACE_STYLE_FILL_AREA(#340);
#324=SURFACE_STYLE_FILL_AREA(#341);
#325=SURFACE_STYLE_FILL_AREA(#342);
#326=SURFACE_STYLE_FILL_AREA(#343);
#327=SURFACE_STYLE_FILL_AREA(#344);
#328=SURFACE_STYLE_FILL_AREA(#345);
#329=SURFACE_STYLE_FILL_AREA(#346);
#330=FILL_AREA_STYLE('',(#347));
#331=FILL_AREA_STYLE('',(#348));
#332=FILL_AREA_STYLE('',(#349));
#333=FILL_AREA_STYLE('',(#350));
#334=FILL_AREA_STYLE('',(#351));
#335=FILL_AREA_STYLE('',(#352));
#336=FILL_AREA_STYLE('',(#353));
#337=FILL_AREA_STYLE('',(#354));
#338=FILL_AREA_STYLE('',(#355));
#339=FILL_AREA_STYLE('',(#356));
#340=FILL_AREA_STYLE('',(#357));
#341=FILL_AREA_STYLE('',(#358));
#342=FILL_AREA_STYLE('',(#359));
#343=FILL_AREA_STYLE('',(#360));
#344=FILL_AREA_STYLE('',(#361));
#345=FILL_AREA_STYLE('',(#362));
#346=FILL_AREA_STYLE('',(#363));
#347=FILL_AREA_STYLE_COLOUR('',#364);
#348=FILL_AREA_STYLE_COLOUR('',#364);
#349=FILL_AREA_STYLE_COLOUR('',#364);
#350=FILL_AREA_STYLE_COLOUR('',#365);
#351=FILL_AREA_STYLE_COLOUR('',#365);
#352=FILL_AREA_STYLE_COLOUR('',#365);
#353=FILL_AREA_STYLE_COLOUR('',#365);
#354=FILL_AREA_STYLE_COLOUR('',#365);
#355=FILL_AREA_STYLE_COLOUR('',#365);
#356=FILL_AREA_STYLE_COLOUR('',#365);
#357=FILL_AREA_STYLE_COLOUR('',#364);
#358=FILL_AREA_STYLE_COLOUR('',#364);
#359=FILL_AREA_STYLE_COLOUR('',#364);
#360=FILL_AREA_STYLE_COLOUR('',#364);
#361=FILL_AREA_STYLE_COLOUR('',#364);
#362=FILL_AREA_STYLE_COLOUR('',#364);
#363=FILL_AREA_STYLE_COLOUR('',#364);
#364=COLOUR_RGB('',0.75300002098083,0.75300002098083,0.75300002098083);
#365=COLOUR_RGB('',0.949999988079071,0.949999988079071,0.949999988079071);
#366=ADVANCED_FACE('',(#208,#209),#236,.F.);
#367=ADVANCED_FACE('',(#210,#211),#23,.T.);
#368=ADVANCED_FACE('',(#212,#213),#21,.T.);
#369=ADVANCED_FACE('',(#214,#215),#237,.F.);
#370=ADVANCED_FACE('',(#216,#217),#20,.T.);
#371=ADVANCED_FACE('',(#218,#219),#22,.T.);
#372=ADVANCED_FACE('',(#220,#221),#24,.T.);
#373=ADVANCED_FACE('',(#222,#223),#25,.T.);
#374=ADVANCED_FACE('',(#224,#225),#26,.T.);
#375=ADVANCED_FACE('',(#226,#227),#27,.F.);
#376=ADVANCED_FACE('',(#228,#229),#238,.F.);
#377=ADVANCED_FACE('',(#230),#239,.F.);
#378=ADVANCED_FACE('',(#231),#240,.F.);
#379=ADVANCED_FACE('',(#232),#241,.F.);
#380=ADVANCED_FACE('',(#233),#242,.F.);
#381=ADVANCED_FACE('',(#234),#243,.F.);
#382=ADVANCED_FACE('',(#235),#244,.F.);
#383=CLOSED_SHELL('',(#366,#367,#368,#369,#370,#371,#372,#373,#374,#375,
#376,#377,#378,#379,#380,#381,#382));
#384=MANIFOLD_SOLID_BREP('189286 ESS-10-SS',#383);
#385=SHAPE_DEFINITION_REPRESENTATION(#563,#386);
#386=SHAPE_REPRESENTATION('189286 ESS-10-SS',(#387),#558);
#387=AXIS2_PLACEMENT_3D('',#489,#415,#416);
#388=AXIS2_PLACEMENT_3D('',#490,#417,#418);
#389=AXIS2_PLACEMENT_3D('',#491,#419,#420);
#390=AXIS2_PLACEMENT_3D('',#505,#427,#428);
#391=AXIS2_PLACEMENT_3D('',#506,#429,#430);
#392=AXIS2_PLACEMENT_3D('',#508,#431,#432);
#393=AXIS2_PLACEMENT_3D('',#509,#433,#434);
#394=AXIS2_PLACEMENT_3D('',#511,#435,#436);
#395=AXIS2_PLACEMENT_3D('',#512,#437,#438);
#396=AXIS2_PLACEMENT_3D('',#514,#439,#440);
#397=AXIS2_PLACEMENT_3D('',#515,#441,#442);
#398=AXIS2_PLACEMENT_3D('',#517,#443,#444);
#399=AXIS2_PLACEMENT_3D('',#518,#445,#446);
#400=AXIS2_PLACEMENT_3D('',#520,#447,#448);
#401=AXIS2_PLACEMENT_3D('',#521,#449,#450);
#402=AXIS2_PLACEMENT_3D('',#523,#451,#452);
#403=AXIS2_PLACEMENT_3D('',#524,#453,#454);
#404=AXIS2_PLACEMENT_3D('',#526,#455,#456);
#405=AXIS2_PLACEMENT_3D('',#527,#457,#458);
#406=AXIS2_PLACEMENT_3D('',#529,#459,#460);
#407=AXIS2_PLACEMENT_3D('',#530,#461,#462);
#408=AXIS2_PLACEMENT_3D('',#532,#463,#464);
#409=AXIS2_PLACEMENT_3D('',#545,#471,#472);
#410=AXIS2_PLACEMENT_3D('',#548,#475,#476);
#411=AXIS2_PLACEMENT_3D('',#550,#478,#479);
#412=AXIS2_PLACEMENT_3D('',#552,#481,#482);
#413=AXIS2_PLACEMENT_3D('',#554,#484,#485);
#414=AXIS2_PLACEMENT_3D('',#556,#487,#488);
#415=DIRECTION('',(0.,0.,1.));
#416=DIRECTION('',(1.,0.,0.));
#417=DIRECTION('',(-7.70528264295107E-16,-1.,0.));
#418=DIRECTION('',(1.,-7.70528264295107E-16,0.));
#419=DIRECTION('',(-7.70528264295107E-16,-1.,0.));
#420=DIRECTION('',(1.,-7.70528264295107E-16,0.));
#421=DIRECTION('',(0.866025403784439,0.,-0.5));
#422=DIRECTION('',(0.866025403784439,0.,0.5));
#423=DIRECTION('',(0.,0.,1.));
#424=DIRECTION('',(-0.866025403784439,0.,0.5));
#425=DIRECTION('',(-0.866025403784439,0.,-0.5));
#426=DIRECTION('',(0.,0.,-1.));
#427=DIRECTION('',(-7.70528264295107E-16,-1.,0.));
#428=DIRECTION('',(1.,-7.70528264295107E-16,0.));
#429=DIRECTION('',(-7.70528264295107E-16,-1.,0.));
#430=DIRECTION('',(1.,-7.70528264295107E-16,0.));
#431=DIRECTION('',(-7.70528264295107E-16,-1.,0.));
#432=DIRECTION('',(1.,-7.70528264295107E-16,0.));
#433=DIRECTION('',(-7.70528264295107E-16,-1.,0.));
#434=DIRECTION('',(1.,-7.70528264295107E-16,0.));
#435=DIRECTION('',(-7.70528264295107E-16,-1.,0.));
#436=DIRECTION('',(1.,-7.70528264295107E-16,0.));
#437=DIRECTION('',(-7.70528264295107E-16,-1.,0.));
#438=DIRECTION('',(1.,-7.70528264295107E-16,0.));
#439=DIRECTION('',(-7.70528264295107E-16,-1.,0.));
#440=DIRECTION('',(1.,-7.70528264295107E-16,0.));
#441=DIRECTION('',(-7.70528264295107E-16,-1.,0.));
#442=DIRECTION('',(1.,-7.70528264295107E-16,0.));
#443=DIRECTION('',(-7.70528264295107E-16,-1.,0.));
#444=DIRECTION('',(1.,-7.70528264295107E-16,0.));
#445=DIRECTION('',(-7.70528264295107E-16,-1.,0.));
#446=DIRECTION('',(1.,-7.70528264295107E-16,0.));
#447=DIRECTION('',(7.70528264295107E-16,1.,0.));
#448=DIRECTION('',(-1.,7.70528264295107E-16,0.));
#449=DIRECTION('',(-7.70528264295107E-16,-1.,0.));
#450=DIRECTION('',(1.,-7.70528264295107E-16,0.));
#451=DIRECTION('',(-7.70528264295107E-16,-1.,0.));
#452=DIRECTION('',(1.,-7.70528264295107E-16,0.));
#453=DIRECTION('',(-7.70528264295107E-16,-1.,0.));
#454=DIRECTION('',(1.,-7.70528264295107E-16,0.));
#455=DIRECTION('',(7.70528264295107E-16,1.,0.));
#456=DIRECTION('',(-1.,7.70528264295107E-16,0.));
#457=DIRECTION('',(-7.70528264295107E-16,-1.,0.));
#458=DIRECTION('',(1.,-7.70528264295107E-16,0.));
#459=DIRECTION('',(-7.70528264295107E-16,-1.,0.));
#460=DIRECTION('',(1.,-7.70528264295107E-16,0.));
#461=DIRECTION('',(-7.70528264295107E-16,-1.,0.));
#462=DIRECTION('',(1.,-7.70528264295107E-16,0.));
#463=DIRECTION('',(7.70528264295107E-16,1.,0.));
#464=DIRECTION('',(-1.,7.70528264295107E-16,0.));
#465=DIRECTION('',(0.866025403784439,-6.67297051213493E-16,-0.5));
#466=DIRECTION('',(0.,0.,-1.));
#467=DIRECTION('',(-0.866025403784439,6.67297051213493E-16,-0.5));
#468=DIRECTION('',(-0.866025403784439,6.67297051213493E-16,0.5));
#469=DIRECTION('',(0.,0.,1.));
#470=DIRECTION('',(0.866025403784439,-6.67297051213493E-16,0.5));
#471=DIRECTION('',(-1.,0.,0.));
#472=DIRECTION('',(0.,0.,1.));
#473=DIRECTION('',(0.,1.,0.));
#474=DIRECTION('',(0.,1.,0.));
#475=DIRECTION('',(-0.5,0.,0.866025403784439));
#476=DIRECTION('',(0.866025403784439,0.,0.5));
#477=DIRECTION('',(0.,1.,0.));
#478=DIRECTION('',(0.5,0.,0.866025403784439));
#479=DIRECTION('',(0.866025403784439,0.,-0.5));
#480=DIRECTION('',(0.,1.,0.));
#481=DIRECTION('',(1.,0.,0.));
#482=DIRECTION('',(0.,0.,-1.));
#483=DIRECTION('',(0.,1.,0.));
#484=DIRECTION('',(0.5,0.,-0.866025403784439));
#485=DIRECTION('',(-0.866025403784439,0.,-0.5));
#486=DIRECTION('',(0.,1.,0.));
#487=DIRECTION('',(-0.5,0.,-0.866025403784439));
#488=DIRECTION('',(-0.866025403784439,0.,0.5));
#489=CARTESIAN_POINT('',(0.,0.,0.));
#490=CARTESIAN_POINT('',(4.66213766222459E-31,11.,0.));
#491=CARTESIAN_POINT('',(0.,11.,0.));
#492=CARTESIAN_POINT('',(1.5705,11.,0.));
#493=CARTESIAN_POINT('',(0.,11.,1.15470053837925));
#494=CARTESIAN_POINT('',(0.,11.,1.15470053837925));
#495=CARTESIAN_POINT('',(1.,11.,0.577350269189626));
#496=CARTESIAN_POINT('',(-1.,11.,0.577350269189626));
#497=CARTESIAN_POINT('',(-1.,11.,0.577350269189626));
#498=CARTESIAN_POINT('',(-1.,11.,-0.577350269189626));
#499=CARTESIAN_POINT('',(-1.,11.,-0.577350269189626));
#500=CARTESIAN_POINT('',(0.,11.,-1.15470053837925));
#501=CARTESIAN_POINT('',(0.,11.,-1.15470053837925));
#502=CARTESIAN_POINT('',(1.,11.,-0.577350269189626));
#503=CARTESIAN_POINT('',(1.,11.,-0.577350269189626));
#504=CARTESIAN_POINT('',(1.,11.,0.577350269189626));
#505=CARTESIAN_POINT('',(0.,11.,0.));
#506=CARTESIAN_POINT('',(-3.30941889514747E-16,10.5705,0.));
#507=CARTESIAN_POINT('',(2.,10.5705,0.));
#508=CARTESIAN_POINT('',(-7.105427357601E-15,1.77849874319513,0.));
#509=CARTESIAN_POINT('',(-2.31158479288532E-15,8.,0.));
#510=CARTESIAN_POINT('',(2.,8.,0.));
#511=CARTESIAN_POINT('',(2.,8.,0.));
#512=CARTESIAN_POINT('',(-2.31158479288532E-15,8.,0.));
#513=CARTESIAN_POINT('',(4.375,8.,0.));
#514=CARTESIAN_POINT('',(-2.60208521396521E-15,7.375,0.));
#515=CARTESIAN_POINT('',(-2.79316495806976E-15,7.375,0.));
#516=CARTESIAN_POINT('',(5.,7.375,0.));
#517=CARTESIAN_POINT('',(-7.105427357601E-15,1.77849874319513,0.));
#518=CARTESIAN_POINT('',(-6.08717328793134E-15,3.1,0.));
#519=CARTESIAN_POINT('',(5.,3.1,0.));
#520=CARTESIAN_POINT('',(-6.08717328793134E-15,3.1,0.));
#521=CARTESIAN_POINT('',(-7.3110105351419E-15,1.51169064923252,0.));
#522=CARTESIAN_POINT('',(3.66725020957558,1.51169064923252,0.));
#523=CARTESIAN_POINT('',(-7.3110105351419E-15,1.51169064923252,0.));
#524=CARTESIAN_POINT('',(-8.09054677509862E-15,0.500000000000004,0.));
#525=CARTESIAN_POINT('',(5.41954981558864,0.5,0.));
#526=CARTESIAN_POINT('',(-8.09054677509862E-15,0.500000000000004,0.));
#527=CARTESIAN_POINT('',(-8.47581090724617E-15,3.90312782094782E-15,0.));
#528=CARTESIAN_POINT('',(5.,5.04864994722754E-17,0.));
#529=CARTESIAN_POINT('',(-8.47581090724617E-15,3.90312782094782E-15,0.));
#530=CARTESIAN_POINT('',(-7.105427357601E-15,1.77849874319513,0.));
#531=CARTESIAN_POINT('',(1.91954981558864,1.77849874319513,0.));
#532=CARTESIAN_POINT('',(1.91954981558864,1.77849874319513,0.));
#533=CARTESIAN_POINT('',(1.93966236169148,1.77849874319513,0.0348359517196907));
#534=CARTESIAN_POINT('',(0.,1.77849874319513,1.15470053837925));
#535=CARTESIAN_POINT('',(1.,1.77849874319513,0.577350269189626));
#536=CARTESIAN_POINT('',(1.,1.77849874319513,0.));
#537=CARTESIAN_POINT('',(1.,1.77849874319513,-0.577350269189626));
#538=CARTESIAN_POINT('',(1.93966236169148,1.77849874319513,-0.0348359517196906));
#539=CARTESIAN_POINT('',(0.,1.77849874319513,-1.15470053837925));
#540=CARTESIAN_POINT('',(0.93966236169148,1.77849874319513,-1.69721485584919));
#541=CARTESIAN_POINT('',(-1.,1.77849874319513,-0.577350269189626));
#542=CARTESIAN_POINT('',(-1.,1.77849874319513,0.));
#543=CARTESIAN_POINT('',(-1.,1.77849874319513,0.577350269189626));
#544=CARTESIAN_POINT('',(0.93966236169148,1.77849874319513,1.69721485584919));
#545=CARTESIAN_POINT('',(-1.,0.,-0.577350269189626));
#546=CARTESIAN_POINT('',(-1.,0.,-0.577350269189626));
#547=CARTESIAN_POINT('',(-1.,0.,0.577350269189626));
#548=CARTESIAN_POINT('',(-1.,0.,0.577350269189626));
#549=CARTESIAN_POINT('',(0.,0.,1.15470053837925));
#550=CARTESIAN_POINT('',(0.,0.,1.15470053837925));
#551=CARTESIAN_POINT('',(1.,0.,0.577350269189626));
#552=CARTESIAN_POINT('',(1.,0.,0.577350269189626));
#553=CARTESIAN_POINT('',(1.,0.,-0.577350269189626));
#554=CARTESIAN_POINT('',(1.,0.,-0.577350269189626));
#555=CARTESIAN_POINT('',(0.,0.,-1.15470053837925));
#556=CARTESIAN_POINT('',(0.,0.,-1.15470053837925));
#557=MECHANICAL_DESIGN_GEOMETRIC_PRESENTATION_REPRESENTATION('',(#245,#246,
#247,#248,#249,#250,#251,#252,#253,#254,#255,#256,#257,#258,#259,#260,#261),
#558);
#558=(
GEOMETRIC_REPRESENTATION_CONTEXT(3)
GLOBAL_UNCERTAINTY_ASSIGNED_CONTEXT((#559))
GLOBAL_UNIT_ASSIGNED_CONTEXT((#562,#561,#560))
REPRESENTATION_CONTEXT('189286 ESS-10-SS','TOP_LEVEL_ASSEMBLY_PART')
);
#559=UNCERTAINTY_MEASURE_WITH_UNIT(LENGTH_MEASURE(0.005),#562,
'DISTANCE_ACCURACY_VALUE','Maximum Tolerance applied to model');
#560=(
NAMED_UNIT(*)
SI_UNIT($,.STERADIAN.)
SOLID_ANGLE_UNIT()
);
#561=(
NAMED_UNIT(*)
PLANE_ANGLE_UNIT()
SI_UNIT($,.RADIAN.)
);
#562=(
LENGTH_UNIT()
NAMED_UNIT(*)
SI_UNIT(.MILLI.,.METRE.)
);
#563=PRODUCT_DEFINITION_SHAPE('','',#564);
#564=PRODUCT_DEFINITION('','',#566,#565);
#565=PRODUCT_DEFINITION_CONTEXT('',#572,'design');
#566=PRODUCT_DEFINITION_FORMATION_WITH_SPECIFIED_SOURCE('','',#568,
 .NOT_KNOWN.);
#567=PRODUCT_RELATED_PRODUCT_CATEGORY('','',(#568));
#568=PRODUCT('189286 ESS-10-SS','189286 ESS-10-SS','189286 ESS-10-SS',(#570));
#569=PRODUCT_CATEGORY('','');
#570=PRODUCT_CONTEXT('',#572,'mechanical');
#571=APPLICATION_PROTOCOL_DEFINITION('international standard',
'automotive_design',2010,#572);
#572=APPLICATION_CONTEXT(
'core data for automotive mechanical design processes');
ENDSEC;
END-ISO-10303-21;
