ISO-10303-21;
HEADER;
/* Generated by software containing ST-Developer
 * from STEP Tools, Inc. (www.steptools.com) 
 */
/* OPTION: using custom renumber hook */

FILE_DESCRIPTION(
/* description */ ('STEP AP214'),
/* implementation_level */ '2;1');

FILE_NAME(
/* name */ '189301_ESS-30-SS',
/* time_stamp */ '2024-08-27T07:28:03+02:00',
/* author */ ('License CC BY-ND 4.0'),
/* organization */ ('CADENAS'),
/* preprocessor_version */ 'ST-DEVELOPER v19.3',
/* originating_system */ 'PARTsolutions',
/* authorisation */ '  ');

FILE_SCHEMA (('AUTOMOTIVE_DESIGN {1 0 10303 214 3 1 1}'));
ENDSEC;

DATA;
#10=PROPERTY_DEFINITION_REPRESENTATION(#14,#12);
#11=PROPERTY_DEFINITION_REPRESENTATION(#15,#13);
#12=REPRESENTATION('',(#16),#666);
#13=REPRESENTATION('',(#17),#666);
#14=PROPERTY_DEFINITION('pmi validation property','',#671);
#15=PROPERTY_DEFINITION('pmi validation property','',#671);
#16=VALUE_REPRESENTATION_ITEM('number of annotations',COUNT_MEASURE(0.));
#17=VALUE_REPRESENTATION_ITEM('number of views',COUNT_MEASURE(0.));
#18=SHAPE_REPRESENTATION_RELATIONSHIP('','',#458,#19);
#19=ADVANCED_BREP_SHAPE_REPRESENTATION('',(#456),#666);
#20=TOROIDAL_SURFACE('',#476,7.4375,1.0625);
#21=CYLINDRICAL_SURFACE('',#464,3.);
#22=CYLINDRICAL_SURFACE('',#468,5.25);
#23=CYLINDRICAL_SURFACE('',#472,7.75);
#24=CYLINDRICAL_SURFACE('',#478,8.5);
#25=CONICAL_SURFACE('',#462,2.3865,0.785398163397448);
#26=CONICAL_SURFACE('',#480,8.5,1.08283739915987);
#27=CONICAL_SURFACE('',#482,15.75,0.785398163397449);
#28=CONICAL_SURFACE('',#484,15.,1.08283739915987);
#29=CONICAL_SURFACE('',#486,10.0146368807876,1.30899693899575);
#30=LINE('',#589,#48);
#31=LINE('',#592,#49);
#32=LINE('',#594,#50);
#33=LINE('',#596,#51);
#34=LINE('',#598,#52);
#35=LINE('',#600,#53);
#36=LINE('',#641,#54);
#37=LINE('',#644,#55);
#38=LINE('',#646,#56);
#39=LINE('',#648,#57);
#40=LINE('',#650,#58);
#41=LINE('',#652,#59);
#42=LINE('',#654,#60);
#43=LINE('',#655,#61);
#44=LINE('',#657,#62);
#45=LINE('',#659,#63);
#46=LINE('',#661,#64);
#47=LINE('',#663,#65);
#48=VECTOR('',#501,1000.);
#49=VECTOR('',#502,1000.);
#50=VECTOR('',#503,1000.);
#51=VECTOR('',#504,1000.);
#52=VECTOR('',#505,1000.);
#53=VECTOR('',#506,1000.);
#54=VECTOR('',#561,1000.);
#55=VECTOR('',#562,1000.);
#56=VECTOR('',#563,1000.);
#57=VECTOR('',#564,1000.);
#58=VECTOR('',#565,1000.);
#59=VECTOR('',#566,1000.);
#60=VECTOR('',#569,1000.);
#61=VECTOR('',#570,1000.);
#62=VECTOR('',#573,1000.);
#63=VECTOR('',#576,1000.);
#64=VECTOR('',#579,1000.);
#65=VECTOR('',#582,1000.);
#66=ORIENTED_EDGE('',*,*,#130,.F.);
#67=ORIENTED_EDGE('',*,*,#131,.F.);
#68=ORIENTED_EDGE('',*,*,#132,.F.);
#69=ORIENTED_EDGE('',*,*,#133,.F.);
#70=ORIENTED_EDGE('',*,*,#134,.F.);
#71=ORIENTED_EDGE('',*,*,#135,.F.);
#72=ORIENTED_EDGE('',*,*,#136,.F.);
#73=ORIENTED_EDGE('',*,*,#137,.F.);
#74=ORIENTED_EDGE('',*,*,#130,.T.);
#75=ORIENTED_EDGE('',*,*,#138,.F.);
#76=ORIENTED_EDGE('',*,*,#137,.T.);
#77=ORIENTED_EDGE('',*,*,#139,.F.);
#78=ORIENTED_EDGE('',*,*,#138,.T.);
#79=ORIENTED_EDGE('',*,*,#140,.F.);
#80=ORIENTED_EDGE('',*,*,#139,.T.);
#81=ORIENTED_EDGE('',*,*,#141,.F.);
#82=ORIENTED_EDGE('',*,*,#140,.T.);
#83=ORIENTED_EDGE('',*,*,#142,.F.);
#84=ORIENTED_EDGE('',*,*,#141,.T.);
#85=ORIENTED_EDGE('',*,*,#143,.F.);
#86=ORIENTED_EDGE('',*,*,#142,.T.);
#87=ORIENTED_EDGE('',*,*,#143,.T.);
#88=ORIENTED_EDGE('',*,*,#144,.F.);
#89=ORIENTED_EDGE('',*,*,#145,.F.);
#90=ORIENTED_EDGE('',*,*,#144,.T.);
#91=ORIENTED_EDGE('',*,*,#146,.F.);
#92=ORIENTED_EDGE('',*,*,#145,.T.);
#93=ORIENTED_EDGE('',*,*,#147,.F.);
#94=ORIENTED_EDGE('',*,*,#146,.T.);
#95=ORIENTED_EDGE('',*,*,#148,.F.);
#96=ORIENTED_EDGE('',*,*,#147,.T.);
#97=ORIENTED_EDGE('',*,*,#149,.F.);
#98=ORIENTED_EDGE('',*,*,#148,.T.);
#99=ORIENTED_EDGE('',*,*,#150,.T.);
#100=ORIENTED_EDGE('',*,*,#151,.T.);
#101=ORIENTED_EDGE('',*,*,#152,.T.);
#102=ORIENTED_EDGE('',*,*,#153,.T.);
#103=ORIENTED_EDGE('',*,*,#154,.T.);
#104=ORIENTED_EDGE('',*,*,#155,.T.);
#105=ORIENTED_EDGE('',*,*,#149,.T.);
#106=ORIENTED_EDGE('',*,*,#133,.T.);
#107=ORIENTED_EDGE('',*,*,#156,.F.);
#108=ORIENTED_EDGE('',*,*,#154,.F.);
#109=ORIENTED_EDGE('',*,*,#157,.T.);
#110=ORIENTED_EDGE('',*,*,#132,.T.);
#111=ORIENTED_EDGE('',*,*,#158,.F.);
#112=ORIENTED_EDGE('',*,*,#155,.F.);
#113=ORIENTED_EDGE('',*,*,#156,.T.);
#114=ORIENTED_EDGE('',*,*,#131,.T.);
#115=ORIENTED_EDGE('',*,*,#159,.F.);
#116=ORIENTED_EDGE('',*,*,#150,.F.);
#117=ORIENTED_EDGE('',*,*,#158,.T.);
#118=ORIENTED_EDGE('',*,*,#136,.T.);
#119=ORIENTED_EDGE('',*,*,#160,.F.);
#120=ORIENTED_EDGE('',*,*,#151,.F.);
#121=ORIENTED_EDGE('',*,*,#159,.T.);
#122=ORIENTED_EDGE('',*,*,#135,.T.);
#123=ORIENTED_EDGE('',*,*,#161,.F.);
#124=ORIENTED_EDGE('',*,*,#152,.F.);
#125=ORIENTED_EDGE('',*,*,#160,.T.);
#126=ORIENTED_EDGE('',*,*,#134,.T.);
#127=ORIENTED_EDGE('',*,*,#157,.F.);
#128=ORIENTED_EDGE('',*,*,#153,.F.);
#129=ORIENTED_EDGE('',*,*,#161,.T.);
#130=EDGE_CURVE('',#162,#162,#188,.T.);
#131=EDGE_CURVE('',#163,#164,#30,.T.);
#132=EDGE_CURVE('',#165,#163,#31,.T.);
#133=EDGE_CURVE('',#166,#165,#32,.T.);
#134=EDGE_CURVE('',#167,#166,#33,.T.);
#135=EDGE_CURVE('',#168,#167,#34,.T.);
#136=EDGE_CURVE('',#164,#168,#35,.T.);
#137=EDGE_CURVE('',#169,#169,#189,.T.);
#138=EDGE_CURVE('',#170,#170,#190,.T.);
#139=EDGE_CURVE('',#171,#171,#191,.T.);
#140=EDGE_CURVE('',#172,#172,#192,.T.);
#141=EDGE_CURVE('',#173,#173,#193,.T.);
#142=EDGE_CURVE('',#174,#174,#194,.T.);
#143=EDGE_CURVE('',#175,#175,#195,.T.);
#144=EDGE_CURVE('',#176,#176,#196,.T.);
#145=EDGE_CURVE('',#177,#177,#197,.T.);
#146=EDGE_CURVE('',#178,#178,#198,.T.);
#147=EDGE_CURVE('',#179,#179,#199,.T.);
#148=EDGE_CURVE('',#180,#180,#200,.T.);
#149=EDGE_CURVE('',#181,#181,#201,.T.);
#150=EDGE_CURVE('',#182,#183,#36,.T.);
#151=EDGE_CURVE('',#183,#184,#37,.T.);
#152=EDGE_CURVE('',#184,#185,#38,.T.);
#153=EDGE_CURVE('',#185,#186,#39,.T.);
#154=EDGE_CURVE('',#186,#187,#40,.T.);
#155=EDGE_CURVE('',#187,#182,#41,.T.);
#156=EDGE_CURVE('',#187,#165,#42,.T.);
#157=EDGE_CURVE('',#186,#166,#43,.T.);
#158=EDGE_CURVE('',#182,#163,#44,.T.);
#159=EDGE_CURVE('',#183,#164,#45,.T.);
#160=EDGE_CURVE('',#184,#168,#46,.T.);
#161=EDGE_CURVE('',#185,#167,#47,.T.);
#162=VERTEX_POINT('',#588);
#163=VERTEX_POINT('',#590);
#164=VERTEX_POINT('',#591);
#165=VERTEX_POINT('',#593);
#166=VERTEX_POINT('',#595);
#167=VERTEX_POINT('',#597);
#168=VERTEX_POINT('',#599);
#169=VERTEX_POINT('',#603);
#170=VERTEX_POINT('',#606);
#171=VERTEX_POINT('',#609);
#172=VERTEX_POINT('',#612);
#173=VERTEX_POINT('',#615);
#174=VERTEX_POINT('',#618);
#175=VERTEX_POINT('',#621);
#176=VERTEX_POINT('',#624);
#177=VERTEX_POINT('',#627);
#178=VERTEX_POINT('',#630);
#179=VERTEX_POINT('',#633);
#180=VERTEX_POINT('',#636);
#181=VERTEX_POINT('',#639);
#182=VERTEX_POINT('',#642);
#183=VERTEX_POINT('',#643);
#184=VERTEX_POINT('',#645);
#185=VERTEX_POINT('',#647);
#186=VERTEX_POINT('',#649);
#187=VERTEX_POINT('',#651);
#188=CIRCLE('',#461,2.3865);
#189=CIRCLE('',#463,3.);
#190=CIRCLE('',#465,3.);
#191=CIRCLE('',#467,5.25);
#192=CIRCLE('',#469,5.25);
#193=CIRCLE('',#471,7.75);
#194=CIRCLE('',#473,7.75);
#195=CIRCLE('',#475,7.4375);
#196=CIRCLE('',#477,8.5);
#197=CIRCLE('',#479,8.5);
#198=CIRCLE('',#481,15.75);
#199=CIRCLE('',#483,15.);
#200=CIRCLE('',#485,10.0146368807876);
#201=CIRCLE('',#487,7.20095923813468);
#202=EDGE_LOOP('',(#66));
#203=EDGE_LOOP('',(#67,#68,#69,#70,#71,#72));
#204=EDGE_LOOP('',(#73));
#205=EDGE_LOOP('',(#74));
#206=EDGE_LOOP('',(#75));
#207=EDGE_LOOP('',(#76));
#208=EDGE_LOOP('',(#77));
#209=EDGE_LOOP('',(#78));
#210=EDGE_LOOP('',(#79));
#211=EDGE_LOOP('',(#80));
#212=EDGE_LOOP('',(#81));
#213=EDGE_LOOP('',(#82));
#214=EDGE_LOOP('',(#83));
#215=EDGE_LOOP('',(#84));
#216=EDGE_LOOP('',(#85));
#217=EDGE_LOOP('',(#86));
#218=EDGE_LOOP('',(#87));
#219=EDGE_LOOP('',(#88));
#220=EDGE_LOOP('',(#89));
#221=EDGE_LOOP('',(#90));
#222=EDGE_LOOP('',(#91));
#223=EDGE_LOOP('',(#92));
#224=EDGE_LOOP('',(#93));
#225=EDGE_LOOP('',(#94));
#226=EDGE_LOOP('',(#95));
#227=EDGE_LOOP('',(#96));
#228=EDGE_LOOP('',(#97));
#229=EDGE_LOOP('',(#98));
#230=EDGE_LOOP('',(#99,#100,#101,#102,#103,#104));
#231=EDGE_LOOP('',(#105));
#232=EDGE_LOOP('',(#106,#107,#108,#109));
#233=EDGE_LOOP('',(#110,#111,#112,#113));
#234=EDGE_LOOP('',(#114,#115,#116,#117));
#235=EDGE_LOOP('',(#118,#119,#120,#121));
#236=EDGE_LOOP('',(#122,#123,#124,#125));
#237=EDGE_LOOP('',(#126,#127,#128,#129));
#238=FACE_BOUND('',#202,.T.);
#239=FACE_BOUND('',#203,.T.);
#240=FACE_BOUND('',#204,.T.);
#241=FACE_BOUND('',#205,.T.);
#242=FACE_BOUND('',#206,.T.);
#243=FACE_BOUND('',#207,.T.);
#244=FACE_BOUND('',#208,.T.);
#245=FACE_BOUND('',#209,.T.);
#246=FACE_BOUND('',#210,.T.);
#247=FACE_BOUND('',#211,.T.);
#248=FACE_BOUND('',#212,.T.);
#249=FACE_BOUND('',#213,.T.);
#250=FACE_BOUND('',#214,.T.);
#251=FACE_BOUND('',#215,.T.);
#252=FACE_BOUND('',#216,.T.);
#253=FACE_BOUND('',#217,.T.);
#254=FACE_BOUND('',#218,.T.);
#255=FACE_BOUND('',#219,.T.);
#256=FACE_BOUND('',#220,.T.);
#257=FACE_BOUND('',#221,.T.);
#258=FACE_BOUND('',#222,.T.);
#259=FACE_BOUND('',#223,.T.);
#260=FACE_BOUND('',#224,.T.);
#261=FACE_BOUND('',#225,.T.);
#262=FACE_BOUND('',#226,.T.);
#263=FACE_BOUND('',#227,.T.);
#264=FACE_BOUND('',#228,.T.);
#265=FACE_BOUND('',#229,.T.);
#266=FACE_BOUND('',#230,.T.);
#267=FACE_BOUND('',#231,.T.);
#268=FACE_BOUND('',#232,.T.);
#269=FACE_BOUND('',#233,.T.);
#270=FACE_BOUND('',#234,.T.);
#271=FACE_BOUND('',#235,.T.);
#272=FACE_BOUND('',#236,.T.);
#273=FACE_BOUND('',#237,.T.);
#274=PLANE('',#460);
#275=PLANE('',#466);
#276=PLANE('',#470);
#277=PLANE('',#474);
#278=PLANE('',#488);
#279=PLANE('',#489);
#280=PLANE('',#490);
#281=PLANE('',#491);
#282=PLANE('',#492);
#283=PLANE('',#493);
#284=PLANE('',#494);
#285=STYLED_ITEM('',(#306),#434);
#286=STYLED_ITEM('',(#307),#435);
#287=STYLED_ITEM('',(#308),#436);
#288=STYLED_ITEM('',(#309),#437);
#289=STYLED_ITEM('',(#310),#438);
#290=STYLED_ITEM('',(#311),#439);
#291=STYLED_ITEM('',(#312),#440);
#292=STYLED_ITEM('',(#313),#441);
#293=STYLED_ITEM('',(#314),#442);
#294=STYLED_ITEM('',(#315),#443);
#295=STYLED_ITEM('',(#316),#444);
#296=STYLED_ITEM('',(#317),#445);
#297=STYLED_ITEM('',(#318),#446);
#298=STYLED_ITEM('',(#319),#447);
#299=STYLED_ITEM('',(#320),#448);
#300=STYLED_ITEM('',(#321),#449);
#301=STYLED_ITEM('',(#322),#450);
#302=STYLED_ITEM('',(#323),#451);
#303=STYLED_ITEM('',(#324),#452);
#304=STYLED_ITEM('',(#325),#453);
#305=STYLED_ITEM('',(#326),#454);
#306=PRESENTATION_STYLE_ASSIGNMENT((#327));
#307=PRESENTATION_STYLE_ASSIGNMENT((#328));
#308=PRESENTATION_STYLE_ASSIGNMENT((#329));
#309=PRESENTATION_STYLE_ASSIGNMENT((#330));
#310=PRESENTATION_STYLE_ASSIGNMENT((#331));
#311=PRESENTATION_STYLE_ASSIGNMENT((#332));
#312=PRESENTATION_STYLE_ASSIGNMENT((#333));
#313=PRESENTATION_STYLE_ASSIGNMENT((#334));
#314=PRESENTATION_STYLE_ASSIGNMENT((#335));
#315=PRESENTATION_STYLE_ASSIGNMENT((#336));
#316=PRESENTATION_STYLE_ASSIGNMENT((#337));
#317=PRESENTATION_STYLE_ASSIGNMENT((#338));
#318=PRESENTATION_STYLE_ASSIGNMENT((#339));
#319=PRESENTATION_STYLE_ASSIGNMENT((#340));
#320=PRESENTATION_STYLE_ASSIGNMENT((#341));
#321=PRESENTATION_STYLE_ASSIGNMENT((#342));
#322=PRESENTATION_STYLE_ASSIGNMENT((#343));
#323=PRESENTATION_STYLE_ASSIGNMENT((#344));
#324=PRESENTATION_STYLE_ASSIGNMENT((#345));
#325=PRESENTATION_STYLE_ASSIGNMENT((#346));
#326=PRESENTATION_STYLE_ASSIGNMENT((#347));
#327=SURFACE_STYLE_USAGE(.BOTH.,#348);
#328=SURFACE_STYLE_USAGE(.BOTH.,#349);
#329=SURFACE_STYLE_USAGE(.BOTH.,#350);
#330=SURFACE_STYLE_USAGE(.BOTH.,#351);
#331=SURFACE_STYLE_USAGE(.BOTH.,#352);
#332=SURFACE_STYLE_USAGE(.BOTH.,#353);
#333=SURFACE_STYLE_USAGE(.BOTH.,#354);
#334=SURFACE_STYLE_USAGE(.BOTH.,#355);
#335=SURFACE_STYLE_USAGE(.BOTH.,#356);
#336=SURFACE_STYLE_USAGE(.BOTH.,#357);
#337=SURFACE_STYLE_USAGE(.BOTH.,#358);
#338=SURFACE_STYLE_USAGE(.BOTH.,#359);
#339=SURFACE_STYLE_USAGE(.BOTH.,#360);
#340=SURFACE_STYLE_USAGE(.BOTH.,#361);
#341=SURFACE_STYLE_USAGE(.BOTH.,#362);
#342=SURFACE_STYLE_USAGE(.BOTH.,#363);
#343=SURFACE_STYLE_USAGE(.BOTH.,#364);
#344=SURFACE_STYLE_USAGE(.BOTH.,#365);
#345=SURFACE_STYLE_USAGE(.BOTH.,#366);
#346=SURFACE_STYLE_USAGE(.BOTH.,#367);
#347=SURFACE_STYLE_USAGE(.BOTH.,#368);
#348=SURFACE_SIDE_STYLE('',(#369));
#349=SURFACE_SIDE_STYLE('',(#370));
#350=SURFACE_SIDE_STYLE('',(#371));
#351=SURFACE_SIDE_STYLE('',(#372));
#352=SURFACE_SIDE_STYLE('',(#373));
#353=SURFACE_SIDE_STYLE('',(#374));
#354=SURFACE_SIDE_STYLE('',(#375));
#355=SURFACE_SIDE_STYLE('',(#376));
#356=SURFACE_SIDE_STYLE('',(#377));
#357=SURFACE_SIDE_STYLE('',(#378));
#358=SURFACE_SIDE_STYLE('',(#379));
#359=SURFACE_SIDE_STYLE('',(#380));
#360=SURFACE_SIDE_STYLE('',(#381));
#361=SURFACE_SIDE_STYLE('',(#382));
#362=SURFACE_SIDE_STYLE('',(#383));
#363=SURFACE_SIDE_STYLE('',(#384));
#364=SURFACE_SIDE_STYLE('',(#385));
#365=SURFACE_SIDE_STYLE('',(#386));
#366=SURFACE_SIDE_STYLE('',(#387));
#367=SURFACE_SIDE_STYLE('',(#388));
#368=SURFACE_SIDE_STYLE('',(#389));
#369=SURFACE_STYLE_FILL_AREA(#390);
#370=SURFACE_STYLE_FILL_AREA(#391);
#371=SURFACE_STYLE_FILL_AREA(#392);
#372=SURFACE_STYLE_FILL_AREA(#393);
#373=SURFACE_STYLE_FILL_AREA(#394);
#374=SURFACE_STYLE_FILL_AREA(#395);
#375=SURFACE_STYLE_FILL_AREA(#396);
#376=SURFACE_STYLE_FILL_AREA(#397);
#377=SURFACE_STYLE_FILL_AREA(#398);
#378=SURFACE_STYLE_FILL_AREA(#399);
#379=SURFACE_STYLE_FILL_AREA(#400);
#380=SURFACE_STYLE_FILL_AREA(#401);
#381=SURFACE_STYLE_FILL_AREA(#402);
#382=SURFACE_STYLE_FILL_AREA(#403);
#383=SURFACE_STYLE_FILL_AREA(#404);
#384=SURFACE_STYLE_FILL_AREA(#405);
#385=SURFACE_STYLE_FILL_AREA(#406);
#386=SURFACE_STYLE_FILL_AREA(#407);
#387=SURFACE_STYLE_FILL_AREA(#408);
#388=SURFACE_STYLE_FILL_AREA(#409);
#389=SURFACE_STYLE_FILL_AREA(#410);
#390=FILL_AREA_STYLE('',(#411));
#391=FILL_AREA_STYLE('',(#412));
#392=FILL_AREA_STYLE('',(#413));
#393=FILL_AREA_STYLE('',(#414));
#394=FILL_AREA_STYLE('',(#415));
#395=FILL_AREA_STYLE('',(#416));
#396=FILL_AREA_STYLE('',(#417));
#397=FILL_AREA_STYLE('',(#418));
#398=FILL_AREA_STYLE('',(#419));
#399=FILL_AREA_STYLE('',(#420));
#400=FILL_AREA_STYLE('',(#421));
#401=FILL_AREA_STYLE('',(#422));
#402=FILL_AREA_STYLE('',(#423));
#403=FILL_AREA_STYLE('',(#424));
#404=FILL_AREA_STYLE('',(#425));
#405=FILL_AREA_STYLE('',(#426));
#406=FILL_AREA_STYLE('',(#427));
#407=FILL_AREA_STYLE('',(#428));
#408=FILL_AREA_STYLE('',(#429));
#409=FILL_AREA_STYLE('',(#430));
#410=FILL_AREA_STYLE('',(#431));
#411=FILL_AREA_STYLE_COLOUR('',#432);
#412=FILL_AREA_STYLE_COLOUR('',#432);
#413=FILL_AREA_STYLE_COLOUR('',#432);
#414=FILL_AREA_STYLE_COLOUR('',#433);
#415=FILL_AREA_STYLE_COLOUR('',#432);
#416=FILL_AREA_STYLE_COLOUR('',#432);
#417=FILL_AREA_STYLE_COLOUR('',#432);
#418=FILL_AREA_STYLE_COLOUR('',#432);
#419=FILL_AREA_STYLE_COLOUR('',#433);
#420=FILL_AREA_STYLE_COLOUR('',#433);
#421=FILL_AREA_STYLE_COLOUR('',#433);
#422=FILL_AREA_STYLE_COLOUR('',#433);
#423=FILL_AREA_STYLE_COLOUR('',#433);
#424=FILL_AREA_STYLE_COLOUR('',#433);
#425=FILL_AREA_STYLE_COLOUR('',#432);
#426=FILL_AREA_STYLE_COLOUR('',#432);
#427=FILL_AREA_STYLE_COLOUR('',#432);
#428=FILL_AREA_STYLE_COLOUR('',#432);
#429=FILL_AREA_STYLE_COLOUR('',#432);
#430=FILL_AREA_STYLE_COLOUR('',#432);
#431=FILL_AREA_STYLE_COLOUR('',#432);
#432=COLOUR_RGB('',0.75300002098083,0.75300002098083,0.75300002098083);
#433=COLOUR_RGB('',0.949999988079071,0.949999988079071,0.949999988079071);
#434=ADVANCED_FACE('',(#238,#239),#274,.F.);
#435=ADVANCED_FACE('',(#240,#241),#25,.T.);
#436=ADVANCED_FACE('',(#242,#243),#21,.T.);
#437=ADVANCED_FACE('',(#244,#245),#275,.F.);
#438=ADVANCED_FACE('',(#246,#247),#22,.F.);
#439=ADVANCED_FACE('',(#248,#249),#276,.F.);
#440=ADVANCED_FACE('',(#250,#251),#23,.T.);
#441=ADVANCED_FACE('',(#252,#253),#277,.F.);
#442=ADVANCED_FACE('',(#254,#255),#20,.T.);
#443=ADVANCED_FACE('',(#256,#257),#24,.T.);
#444=ADVANCED_FACE('',(#258,#259),#26,.T.);
#445=ADVANCED_FACE('',(#260,#261),#27,.T.);
#446=ADVANCED_FACE('',(#262,#263),#28,.F.);
#447=ADVANCED_FACE('',(#264,#265),#29,.F.);
#448=ADVANCED_FACE('',(#266,#267),#278,.F.);
#449=ADVANCED_FACE('',(#268),#279,.F.);
#450=ADVANCED_FACE('',(#269),#280,.F.);
#451=ADVANCED_FACE('',(#270),#281,.F.);
#452=ADVANCED_FACE('',(#271),#282,.F.);
#453=ADVANCED_FACE('',(#272),#283,.F.);
#454=ADVANCED_FACE('',(#273),#284,.F.);
#455=CLOSED_SHELL('',(#434,#435,#436,#437,#438,#439,#440,#441,#442,#443,
#444,#445,#446,#447,#448,#449,#450,#451,#452,#453,#454));
#456=MANIFOLD_SOLID_BREP('189301 ESS-30-SS',#455);
#457=SHAPE_DEFINITION_REPRESENTATION(#671,#458);
#458=SHAPE_REPRESENTATION('189301 ESS-30-SS',(#459),#666);
#459=AXIS2_PLACEMENT_3D('',#585,#495,#496);
#460=AXIS2_PLACEMENT_3D('',#586,#497,#498);
#461=AXIS2_PLACEMENT_3D('',#587,#499,#500);
#462=AXIS2_PLACEMENT_3D('',#601,#507,#508);
#463=AXIS2_PLACEMENT_3D('',#602,#509,#510);
#464=AXIS2_PLACEMENT_3D('',#604,#511,#512);
#465=AXIS2_PLACEMENT_3D('',#605,#513,#514);
#466=AXIS2_PLACEMENT_3D('',#607,#515,#516);
#467=AXIS2_PLACEMENT_3D('',#608,#517,#518);
#468=AXIS2_PLACEMENT_3D('',#610,#519,#520);
#469=AXIS2_PLACEMENT_3D('',#611,#521,#522);
#470=AXIS2_PLACEMENT_3D('',#613,#523,#524);
#471=AXIS2_PLACEMENT_3D('',#614,#525,#526);
#472=AXIS2_PLACEMENT_3D('',#616,#527,#528);
#473=AXIS2_PLACEMENT_3D('',#617,#529,#530);
#474=AXIS2_PLACEMENT_3D('',#619,#531,#532);
#475=AXIS2_PLACEMENT_3D('',#620,#533,#534);
#476=AXIS2_PLACEMENT_3D('',#622,#535,#536);
#477=AXIS2_PLACEMENT_3D('',#623,#537,#538);
#478=AXIS2_PLACEMENT_3D('',#625,#539,#540);
#479=AXIS2_PLACEMENT_3D('',#626,#541,#542);
#480=AXIS2_PLACEMENT_3D('',#628,#543,#544);
#481=AXIS2_PLACEMENT_3D('',#629,#545,#546);
#482=AXIS2_PLACEMENT_3D('',#631,#547,#548);
#483=AXIS2_PLACEMENT_3D('',#632,#549,#550);
#484=AXIS2_PLACEMENT_3D('',#634,#551,#552);
#485=AXIS2_PLACEMENT_3D('',#635,#553,#554);
#486=AXIS2_PLACEMENT_3D('',#637,#555,#556);
#487=AXIS2_PLACEMENT_3D('',#638,#557,#558);
#488=AXIS2_PLACEMENT_3D('',#640,#559,#560);
#489=AXIS2_PLACEMENT_3D('',#653,#567,#568);
#490=AXIS2_PLACEMENT_3D('',#656,#571,#572);
#491=AXIS2_PLACEMENT_3D('',#658,#574,#575);
#492=AXIS2_PLACEMENT_3D('',#660,#577,#578);
#493=AXIS2_PLACEMENT_3D('',#662,#580,#581);
#494=AXIS2_PLACEMENT_3D('',#664,#583,#584);
#495=DIRECTION('',(0.,0.,1.));
#496=DIRECTION('',(1.,0.,0.));
#497=DIRECTION('',(0.,-1.,0.));
#498=DIRECTION('',(0.,0.,-1.));
#499=DIRECTION('',(0.,-1.,0.));
#500=DIRECTION('',(0.,0.,-1.));
#501=DIRECTION('',(0.866025403784439,0.,-0.5));
#502=DIRECTION('',(0.866025403784439,0.,0.5));
#503=DIRECTION('',(0.,0.,1.));
#504=DIRECTION('',(-0.866025403784439,0.,0.5));
#505=DIRECTION('',(-0.866025403784439,0.,-0.5));
#506=DIRECTION('',(0.,0.,-1.));
#507=DIRECTION('',(0.,-1.,0.));
#508=DIRECTION('',(0.,0.,-1.));
#509=DIRECTION('',(0.,-1.,0.));
#510=DIRECTION('',(0.,0.,-1.));
#511=DIRECTION('',(0.,-1.,0.));
#512=DIRECTION('',(0.,0.,-1.));
#513=DIRECTION('',(0.,-1.,0.));
#514=DIRECTION('',(0.,0.,-1.));
#515=DIRECTION('',(0.,-1.,0.));
#516=DIRECTION('',(0.,0.,-1.));
#517=DIRECTION('',(0.,-1.,0.));
#518=DIRECTION('',(0.,0.,-1.));
#519=DIRECTION('',(0.,-1.,0.));
#520=DIRECTION('',(0.,0.,-1.));
#521=DIRECTION('',(0.,-1.,0.));
#522=DIRECTION('',(0.,0.,-1.));
#523=DIRECTION('',(0.,-1.,0.));
#524=DIRECTION('',(0.,0.,-1.));
#525=DIRECTION('',(0.,-1.,0.));
#526=DIRECTION('',(0.,0.,-1.));
#527=DIRECTION('',(0.,-1.,0.));
#528=DIRECTION('',(0.,0.,-1.));
#529=DIRECTION('',(0.,-1.,0.));
#530=DIRECTION('',(0.,0.,-1.));
#531=DIRECTION('',(0.,1.,0.));
#532=DIRECTION('',(0.,0.,1.));
#533=DIRECTION('',(0.,-1.,0.));
#534=DIRECTION('',(0.,0.,-1.));
#535=DIRECTION('',(0.,-1.,0.));
#536=DIRECTION('',(0.,0.,-1.));
#537=DIRECTION('',(0.,-1.,0.));
#538=DIRECTION('',(0.,0.,-1.));
#539=DIRECTION('',(0.,-1.,0.));
#540=DIRECTION('',(0.,0.,-1.));
#541=DIRECTION('',(0.,-1.,0.));
#542=DIRECTION('',(0.,0.,-1.));
#543=DIRECTION('',(0.,-1.,0.));
#544=DIRECTION('',(0.,0.,-1.));
#545=DIRECTION('',(0.,-1.,0.));
#546=DIRECTION('',(0.,0.,-1.));
#547=DIRECTION('',(0.,1.,0.));
#548=DIRECTION('',(0.,0.,1.));
#549=DIRECTION('',(0.,-1.,0.));
#550=DIRECTION('',(0.,0.,-1.));
#551=DIRECTION('',(0.,-1.,0.));
#552=DIRECTION('',(0.,0.,-1.));
#553=DIRECTION('',(0.,-1.,0.));
#554=DIRECTION('',(0.,0.,-1.));
#555=DIRECTION('',(0.,-1.,0.));
#556=DIRECTION('',(0.,0.,-1.));
#557=DIRECTION('',(0.,-1.,0.));
#558=DIRECTION('',(0.,0.,-1.));
#559=DIRECTION('',(0.,1.,0.));
#560=DIRECTION('',(0.,0.,1.));
#561=DIRECTION('',(0.866025403784439,0.,-0.5));
#562=DIRECTION('',(0.,0.,-1.));
#563=DIRECTION('',(-0.866025403784439,0.,-0.5));
#564=DIRECTION('',(-0.866025403784439,0.,0.5));
#565=DIRECTION('',(0.,0.,1.));
#566=DIRECTION('',(0.866025403784439,0.,0.5));
#567=DIRECTION('',(-1.,0.,0.));
#568=DIRECTION('',(0.,0.,1.));
#569=DIRECTION('',(0.,1.,0.));
#570=DIRECTION('',(0.,1.,0.));
#571=DIRECTION('',(-0.5,0.,0.866025403784439));
#572=DIRECTION('',(0.866025403784439,0.,0.5));
#573=DIRECTION('',(0.,1.,0.));
#574=DIRECTION('',(0.5,0.,0.866025403784439));
#575=DIRECTION('',(0.866025403784439,0.,-0.5));
#576=DIRECTION('',(0.,1.,0.));
#577=DIRECTION('',(1.,0.,0.));
#578=DIRECTION('',(0.,0.,-1.));
#579=DIRECTION('',(0.,1.,0.));
#580=DIRECTION('',(0.5,0.,-0.866025403784439));
#581=DIRECTION('',(-0.866025403784439,0.,-0.5));
#582=DIRECTION('',(0.,1.,0.));
#583=DIRECTION('',(-0.5,0.,-0.866025403784439));
#584=DIRECTION('',(-0.866025403784439,0.,0.5));
#585=CARTESIAN_POINT('',(0.,0.,0.));
#586=CARTESIAN_POINT('',(0.,16.,0.));
#587=CARTESIAN_POINT('',(0.,16.,0.));
#588=CARTESIAN_POINT('',(0.,16.,-2.3865));
#589=CARTESIAN_POINT('',(0.,16.,1.73205080756888));
#590=CARTESIAN_POINT('',(0.,16.,1.73205080756888));
#591=CARTESIAN_POINT('',(1.5,16.,0.866025403784439));
#592=CARTESIAN_POINT('',(-1.5,16.,0.866025403784439));
#593=CARTESIAN_POINT('',(-1.5,16.,0.866025403784439));
#594=CARTESIAN_POINT('',(-1.5,16.,-0.866025403784439));
#595=CARTESIAN_POINT('',(-1.5,16.,-0.866025403784439));
#596=CARTESIAN_POINT('',(0.,16.,-1.73205080756888));
#597=CARTESIAN_POINT('',(1.0842021724855E-16,16.,-1.73205080756888));
#598=CARTESIAN_POINT('',(1.5,16.,-0.866025403784439));
#599=CARTESIAN_POINT('',(1.5,16.,-0.866025403784438));
#600=CARTESIAN_POINT('',(1.5,16.,0.866025403784439));
#601=CARTESIAN_POINT('',(0.,16.,0.));
#602=CARTESIAN_POINT('',(0.,15.3865,0.));
#603=CARTESIAN_POINT('',(0.,15.3865,-3.));
#604=CARTESIAN_POINT('',(0.,3.4,0.));
#605=CARTESIAN_POINT('',(0.,11.,0.));
#606=CARTESIAN_POINT('',(0.,11.,-3.));
#607=CARTESIAN_POINT('',(3.,11.,0.));
#608=CARTESIAN_POINT('',(0.,11.,0.));
#609=CARTESIAN_POINT('',(0.,11.,-5.25));
#610=CARTESIAN_POINT('',(0.,3.4,0.));
#611=CARTESIAN_POINT('',(0.,12.6,0.));
#612=CARTESIAN_POINT('',(0.,12.6,-5.25));
#613=CARTESIAN_POINT('',(5.25,12.6,0.));
#614=CARTESIAN_POINT('',(0.,12.6,0.));
#615=CARTESIAN_POINT('',(0.,12.6,-7.75));
#616=CARTESIAN_POINT('',(0.,3.4,0.));
#617=CARTESIAN_POINT('',(0.,11.,0.));
#618=CARTESIAN_POINT('',(0.,11.,-7.75));
#619=CARTESIAN_POINT('',(7.75,11.,0.));
#620=CARTESIAN_POINT('',(0.,11.,0.));
#621=CARTESIAN_POINT('',(0.,11.,-7.4375));
#622=CARTESIAN_POINT('',(0.,9.9375,0.));
#623=CARTESIAN_POINT('',(0.,9.9375,0.));
#624=CARTESIAN_POINT('',(0.,9.9375,-8.5));
#625=CARTESIAN_POINT('',(0.,3.4,0.));
#626=CARTESIAN_POINT('',(0.,4.59807692307692,0.));
#627=CARTESIAN_POINT('',(0.,4.59807692307692,-8.5));
#628=CARTESIAN_POINT('',(0.,4.59807692307692,0.));
#629=CARTESIAN_POINT('',(0.,0.749999999999999,0.));
#630=CARTESIAN_POINT('',(0.,0.749999999999999,-15.75));
#631=CARTESIAN_POINT('',(0.,0.749999999999999,0.));
#632=CARTESIAN_POINT('',(0.,0.,0.));
#633=CARTESIAN_POINT('',(0.,0.,-15.));
#634=CARTESIAN_POINT('',(0.,0.,0.));
#635=CARTESIAN_POINT('',(0.,2.64607734788963,0.));
#636=CARTESIAN_POINT('',(0.,2.64607734788963,-10.0146368807876));
#637=CARTESIAN_POINT('',(0.,2.64607734788963,0.));
#638=CARTESIAN_POINT('',(0.,3.4,0.));
#639=CARTESIAN_POINT('',(0.,3.4,-7.20095923813468));
#640=CARTESIAN_POINT('',(7.20095923813468,3.4,0.));
#641=CARTESIAN_POINT('',(0.,3.4,1.73205080756888));
#642=CARTESIAN_POINT('',(0.,3.4,1.73205080756888));
#643=CARTESIAN_POINT('',(1.5,3.4,0.866025403784439));
#644=CARTESIAN_POINT('',(1.5,3.4,0.));
#645=CARTESIAN_POINT('',(1.5,3.4,-0.866025403784438));
#646=CARTESIAN_POINT('',(1.5,3.4,-0.866025403784439));
#647=CARTESIAN_POINT('',(0.,3.4,-1.73205080756888));
#648=CARTESIAN_POINT('',(0.,3.4,-1.73205080756888));
#649=CARTESIAN_POINT('',(-1.5,3.4,-0.866025403784439));
#650=CARTESIAN_POINT('',(-1.5,3.4,-0.866025403784439));
#651=CARTESIAN_POINT('',(-1.5,3.4,0.866025403784439));
#652=CARTESIAN_POINT('',(-1.5,3.4,0.866025403784439));
#653=CARTESIAN_POINT('',(-1.5,3.4,-0.866025403784439));
#654=CARTESIAN_POINT('',(-1.5,3.4,0.866025403784439));
#655=CARTESIAN_POINT('',(-1.5,3.4,-0.866025403784439));
#656=CARTESIAN_POINT('',(-1.5,3.4,0.866025403784439));
#657=CARTESIAN_POINT('',(0.,3.4,1.73205080756888));
#658=CARTESIAN_POINT('',(0.,3.4,1.73205080756888));
#659=CARTESIAN_POINT('',(1.5,3.4,0.866025403784439));
#660=CARTESIAN_POINT('',(1.5,3.4,0.866025403784439));
#661=CARTESIAN_POINT('',(1.5,3.4,-0.866025403784438));
#662=CARTESIAN_POINT('',(1.5,3.4,-0.866025403784439));
#663=CARTESIAN_POINT('',(0.,3.4,-1.73205080756888));
#664=CARTESIAN_POINT('',(0.,3.4,-1.73205080756888));
#665=MECHANICAL_DESIGN_GEOMETRIC_PRESENTATION_REPRESENTATION('',(#285,#286,
#287,#288,#289,#290,#291,#292,#293,#294,#295,#296,#297,#298,#299,#300,#301,
#302,#303,#304,#305),#666);
#666=(
GEOMETRIC_REPRESENTATION_CONTEXT(3)
GLOBAL_UNCERTAINTY_ASSIGNED_CONTEXT((#667))
GLOBAL_UNIT_ASSIGNED_CONTEXT((#670,#669,#668))
REPRESENTATION_CONTEXT('189301 ESS-30-SS','TOP_LEVEL_ASSEMBLY_PART')
);
#667=UNCERTAINTY_MEASURE_WITH_UNIT(LENGTH_MEASURE(0.005),#670,
'DISTANCE_ACCURACY_VALUE','Maximum Tolerance applied to model');
#668=(
NAMED_UNIT(*)
SI_UNIT($,.STERADIAN.)
SOLID_ANGLE_UNIT()
);
#669=(
NAMED_UNIT(*)
PLANE_ANGLE_UNIT()
SI_UNIT($,.RADIAN.)
);
#670=(
LENGTH_UNIT()
NAMED_UNIT(*)
SI_UNIT(.MILLI.,.METRE.)
);
#671=PRODUCT_DEFINITION_SHAPE('','',#672);
#672=PRODUCT_DEFINITION('','',#674,#673);
#673=PRODUCT_DEFINITION_CONTEXT('',#680,'design');
#674=PRODUCT_DEFINITION_FORMATION_WITH_SPECIFIED_SOURCE('','',#676,
 .NOT_KNOWN.);
#675=PRODUCT_RELATED_PRODUCT_CATEGORY('','',(#676));
#676=PRODUCT('189301 ESS-30-SS','189301 ESS-30-SS','189301 ESS-30-SS',(#678));
#677=PRODUCT_CATEGORY('','');
#678=PRODUCT_CONTEXT('',#680,'mechanical');
#679=APPLICATION_PROTOCOL_DEFINITION('international standard',
'automotive_design',2010,#680);
#680=APPLICATION_CONTEXT(
'core data for automotive mechanical design processes');
ENDSEC;
END-ISO-10303-21;
