ISO-10303-21;
HEADER;
/* Generated by software containing ST-Developer
 * from STEP Tools, Inc. (www.steptools.com) 
 */
/* OPTION: using custom renumber hook */

FILE_DESCRIPTION(
/* description */ ('STEP AP214'),
/* implementation_level */ '2;1');

FILE_NAME(
/* name */ '189307_ESS-40-SF',
/* time_stamp */ '2024-08-28T09:24:06+02:00',
/* author */ ('License CC BY-ND 4.0'),
/* organization */ ('CADENAS'),
/* preprocessor_version */ 'ST-DEVELOPER v19.3',
/* originating_system */ 'PARTsolutions',
/* authorisation */ '  ');

FILE_SCHEMA (('AUTOMOTIVE_DESIGN {1 0 10303 214 3 1 1}'));
ENDSEC;

DATA;
#10=PROPERTY_DEFINITION_REPRESENTATION(#14,#12);
#11=PROPERTY_DEFINITION_REPRESENTATION(#15,#13);
#12=REPRESENTATION('',(#16),#693);
#13=REPRESENTATION('',(#17),#693);
#14=PROPERTY_DEFINITION('pmi validation property','',#698);
#15=PROPERTY_DEFINITION('pmi validation property','',#698);
#16=VALUE_REPRESENTATION_ITEM('number of annotations',COUNT_MEASURE(0.));
#17=VALUE_REPRESENTATION_ITEM('number of views',COUNT_MEASURE(0.));
#18=SHAPE_REPRESENTATION_RELATIONSHIP('','',#476,#19);
#19=ADVANCED_BREP_SHAPE_REPRESENTATION('',(#474),#693);
#20=LINE('',#634,#38);
#21=LINE('',#637,#39);
#22=LINE('',#639,#40);
#23=LINE('',#641,#41);
#24=LINE('',#643,#42);
#25=LINE('',#645,#43);
#26=LINE('',#661,#44);
#27=LINE('',#664,#45);
#28=LINE('',#666,#46);
#29=LINE('',#668,#47);
#30=LINE('',#670,#48);
#31=LINE('',#672,#49);
#32=LINE('',#681,#50);
#33=LINE('',#682,#51);
#34=LINE('',#684,#52);
#35=LINE('',#686,#53);
#36=LINE('',#688,#54);
#37=LINE('',#690,#55);
#38=VECTOR('',#549,1000.);
#39=VECTOR('',#550,1000.);
#40=VECTOR('',#551,1000.);
#41=VECTOR('',#552,1000.);
#42=VECTOR('',#553,1000.);
#43=VECTOR('',#554,1000.);
#44=VECTOR('',#575,1000.);
#45=VECTOR('',#576,1000.);
#46=VECTOR('',#577,1000.);
#47=VECTOR('',#578,1000.);
#48=VECTOR('',#579,1000.);
#49=VECTOR('',#580,1000.);
#50=VECTOR('',#593,1000.);
#51=VECTOR('',#594,1000.);
#52=VECTOR('',#597,1000.);
#53=VECTOR('',#600,1000.);
#54=VECTOR('',#603,1000.);
#55=VECTOR('',#606,1000.);
#56=PLANE('',#493);
#57=PLANE('',#494);
#58=PLANE('',#499);
#59=PLANE('',#502);
#60=PLANE('',#508);
#61=PLANE('',#509);
#62=PLANE('',#510);
#63=PLANE('',#511);
#64=PLANE('',#512);
#65=PLANE('',#513);
#66=PLANE('',#514);
#67=CONICAL_SURFACE('',#485,17.3972620759355,1.03529320775859);
#68=CONICAL_SURFACE('',#487,20.75,0.785398163397448);
#69=CONICAL_SURFACE('',#489,20.,1.03529320775859);
#70=CONICAL_SURFACE('',#491,13.8676142874269,1.30899693899575);
#71=CONICAL_SURFACE('',#504,2.3865,0.785398163397452);
#72=CYLINDRICAL_SURFACE('',#481,12.5);
#73=CYLINDRICAL_SURFACE('',#497,5.25);
#74=CYLINDRICAL_SURFACE('',#501,11.);
#75=CYLINDRICAL_SURFACE('',#506,3.);
#76=ORIENTED_EDGE('',*,*,#142,.T.);
#77=ORIENTED_EDGE('',*,*,#143,.F.);
#78=ORIENTED_EDGE('',*,*,#144,.F.);
#79=ORIENTED_EDGE('',*,*,#143,.T.);
#80=ORIENTED_EDGE('',*,*,#145,.F.);
#81=ORIENTED_EDGE('',*,*,#144,.T.);
#82=ORIENTED_EDGE('',*,*,#146,.F.);
#83=ORIENTED_EDGE('',*,*,#145,.T.);
#84=ORIENTED_EDGE('',*,*,#147,.F.);
#85=ORIENTED_EDGE('',*,*,#146,.T.);
#86=ORIENTED_EDGE('',*,*,#148,.F.);
#87=ORIENTED_EDGE('',*,*,#147,.T.);
#88=ORIENTED_EDGE('',*,*,#149,.F.);
#89=ORIENTED_EDGE('',*,*,#148,.T.);
#90=ORIENTED_EDGE('',*,*,#150,.T.);
#91=ORIENTED_EDGE('',*,*,#151,.T.);
#92=ORIENTED_EDGE('',*,*,#152,.T.);
#93=ORIENTED_EDGE('',*,*,#153,.T.);
#94=ORIENTED_EDGE('',*,*,#154,.T.);
#95=ORIENTED_EDGE('',*,*,#155,.T.);
#96=ORIENTED_EDGE('',*,*,#149,.T.);
#97=ORIENTED_EDGE('',*,*,#156,.T.);
#98=ORIENTED_EDGE('',*,*,#157,.F.);
#99=ORIENTED_EDGE('',*,*,#158,.T.);
#100=ORIENTED_EDGE('',*,*,#156,.F.);
#101=ORIENTED_EDGE('',*,*,#159,.T.);
#102=ORIENTED_EDGE('',*,*,#142,.F.);
#103=ORIENTED_EDGE('',*,*,#157,.T.);
#104=ORIENTED_EDGE('',*,*,#159,.F.);
#105=ORIENTED_EDGE('',*,*,#160,.F.);
#106=ORIENTED_EDGE('',*,*,#161,.F.);
#107=ORIENTED_EDGE('',*,*,#162,.F.);
#108=ORIENTED_EDGE('',*,*,#163,.F.);
#109=ORIENTED_EDGE('',*,*,#164,.F.);
#110=ORIENTED_EDGE('',*,*,#165,.F.);
#111=ORIENTED_EDGE('',*,*,#166,.T.);
#112=ORIENTED_EDGE('',*,*,#167,.F.);
#113=ORIENTED_EDGE('',*,*,#160,.T.);
#114=ORIENTED_EDGE('',*,*,#168,.F.);
#115=ORIENTED_EDGE('',*,*,#167,.T.);
#116=ORIENTED_EDGE('',*,*,#158,.F.);
#117=ORIENTED_EDGE('',*,*,#168,.T.);
#118=ORIENTED_EDGE('',*,*,#169,.T.);
#119=ORIENTED_EDGE('',*,*,#163,.T.);
#120=ORIENTED_EDGE('',*,*,#170,.F.);
#121=ORIENTED_EDGE('',*,*,#153,.F.);
#122=ORIENTED_EDGE('',*,*,#170,.T.);
#123=ORIENTED_EDGE('',*,*,#162,.T.);
#124=ORIENTED_EDGE('',*,*,#171,.F.);
#125=ORIENTED_EDGE('',*,*,#154,.F.);
#126=ORIENTED_EDGE('',*,*,#171,.T.);
#127=ORIENTED_EDGE('',*,*,#161,.T.);
#128=ORIENTED_EDGE('',*,*,#172,.F.);
#129=ORIENTED_EDGE('',*,*,#155,.F.);
#130=ORIENTED_EDGE('',*,*,#172,.T.);
#131=ORIENTED_EDGE('',*,*,#166,.F.);
#132=ORIENTED_EDGE('',*,*,#173,.F.);
#133=ORIENTED_EDGE('',*,*,#150,.F.);
#134=ORIENTED_EDGE('',*,*,#173,.T.);
#135=ORIENTED_EDGE('',*,*,#165,.T.);
#136=ORIENTED_EDGE('',*,*,#174,.F.);
#137=ORIENTED_EDGE('',*,*,#151,.F.);
#138=ORIENTED_EDGE('',*,*,#174,.T.);
#139=ORIENTED_EDGE('',*,*,#164,.T.);
#140=ORIENTED_EDGE('',*,*,#169,.F.);
#141=ORIENTED_EDGE('',*,*,#152,.F.);
#142=EDGE_CURVE('',#175,#175,#202,.T.);
#143=EDGE_CURVE('',#176,#176,#203,.T.);
#144=EDGE_CURVE('',#177,#177,#204,.T.);
#145=EDGE_CURVE('',#178,#178,#205,.T.);
#146=EDGE_CURVE('',#179,#179,#206,.T.);
#147=EDGE_CURVE('',#180,#180,#207,.T.);
#148=EDGE_CURVE('',#181,#181,#208,.T.);
#149=EDGE_CURVE('',#182,#182,#209,.T.);
#150=EDGE_CURVE('',#183,#184,#20,.T.);
#151=EDGE_CURVE('',#184,#185,#21,.T.);
#152=EDGE_CURVE('',#185,#186,#22,.T.);
#153=EDGE_CURVE('',#186,#187,#23,.T.);
#154=EDGE_CURVE('',#187,#188,#24,.T.);
#155=EDGE_CURVE('',#188,#183,#25,.T.);
#156=EDGE_CURVE('',#189,#189,#210,.T.);
#157=EDGE_CURVE('',#190,#190,#211,.T.);
#158=EDGE_CURVE('',#191,#191,#212,.T.);
#159=EDGE_CURVE('',#192,#192,#213,.T.);
#160=EDGE_CURVE('',#193,#193,#214,.T.);
#161=EDGE_CURVE('',#194,#195,#26,.T.);
#162=EDGE_CURVE('',#196,#194,#27,.T.);
#163=EDGE_CURVE('',#197,#196,#28,.T.);
#164=EDGE_CURVE('',#198,#197,#29,.T.);
#165=EDGE_CURVE('',#199,#198,#30,.T.);
#166=EDGE_CURVE('',#199,#195,#31,.T.);
#167=EDGE_CURVE('',#200,#200,#215,.T.);
#168=EDGE_CURVE('',#201,#201,#216,.T.);
#169=EDGE_CURVE('',#186,#197,#32,.T.);
#170=EDGE_CURVE('',#187,#196,#33,.T.);
#171=EDGE_CURVE('',#188,#194,#34,.T.);
#172=EDGE_CURVE('',#183,#195,#35,.T.);
#173=EDGE_CURVE('',#184,#199,#36,.T.);
#174=EDGE_CURVE('',#185,#198,#37,.T.);
#175=VERTEX_POINT('',#612);
#176=VERTEX_POINT('',#614);
#177=VERTEX_POINT('',#617);
#178=VERTEX_POINT('',#620);
#179=VERTEX_POINT('',#623);
#180=VERTEX_POINT('',#626);
#181=VERTEX_POINT('',#629);
#182=VERTEX_POINT('',#632);
#183=VERTEX_POINT('',#635);
#184=VERTEX_POINT('',#636);
#185=VERTEX_POINT('',#638);
#186=VERTEX_POINT('',#640);
#187=VERTEX_POINT('',#642);
#188=VERTEX_POINT('',#644);
#189=VERTEX_POINT('',#648);
#190=VERTEX_POINT('',#650);
#191=VERTEX_POINT('',#653);
#192=VERTEX_POINT('',#656);
#193=VERTEX_POINT('',#660);
#194=VERTEX_POINT('',#662);
#195=VERTEX_POINT('',#663);
#196=VERTEX_POINT('',#665);
#197=VERTEX_POINT('',#667);
#198=VERTEX_POINT('',#669);
#199=VERTEX_POINT('',#671);
#200=VERTEX_POINT('',#675);
#201=VERTEX_POINT('',#678);
#202=CIRCLE('',#479,10.9375);
#203=CIRCLE('',#480,12.5);
#204=CIRCLE('',#482,12.5);
#205=CIRCLE('',#484,17.3972620759355);
#206=CIRCLE('',#486,20.75);
#207=CIRCLE('',#488,20.);
#208=CIRCLE('',#490,13.8676142874269);
#209=CIRCLE('',#492,9.980865704891);
#210=CIRCLE('',#495,5.25);
#211=CIRCLE('',#496,11.);
#212=CIRCLE('',#498,5.25);
#213=CIRCLE('',#500,11.);
#214=CIRCLE('',#503,2.3865);
#215=CIRCLE('',#505,3.);
#216=CIRCLE('',#507,3.);
#217=EDGE_LOOP('',(#76));
#218=EDGE_LOOP('',(#77));
#219=EDGE_LOOP('',(#78));
#220=EDGE_LOOP('',(#79));
#221=EDGE_LOOP('',(#80));
#222=EDGE_LOOP('',(#81));
#223=EDGE_LOOP('',(#82));
#224=EDGE_LOOP('',(#83));
#225=EDGE_LOOP('',(#84));
#226=EDGE_LOOP('',(#85));
#227=EDGE_LOOP('',(#86));
#228=EDGE_LOOP('',(#87));
#229=EDGE_LOOP('',(#88));
#230=EDGE_LOOP('',(#89));
#231=EDGE_LOOP('',(#90,#91,#92,#93,#94,#95));
#232=EDGE_LOOP('',(#96));
#233=EDGE_LOOP('',(#97));
#234=EDGE_LOOP('',(#98));
#235=EDGE_LOOP('',(#99));
#236=EDGE_LOOP('',(#100));
#237=EDGE_LOOP('',(#101));
#238=EDGE_LOOP('',(#102));
#239=EDGE_LOOP('',(#103));
#240=EDGE_LOOP('',(#104));
#241=EDGE_LOOP('',(#105));
#242=EDGE_LOOP('',(#106,#107,#108,#109,#110,#111));
#243=EDGE_LOOP('',(#112));
#244=EDGE_LOOP('',(#113));
#245=EDGE_LOOP('',(#114));
#246=EDGE_LOOP('',(#115));
#247=EDGE_LOOP('',(#116));
#248=EDGE_LOOP('',(#117));
#249=EDGE_LOOP('',(#118,#119,#120,#121));
#250=EDGE_LOOP('',(#122,#123,#124,#125));
#251=EDGE_LOOP('',(#126,#127,#128,#129));
#252=EDGE_LOOP('',(#130,#131,#132,#133));
#253=EDGE_LOOP('',(#134,#135,#136,#137));
#254=EDGE_LOOP('',(#138,#139,#140,#141));
#255=FACE_BOUND('',#217,.T.);
#256=FACE_BOUND('',#218,.T.);
#257=FACE_BOUND('',#219,.T.);
#258=FACE_BOUND('',#220,.T.);
#259=FACE_BOUND('',#221,.T.);
#260=FACE_BOUND('',#222,.T.);
#261=FACE_BOUND('',#223,.T.);
#262=FACE_BOUND('',#224,.T.);
#263=FACE_BOUND('',#225,.T.);
#264=FACE_BOUND('',#226,.T.);
#265=FACE_BOUND('',#227,.T.);
#266=FACE_BOUND('',#228,.T.);
#267=FACE_BOUND('',#229,.T.);
#268=FACE_BOUND('',#230,.T.);
#269=FACE_BOUND('',#231,.T.);
#270=FACE_BOUND('',#232,.T.);
#271=FACE_BOUND('',#233,.T.);
#272=FACE_BOUND('',#234,.T.);
#273=FACE_BOUND('',#235,.T.);
#274=FACE_BOUND('',#236,.T.);
#275=FACE_BOUND('',#237,.T.);
#276=FACE_BOUND('',#238,.T.);
#277=FACE_BOUND('',#239,.T.);
#278=FACE_BOUND('',#240,.T.);
#279=FACE_BOUND('',#241,.T.);
#280=FACE_BOUND('',#242,.T.);
#281=FACE_BOUND('',#243,.T.);
#282=FACE_BOUND('',#244,.T.);
#283=FACE_BOUND('',#245,.T.);
#284=FACE_BOUND('',#246,.T.);
#285=FACE_BOUND('',#247,.T.);
#286=FACE_BOUND('',#248,.T.);
#287=FACE_BOUND('',#249,.T.);
#288=FACE_BOUND('',#250,.T.);
#289=FACE_BOUND('',#251,.T.);
#290=FACE_BOUND('',#252,.T.);
#291=FACE_BOUND('',#253,.T.);
#292=FACE_BOUND('',#254,.T.);
#293=TOROIDAL_SURFACE('',#478,10.9375,1.5625);
#294=TOROIDAL_SURFACE('',#483,22.5,10.);
#295=STYLED_ITEM('',(#317),#451);
#296=STYLED_ITEM('',(#318),#452);
#297=STYLED_ITEM('',(#319),#453);
#298=STYLED_ITEM('',(#320),#454);
#299=STYLED_ITEM('',(#321),#455);
#300=STYLED_ITEM('',(#322),#456);
#301=STYLED_ITEM('',(#323),#457);
#302=STYLED_ITEM('',(#324),#458);
#303=STYLED_ITEM('',(#325),#459);
#304=STYLED_ITEM('',(#326),#460);
#305=STYLED_ITEM('',(#327),#461);
#306=STYLED_ITEM('',(#328),#462);
#307=STYLED_ITEM('',(#329),#463);
#308=STYLED_ITEM('',(#330),#464);
#309=STYLED_ITEM('',(#331),#465);
#310=STYLED_ITEM('',(#332),#466);
#311=STYLED_ITEM('',(#333),#467);
#312=STYLED_ITEM('',(#334),#468);
#313=STYLED_ITEM('',(#335),#469);
#314=STYLED_ITEM('',(#336),#470);
#315=STYLED_ITEM('',(#337),#471);
#316=STYLED_ITEM('',(#338),#472);
#317=PRESENTATION_STYLE_ASSIGNMENT((#339));
#318=PRESENTATION_STYLE_ASSIGNMENT((#340));
#319=PRESENTATION_STYLE_ASSIGNMENT((#341));
#320=PRESENTATION_STYLE_ASSIGNMENT((#342));
#321=PRESENTATION_STYLE_ASSIGNMENT((#343));
#322=PRESENTATION_STYLE_ASSIGNMENT((#344));
#323=PRESENTATION_STYLE_ASSIGNMENT((#345));
#324=PRESENTATION_STYLE_ASSIGNMENT((#346));
#325=PRESENTATION_STYLE_ASSIGNMENT((#347));
#326=PRESENTATION_STYLE_ASSIGNMENT((#348));
#327=PRESENTATION_STYLE_ASSIGNMENT((#349));
#328=PRESENTATION_STYLE_ASSIGNMENT((#350));
#329=PRESENTATION_STYLE_ASSIGNMENT((#351));
#330=PRESENTATION_STYLE_ASSIGNMENT((#352));
#331=PRESENTATION_STYLE_ASSIGNMENT((#353));
#332=PRESENTATION_STYLE_ASSIGNMENT((#354));
#333=PRESENTATION_STYLE_ASSIGNMENT((#355));
#334=PRESENTATION_STYLE_ASSIGNMENT((#356));
#335=PRESENTATION_STYLE_ASSIGNMENT((#357));
#336=PRESENTATION_STYLE_ASSIGNMENT((#358));
#337=PRESENTATION_STYLE_ASSIGNMENT((#359));
#338=PRESENTATION_STYLE_ASSIGNMENT((#360));
#339=SURFACE_STYLE_USAGE(.BOTH.,#361);
#340=SURFACE_STYLE_USAGE(.BOTH.,#362);
#341=SURFACE_STYLE_USAGE(.BOTH.,#363);
#342=SURFACE_STYLE_USAGE(.BOTH.,#364);
#343=SURFACE_STYLE_USAGE(.BOTH.,#365);
#344=SURFACE_STYLE_USAGE(.BOTH.,#366);
#345=SURFACE_STYLE_USAGE(.BOTH.,#367);
#346=SURFACE_STYLE_USAGE(.BOTH.,#368);
#347=SURFACE_STYLE_USAGE(.BOTH.,#369);
#348=SURFACE_STYLE_USAGE(.BOTH.,#370);
#349=SURFACE_STYLE_USAGE(.BOTH.,#371);
#350=SURFACE_STYLE_USAGE(.BOTH.,#372);
#351=SURFACE_STYLE_USAGE(.BOTH.,#373);
#352=SURFACE_STYLE_USAGE(.BOTH.,#374);
#353=SURFACE_STYLE_USAGE(.BOTH.,#375);
#354=SURFACE_STYLE_USAGE(.BOTH.,#376);
#355=SURFACE_STYLE_USAGE(.BOTH.,#377);
#356=SURFACE_STYLE_USAGE(.BOTH.,#378);
#357=SURFACE_STYLE_USAGE(.BOTH.,#379);
#358=SURFACE_STYLE_USAGE(.BOTH.,#380);
#359=SURFACE_STYLE_USAGE(.BOTH.,#381);
#360=SURFACE_STYLE_USAGE(.BOTH.,#382);
#361=SURFACE_SIDE_STYLE('',(#383));
#362=SURFACE_SIDE_STYLE('',(#384));
#363=SURFACE_SIDE_STYLE('',(#385));
#364=SURFACE_SIDE_STYLE('',(#386));
#365=SURFACE_SIDE_STYLE('',(#387));
#366=SURFACE_SIDE_STYLE('',(#388));
#367=SURFACE_SIDE_STYLE('',(#389));
#368=SURFACE_SIDE_STYLE('',(#390));
#369=SURFACE_SIDE_STYLE('',(#391));
#370=SURFACE_SIDE_STYLE('',(#392));
#371=SURFACE_SIDE_STYLE('',(#393));
#372=SURFACE_SIDE_STYLE('',(#394));
#373=SURFACE_SIDE_STYLE('',(#395));
#374=SURFACE_SIDE_STYLE('',(#396));
#375=SURFACE_SIDE_STYLE('',(#397));
#376=SURFACE_SIDE_STYLE('',(#398));
#377=SURFACE_SIDE_STYLE('',(#399));
#378=SURFACE_SIDE_STYLE('',(#400));
#379=SURFACE_SIDE_STYLE('',(#401));
#380=SURFACE_SIDE_STYLE('',(#402));
#381=SURFACE_SIDE_STYLE('',(#403));
#382=SURFACE_SIDE_STYLE('',(#404));
#383=SURFACE_STYLE_FILL_AREA(#405);
#384=SURFACE_STYLE_FILL_AREA(#406);
#385=SURFACE_STYLE_FILL_AREA(#407);
#386=SURFACE_STYLE_FILL_AREA(#408);
#387=SURFACE_STYLE_FILL_AREA(#409);
#388=SURFACE_STYLE_FILL_AREA(#410);
#389=SURFACE_STYLE_FILL_AREA(#411);
#390=SURFACE_STYLE_FILL_AREA(#412);
#391=SURFACE_STYLE_FILL_AREA(#413);
#392=SURFACE_STYLE_FILL_AREA(#414);
#393=SURFACE_STYLE_FILL_AREA(#415);
#394=SURFACE_STYLE_FILL_AREA(#416);
#395=SURFACE_STYLE_FILL_AREA(#417);
#396=SURFACE_STYLE_FILL_AREA(#418);
#397=SURFACE_STYLE_FILL_AREA(#419);
#398=SURFACE_STYLE_FILL_AREA(#420);
#399=SURFACE_STYLE_FILL_AREA(#421);
#400=SURFACE_STYLE_FILL_AREA(#422);
#401=SURFACE_STYLE_FILL_AREA(#423);
#402=SURFACE_STYLE_FILL_AREA(#424);
#403=SURFACE_STYLE_FILL_AREA(#425);
#404=SURFACE_STYLE_FILL_AREA(#426);
#405=FILL_AREA_STYLE('',(#427));
#406=FILL_AREA_STYLE('',(#428));
#407=FILL_AREA_STYLE('',(#429));
#408=FILL_AREA_STYLE('',(#430));
#409=FILL_AREA_STYLE('',(#431));
#410=FILL_AREA_STYLE('',(#432));
#411=FILL_AREA_STYLE('',(#433));
#412=FILL_AREA_STYLE('',(#434));
#413=FILL_AREA_STYLE('',(#435));
#414=FILL_AREA_STYLE('',(#436));
#415=FILL_AREA_STYLE('',(#437));
#416=FILL_AREA_STYLE('',(#438));
#417=FILL_AREA_STYLE('',(#439));
#418=FILL_AREA_STYLE('',(#440));
#419=FILL_AREA_STYLE('',(#441));
#420=FILL_AREA_STYLE('',(#442));
#421=FILL_AREA_STYLE('',(#443));
#422=FILL_AREA_STYLE('',(#444));
#423=FILL_AREA_STYLE('',(#445));
#424=FILL_AREA_STYLE('',(#446));
#425=FILL_AREA_STYLE('',(#447));
#426=FILL_AREA_STYLE('',(#448));
#427=FILL_AREA_STYLE_COLOUR('',#449);
#428=FILL_AREA_STYLE_COLOUR('',#449);
#429=FILL_AREA_STYLE_COLOUR('',#449);
#430=FILL_AREA_STYLE_COLOUR('',#449);
#431=FILL_AREA_STYLE_COLOUR('',#449);
#432=FILL_AREA_STYLE_COLOUR('',#449);
#433=FILL_AREA_STYLE_COLOUR('',#449);
#434=FILL_AREA_STYLE_COLOUR('',#450);
#435=FILL_AREA_STYLE_COLOUR('',#449);
#436=FILL_AREA_STYLE_COLOUR('',#449);
#437=FILL_AREA_STYLE_COLOUR('',#449);
#438=FILL_AREA_STYLE_COLOUR('',#449);
#439=FILL_AREA_STYLE_COLOUR('',#450);
#440=FILL_AREA_STYLE_COLOUR('',#450);
#441=FILL_AREA_STYLE_COLOUR('',#450);
#442=FILL_AREA_STYLE_COLOUR('',#449);
#443=FILL_AREA_STYLE_COLOUR('',#449);
#444=FILL_AREA_STYLE_COLOUR('',#449);
#445=FILL_AREA_STYLE_COLOUR('',#449);
#446=FILL_AREA_STYLE_COLOUR('',#449);
#447=FILL_AREA_STYLE_COLOUR('',#449);
#448=FILL_AREA_STYLE_COLOUR('',#449);
#449=COLOUR_RGB('',0.379999995231628,0.400000005960464,0.400000005960464);
#450=COLOUR_RGB('',0.75300002098083,0.75300002098083,0.75300002098083);
#451=ADVANCED_FACE('',(#255,#256),#293,.T.);
#452=ADVANCED_FACE('',(#257,#258),#72,.T.);
#453=ADVANCED_FACE('',(#259,#260),#294,.F.);
#454=ADVANCED_FACE('',(#261,#262),#67,.T.);
#455=ADVANCED_FACE('',(#263,#264),#68,.T.);
#456=ADVANCED_FACE('',(#265,#266),#69,.F.);
#457=ADVANCED_FACE('',(#267,#268),#70,.F.);
#458=ADVANCED_FACE('',(#269,#270),#56,.F.);
#459=ADVANCED_FACE('',(#271,#272),#57,.T.);
#460=ADVANCED_FACE('',(#273,#274),#73,.F.);
#461=ADVANCED_FACE('',(#275,#276),#58,.T.);
#462=ADVANCED_FACE('',(#277,#278),#74,.T.);
#463=ADVANCED_FACE('',(#279,#280),#59,.F.);
#464=ADVANCED_FACE('',(#281,#282),#71,.T.);
#465=ADVANCED_FACE('',(#283,#284),#75,.T.);
#466=ADVANCED_FACE('',(#285,#286),#60,.F.);
#467=ADVANCED_FACE('',(#287),#61,.F.);
#468=ADVANCED_FACE('',(#288),#62,.F.);
#469=ADVANCED_FACE('',(#289),#63,.F.);
#470=ADVANCED_FACE('',(#290),#64,.F.);
#471=ADVANCED_FACE('',(#291),#65,.F.);
#472=ADVANCED_FACE('',(#292),#66,.F.);
#473=CLOSED_SHELL('',(#451,#452,#453,#454,#455,#456,#457,#458,#459,#460,
#461,#462,#463,#464,#465,#466,#467,#468,#469,#470,#471,#472));
#474=MANIFOLD_SOLID_BREP('189307 ESS-40-SF',#473);
#475=SHAPE_DEFINITION_REPRESENTATION(#698,#476);
#476=SHAPE_REPRESENTATION('189307 ESS-40-SF',(#477),#693);
#477=AXIS2_PLACEMENT_3D('',#609,#515,#516);
#478=AXIS2_PLACEMENT_3D('',#610,#517,#518);
#479=AXIS2_PLACEMENT_3D('',#611,#519,#520);
#480=AXIS2_PLACEMENT_3D('',#613,#521,#522);
#481=AXIS2_PLACEMENT_3D('',#615,#523,#524);
#482=AXIS2_PLACEMENT_3D('',#616,#525,#526);
#483=AXIS2_PLACEMENT_3D('',#618,#527,#528);
#484=AXIS2_PLACEMENT_3D('',#619,#529,#530);
#485=AXIS2_PLACEMENT_3D('',#621,#531,#532);
#486=AXIS2_PLACEMENT_3D('',#622,#533,#534);
#487=AXIS2_PLACEMENT_3D('',#624,#535,#536);
#488=AXIS2_PLACEMENT_3D('',#625,#537,#538);
#489=AXIS2_PLACEMENT_3D('',#627,#539,#540);
#490=AXIS2_PLACEMENT_3D('',#628,#541,#542);
#491=AXIS2_PLACEMENT_3D('',#630,#543,#544);
#492=AXIS2_PLACEMENT_3D('',#631,#545,#546);
#493=AXIS2_PLACEMENT_3D('',#633,#547,#548);
#494=AXIS2_PLACEMENT_3D('',#646,#555,#556);
#495=AXIS2_PLACEMENT_3D('',#647,#557,#558);
#496=AXIS2_PLACEMENT_3D('',#649,#559,#560);
#497=AXIS2_PLACEMENT_3D('',#651,#561,#562);
#498=AXIS2_PLACEMENT_3D('',#652,#563,#564);
#499=AXIS2_PLACEMENT_3D('',#654,#565,#566);
#500=AXIS2_PLACEMENT_3D('',#655,#567,#568);
#501=AXIS2_PLACEMENT_3D('',#657,#569,#570);
#502=AXIS2_PLACEMENT_3D('',#658,#571,#572);
#503=AXIS2_PLACEMENT_3D('',#659,#573,#574);
#504=AXIS2_PLACEMENT_3D('',#673,#581,#582);
#505=AXIS2_PLACEMENT_3D('',#674,#583,#584);
#506=AXIS2_PLACEMENT_3D('',#676,#585,#586);
#507=AXIS2_PLACEMENT_3D('',#677,#587,#588);
#508=AXIS2_PLACEMENT_3D('',#679,#589,#590);
#509=AXIS2_PLACEMENT_3D('',#680,#591,#592);
#510=AXIS2_PLACEMENT_3D('',#683,#595,#596);
#511=AXIS2_PLACEMENT_3D('',#685,#598,#599);
#512=AXIS2_PLACEMENT_3D('',#687,#601,#602);
#513=AXIS2_PLACEMENT_3D('',#689,#604,#605);
#514=AXIS2_PLACEMENT_3D('',#691,#607,#608);
#515=DIRECTION('',(0.,0.,1.));
#516=DIRECTION('',(1.,0.,0.));
#517=DIRECTION('',(-2.6084535086641E-16,-1.,0.));
#518=DIRECTION('',(1.,-2.6084535086641E-16,0.));
#519=DIRECTION('',(-2.6084535086641E-16,-1.,0.));
#520=DIRECTION('',(1.,-2.6084535086641E-16,0.));
#521=DIRECTION('',(-2.6084535086641E-16,-1.,0.));
#522=DIRECTION('',(1.,-2.6084535086641E-16,0.));
#523=DIRECTION('',(-2.6084535086641E-16,-1.,0.));
#524=DIRECTION('',(1.,-2.6084535086641E-16,0.));
#525=DIRECTION('',(-2.6084535086641E-16,-1.,0.));
#526=DIRECTION('',(1.,-2.6084535086641E-16,0.));
#527=DIRECTION('',(-2.6084535086641E-16,-1.,0.));
#528=DIRECTION('',(1.,-2.6084535086641E-16,0.));
#529=DIRECTION('',(-2.6084535086641E-16,-1.,0.));
#530=DIRECTION('',(1.,-2.6084535086641E-16,0.));
#531=DIRECTION('',(-2.6084535086641E-16,-1.,0.));
#532=DIRECTION('',(1.,-2.6084535086641E-16,0.));
#533=DIRECTION('',(-2.6084535086641E-16,-1.,0.));
#534=DIRECTION('',(1.,-2.6084535086641E-16,0.));
#535=DIRECTION('',(2.6084535086641E-16,1.,0.));
#536=DIRECTION('',(-1.,2.6084535086641E-16,0.));
#537=DIRECTION('',(-2.6084535086641E-16,-1.,0.));
#538=DIRECTION('',(1.,-2.6084535086641E-16,0.));
#539=DIRECTION('',(-2.6084535086641E-16,-1.,0.));
#540=DIRECTION('',(1.,-2.6084535086641E-16,0.));
#541=DIRECTION('',(-2.6084535086641E-16,-1.,0.));
#542=DIRECTION('',(1.,-2.6084535086641E-16,0.));
#543=DIRECTION('',(-2.6084535086641E-16,-1.,0.));
#544=DIRECTION('',(1.,-2.6084535086641E-16,0.));
#545=DIRECTION('',(-2.6084535086641E-16,-1.,0.));
#546=DIRECTION('',(1.,-2.6084535086641E-16,0.));
#547=DIRECTION('',(2.6084535086641E-16,1.,0.));
#548=DIRECTION('',(-1.,2.6084535086641E-16,0.));
#549=DIRECTION('',(0.,0.,-1.));
#550=DIRECTION('',(-0.866025403784439,2.25898700309376E-16,-0.5));
#551=DIRECTION('',(-0.866025403784439,2.25898700309376E-16,0.5));
#552=DIRECTION('',(0.,0.,1.));
#553=DIRECTION('',(0.866025403784439,-2.25898700309376E-16,0.5));
#554=DIRECTION('',(0.866025403784439,-2.25898700309376E-16,-0.5));
#555=DIRECTION('',(0.,1.,0.));
#556=DIRECTION('',(0.,0.,1.));
#557=DIRECTION('',(0.,-1.,0.));
#558=DIRECTION('',(0.,0.,-1.));
#559=DIRECTION('',(0.,-1.,0.));
#560=DIRECTION('',(0.,0.,-1.));
#561=DIRECTION('',(0.,-1.,0.));
#562=DIRECTION('',(0.,0.,-1.));
#563=DIRECTION('',(0.,-1.,0.));
#564=DIRECTION('',(0.,0.,-1.));
#565=DIRECTION('',(0.,-1.,0.));
#566=DIRECTION('',(0.,0.,-1.));
#567=DIRECTION('',(0.,-1.,0.));
#568=DIRECTION('',(0.,0.,-1.));
#569=DIRECTION('',(0.,-1.,0.));
#570=DIRECTION('',(0.,0.,-1.));
#571=DIRECTION('',(-2.6084535086641E-16,-1.,0.));
#572=DIRECTION('',(1.,-2.6084535086641E-16,0.));
#573=DIRECTION('',(-2.6084535086641E-16,-1.,0.));
#574=DIRECTION('',(1.,-2.6084535086641E-16,0.));
#575=DIRECTION('',(0.866025403784439,0.,-0.5));
#576=DIRECTION('',(0.866025403784439,0.,0.5));
#577=DIRECTION('',(0.,0.,1.));
#578=DIRECTION('',(-0.866025403784439,0.,0.5));
#579=DIRECTION('',(-0.866025403784439,0.,-0.5));
#580=DIRECTION('',(0.,0.,1.));
#581=DIRECTION('',(-2.6084535086641E-16,-1.,0.));
#582=DIRECTION('',(1.,-2.6084535086641E-16,0.));
#583=DIRECTION('',(-2.6084535086641E-16,-1.,0.));
#584=DIRECTION('',(1.,-2.6084535086641E-16,0.));
#585=DIRECTION('',(-2.6084535086641E-16,-1.,0.));
#586=DIRECTION('',(1.,-2.6084535086641E-16,0.));
#587=DIRECTION('',(-2.6084535086641E-16,-1.,0.));
#588=DIRECTION('',(1.,-2.6084535086641E-16,0.));
#589=DIRECTION('',(-2.6084535086641E-16,-1.,0.));
#590=DIRECTION('',(1.,-2.6084535086641E-16,0.));
#591=DIRECTION('',(-1.,0.,0.));
#592=DIRECTION('',(0.,0.,1.));
#593=DIRECTION('',(0.,1.,0.));
#594=DIRECTION('',(0.,1.,0.));
#595=DIRECTION('',(-0.5,0.,0.866025403784439));
#596=DIRECTION('',(0.866025403784439,0.,0.5));
#597=DIRECTION('',(0.,1.,0.));
#598=DIRECTION('',(0.5,0.,0.866025403784439));
#599=DIRECTION('',(0.866025403784439,0.,-0.5));
#600=DIRECTION('',(0.,1.,0.));
#601=DIRECTION('',(1.,0.,0.));
#602=DIRECTION('',(0.,0.,-1.));
#603=DIRECTION('',(0.,1.,0.));
#604=DIRECTION('',(0.5,0.,-0.866025403784439));
#605=DIRECTION('',(-0.866025403784439,0.,-0.5));
#606=DIRECTION('',(0.,1.,0.));
#607=DIRECTION('',(-0.5,0.,-0.866025403784439));
#608=DIRECTION('',(-0.866025403784439,0.,0.5));
#609=CARTESIAN_POINT('',(0.,0.,0.));
#610=CARTESIAN_POINT('',(-1.73472347597681E-15,12.4375,0.));
#611=CARTESIAN_POINT('',(-1.12163500872556E-15,14.,0.));
#612=CARTESIAN_POINT('',(10.9375,14.,0.));
#613=CARTESIAN_POINT('',(-1.52920586945433E-15,12.4375,0.));
#614=CARTESIAN_POINT('',(12.5,12.4375,0.));
#615=CARTESIAN_POINT('',(-3.5527136788005E-15,4.68,0.));
#616=CARTESIAN_POINT('',(-1.81563721081365E-15,11.3394112650161,0.));
#617=CARTESIAN_POINT('',(12.5,11.3394112650161,0.));
#618=CARTESIAN_POINT('',(0.,11.3394112650161,0.));
#619=CARTESIAN_POINT('',(-4.0589385549405E-15,2.73929116827825,0.));
#620=CARTESIAN_POINT('',(17.3972620759355,2.73929116827825,0.));
#621=CARTESIAN_POINT('',(-4.0589385549405E-15,2.73929116827825,0.));
#622=CARTESIAN_POINT('',(-4.57783590770549E-15,0.750000000000006,0.));
#623=CARTESIAN_POINT('',(20.75,0.75,0.));
#624=CARTESIAN_POINT('',(-4.57783590770549E-15,0.750000000000006,0.));
#625=CARTESIAN_POINT('',(-4.7734699208553E-15,5.20417042793042E-15,0.));
#626=CARTESIAN_POINT('',(20.,-1.27365893977752E-17,0.));
#627=CARTESIAN_POINT('',(-4.7734699208553E-15,5.20417042793042E-15,0.));
#628=CARTESIAN_POINT('',(-3.82437136783436E-15,3.63854885612669,0.));
#629=CARTESIAN_POINT('',(13.8676142874269,3.63854885612669,0.));
#630=CARTESIAN_POINT('',(-3.82437136783436E-15,3.63854885612669,0.));
#631=CARTESIAN_POINT('',(-3.5527136788005E-15,4.68,0.));
#632=CARTESIAN_POINT('',(9.980865704891,4.68,0.));
#633=CARTESIAN_POINT('',(9.980865704891,4.68,0.));
#634=CARTESIAN_POINT('',(1.5,4.68,0.));
#635=CARTESIAN_POINT('',(1.5,4.68,0.866025403784439));
#636=CARTESIAN_POINT('',(1.5,4.68,-0.866025403784438));
#637=CARTESIAN_POINT('',(8.23564927866825,4.68,3.02280352042158));
#638=CARTESIAN_POINT('',(0.,4.68,-1.73205080756888));
#639=CARTESIAN_POINT('',(6.73564927866825,4.68,-5.6208797317749));
#640=CARTESIAN_POINT('',(-1.5,4.68,-0.866025403784439));
#641=CARTESIAN_POINT('',(-1.5,4.68,0.));
#642=CARTESIAN_POINT('',(-1.5,4.68,0.866025403784439));
#643=CARTESIAN_POINT('',(6.73564927866825,4.68,5.6208797317749));
#644=CARTESIAN_POINT('',(0.,4.68,1.73205080756888));
#645=CARTESIAN_POINT('',(8.23564927866825,4.68,-3.02280352042158));
#646=CARTESIAN_POINT('',(11.,15.6,0.));
#647=CARTESIAN_POINT('',(0.,15.6,0.));
#648=CARTESIAN_POINT('',(0.,15.6,-5.25));
#649=CARTESIAN_POINT('',(0.,15.6,0.));
#650=CARTESIAN_POINT('',(0.,15.6,-11.));
#651=CARTESIAN_POINT('',(0.,14.,0.));
#652=CARTESIAN_POINT('',(0.,14.,0.));
#653=CARTESIAN_POINT('',(0.,14.,-5.25));
#654=CARTESIAN_POINT('',(5.25,14.,0.));
#655=CARTESIAN_POINT('',(0.,14.,0.));
#656=CARTESIAN_POINT('',(0.,14.,-11.));
#657=CARTESIAN_POINT('',(0.,14.,0.));
#658=CARTESIAN_POINT('',(8.11890844771313E-32,18.3,0.));
#659=CARTESIAN_POINT('',(-7.70371977754894E-31,18.3,0.));
#660=CARTESIAN_POINT('',(2.3865,18.3,0.));
#661=CARTESIAN_POINT('',(0.,18.3,1.73205080756888));
#662=CARTESIAN_POINT('',(0.,18.3,1.73205080756888));
#663=CARTESIAN_POINT('',(1.5,18.3,0.866025403784439));
#664=CARTESIAN_POINT('',(-1.5,18.3,0.866025403784439));
#665=CARTESIAN_POINT('',(-1.5,18.3,0.866025403784439));
#666=CARTESIAN_POINT('',(-1.5,18.3,-0.866025403784439));
#667=CARTESIAN_POINT('',(-1.5,18.3,-0.866025403784439));
#668=CARTESIAN_POINT('',(0.,18.3,-1.73205080756888));
#669=CARTESIAN_POINT('',(1.0842021724855E-16,18.3,-1.73205080756888));
#670=CARTESIAN_POINT('',(1.5,18.3,-0.866025403784439));
#671=CARTESIAN_POINT('',(1.5,18.3,-0.866025403784438));
#672=CARTESIAN_POINT('',(1.5,18.3,0.));
#673=CARTESIAN_POINT('',(-7.70371977754894E-31,18.3,0.));
#674=CARTESIAN_POINT('',(-1.60028622756542E-16,17.6865,0.));
#675=CARTESIAN_POINT('',(3.,17.6865,0.));
#676=CARTESIAN_POINT('',(-3.5527136788005E-15,4.68,0.));
#677=CARTESIAN_POINT('',(-1.12163500872556E-15,14.,0.));
#678=CARTESIAN_POINT('',(3.,14.,0.));
#679=CARTESIAN_POINT('',(3.,14.,0.));
#680=CARTESIAN_POINT('',(-1.5,2.7,-0.866025403784439));
#681=CARTESIAN_POINT('',(-1.5,2.7,-0.866025403784439));
#682=CARTESIAN_POINT('',(-1.5,2.7,0.866025403784439));
#683=CARTESIAN_POINT('',(-1.5,2.7,0.866025403784439));
#684=CARTESIAN_POINT('',(0.,2.7,1.73205080756888));
#685=CARTESIAN_POINT('',(0.,2.7,1.73205080756888));
#686=CARTESIAN_POINT('',(1.5,2.7,0.866025403784439));
#687=CARTESIAN_POINT('',(1.5,2.7,0.866025403784439));
#688=CARTESIAN_POINT('',(1.5,2.7,-0.866025403784438));
#689=CARTESIAN_POINT('',(1.5,2.7,-0.866025403784439));
#690=CARTESIAN_POINT('',(0.,2.7,-1.73205080756888));
#691=CARTESIAN_POINT('',(0.,2.7,-1.73205080756888));
#692=MECHANICAL_DESIGN_GEOMETRIC_PRESENTATION_REPRESENTATION('',(#295,#296,
#297,#298,#299,#300,#301,#302,#303,#304,#305,#306,#307,#308,#309,#310,#311,
#312,#313,#314,#315,#316),#693);
#693=(
GEOMETRIC_REPRESENTATION_CONTEXT(3)
GLOBAL_UNCERTAINTY_ASSIGNED_CONTEXT((#694))
GLOBAL_UNIT_ASSIGNED_CONTEXT((#697,#696,#695))
REPRESENTATION_CONTEXT('189307 ESS-40-SF','TOP_LEVEL_ASSEMBLY_PART')
);
#694=UNCERTAINTY_MEASURE_WITH_UNIT(LENGTH_MEASURE(0.005),#697,
'DISTANCE_ACCURACY_VALUE','Maximum Tolerance applied to model');
#695=(
NAMED_UNIT(*)
SI_UNIT($,.STERADIAN.)
SOLID_ANGLE_UNIT()
);
#696=(
NAMED_UNIT(*)
PLANE_ANGLE_UNIT()
SI_UNIT($,.RADIAN.)
);
#697=(
LENGTH_UNIT()
NAMED_UNIT(*)
SI_UNIT(.MILLI.,.METRE.)
);
#698=PRODUCT_DEFINITION_SHAPE('','',#699);
#699=PRODUCT_DEFINITION('','',#701,#700);
#700=PRODUCT_DEFINITION_CONTEXT('',#707,'design');
#701=PRODUCT_DEFINITION_FORMATION_WITH_SPECIFIED_SOURCE('','',#703,
 .NOT_KNOWN.);
#702=PRODUCT_RELATED_PRODUCT_CATEGORY('','',(#703));
#703=PRODUCT('189307 ESS-40-SF','189307 ESS-40-SF','189307 ESS-40-SF',(#705));
#704=PRODUCT_CATEGORY('','');
#705=PRODUCT_CONTEXT('',#707,'mechanical');
#706=APPLICATION_PROTOCOL_DEFINITION('international standard',
'automotive_design',2010,#707);
#707=APPLICATION_CONTEXT(
'core data for automotive mechanical design processes');
ENDSEC;
END-ISO-10303-21;
