ISO-10303-21;
HEADER;
/* Generated by software containing ST-Developer
 * from STEP Tools, Inc. (www.steptools.com) 
 */
/* OPTION: using custom renumber hook */

FILE_DESCRIPTION(
/* description */ ('STEP AP214'),
/* implementation_level */ '2;1');

FILE_NAME(
/* name */ '189317_ESS-60-SF',
/* time_stamp */ '2024-08-28T09:54:21+02:00',
/* author */ ('License CC BY-ND 4.0'),
/* organization */ ('CADENAS'),
/* preprocessor_version */ 'ST-DEVELOPER v19.3',
/* originating_system */ 'PARTsolutions',
/* authorisation */ '  ');

FILE_SCHEMA (('AUTOMOTIVE_DESIGN {1 0 10303 214 3 1 1}'));
ENDSEC;

DATA;
#10=PROPERTY_DEFINITION_REPRESENTATION(#14,#12);
#11=PROPERTY_DEFINITION_REPRESENTATION(#15,#13);
#12=REPRESENTATION('',(#16),#343);
#13=REPRESENTATION('',(#17),#343);
#14=PROPERTY_DEFINITION('pmi validation property','',#348);
#15=PROPERTY_DEFINITION('pmi validation property','',#348);
#16=VALUE_REPRESENTATION_ITEM('number of annotations',COUNT_MEASURE(0.));
#17=VALUE_REPRESENTATION_ITEM('number of views',COUNT_MEASURE(0.));
#18=SHAPE_REPRESENTATION_RELATIONSHIP('','',#198,#19);
#19=ADVANCED_BREP_SHAPE_REPRESENTATION('',(#196),#343);
#20=CONICAL_SURFACE('',#209,25.7384596496023,1.02184252994706);
#21=CONICAL_SURFACE('',#211,30.75,0.78539816339745);
#22=CONICAL_SURFACE('',#213,30.,1.02184252994706);
#23=CONICAL_SURFACE('',#215,21.3346717417271,1.30899693899575);
#24=CONICAL_SURFACE('',#226,4.08,0.785398163397448);
#25=CYLINDRICAL_SURFACE('',#205,20.);
#26=CYLINDRICAL_SURFACE('',#221,8.5);
#27=CYLINDRICAL_SURFACE('',#223,16.);
#28=CYLINDRICAL_SURFACE('',#228,5.);
#29=TOROIDAL_SURFACE('',#203,17.5,2.50000000000001);
#30=TOROIDAL_SURFACE('',#207,32.,12.);
#31=ORIENTED_EDGE('',*,*,#61,.F.);
#32=ORIENTED_EDGE('',*,*,#62,.T.);
#33=ORIENTED_EDGE('',*,*,#61,.T.);
#34=ORIENTED_EDGE('',*,*,#63,.F.);
#35=ORIENTED_EDGE('',*,*,#64,.F.);
#36=ORIENTED_EDGE('',*,*,#63,.T.);
#37=ORIENTED_EDGE('',*,*,#65,.F.);
#38=ORIENTED_EDGE('',*,*,#64,.T.);
#39=ORIENTED_EDGE('',*,*,#66,.F.);
#40=ORIENTED_EDGE('',*,*,#65,.T.);
#41=ORIENTED_EDGE('',*,*,#67,.F.);
#42=ORIENTED_EDGE('',*,*,#66,.T.);
#43=ORIENTED_EDGE('',*,*,#68,.F.);
#44=ORIENTED_EDGE('',*,*,#67,.T.);
#45=ORIENTED_EDGE('',*,*,#69,.F.);
#46=ORIENTED_EDGE('',*,*,#68,.T.);
#47=ORIENTED_EDGE('',*,*,#69,.T.);
#48=ORIENTED_EDGE('',*,*,#70,.T.);
#49=ORIENTED_EDGE('',*,*,#71,.F.);
#50=ORIENTED_EDGE('',*,*,#72,.T.);
#51=ORIENTED_EDGE('',*,*,#70,.F.);
#52=ORIENTED_EDGE('',*,*,#71,.T.);
#53=ORIENTED_EDGE('',*,*,#62,.F.);
#54=ORIENTED_EDGE('',*,*,#73,.F.);
#55=ORIENTED_EDGE('',*,*,#74,.F.);
#56=ORIENTED_EDGE('',*,*,#73,.T.);
#57=ORIENTED_EDGE('',*,*,#75,.F.);
#58=ORIENTED_EDGE('',*,*,#74,.T.);
#59=ORIENTED_EDGE('',*,*,#72,.F.);
#60=ORIENTED_EDGE('',*,*,#75,.T.);
#61=EDGE_CURVE('',#76,#76,#91,.T.);
#62=EDGE_CURVE('',#77,#77,#92,.T.);
#63=EDGE_CURVE('',#78,#78,#93,.T.);
#64=EDGE_CURVE('',#79,#79,#94,.T.);
#65=EDGE_CURVE('',#80,#80,#95,.T.);
#66=EDGE_CURVE('',#81,#81,#96,.T.);
#67=EDGE_CURVE('',#82,#82,#97,.T.);
#68=EDGE_CURVE('',#83,#83,#98,.T.);
#69=EDGE_CURVE('',#84,#84,#99,.T.);
#70=EDGE_CURVE('',#85,#85,#100,.T.);
#71=EDGE_CURVE('',#86,#86,#101,.T.);
#72=EDGE_CURVE('',#87,#87,#102,.T.);
#73=EDGE_CURVE('',#88,#88,#103,.T.);
#74=EDGE_CURVE('',#89,#89,#104,.T.);
#75=EDGE_CURVE('',#90,#90,#105,.T.);
#76=VERTEX_POINT('',#298);
#77=VERTEX_POINT('',#300);
#78=VERTEX_POINT('',#303);
#79=VERTEX_POINT('',#306);
#80=VERTEX_POINT('',#309);
#81=VERTEX_POINT('',#312);
#82=VERTEX_POINT('',#315);
#83=VERTEX_POINT('',#318);
#84=VERTEX_POINT('',#321);
#85=VERTEX_POINT('',#325);
#86=VERTEX_POINT('',#327);
#87=VERTEX_POINT('',#330);
#88=VERTEX_POINT('',#334);
#89=VERTEX_POINT('',#337);
#90=VERTEX_POINT('',#340);
#91=CIRCLE('',#201,17.5);
#92=CIRCLE('',#202,16.);
#93=CIRCLE('',#204,20.);
#94=CIRCLE('',#206,20.);
#95=CIRCLE('',#208,25.7384596496023);
#96=CIRCLE('',#210,30.75);
#97=CIRCLE('',#212,30.);
#98=CIRCLE('',#214,21.3346717417271);
#99=CIRCLE('',#216,18.0515584742151);
#100=CIRCLE('',#219,8.5);
#101=CIRCLE('',#220,16.);
#102=CIRCLE('',#222,8.5);
#103=CIRCLE('',#225,4.08);
#104=CIRCLE('',#227,5.);
#105=CIRCLE('',#229,5.);
#106=EDGE_LOOP('',(#31));
#107=EDGE_LOOP('',(#32));
#108=EDGE_LOOP('',(#33));
#109=EDGE_LOOP('',(#34));
#110=EDGE_LOOP('',(#35));
#111=EDGE_LOOP('',(#36));
#112=EDGE_LOOP('',(#37));
#113=EDGE_LOOP('',(#38));
#114=EDGE_LOOP('',(#39));
#115=EDGE_LOOP('',(#40));
#116=EDGE_LOOP('',(#41));
#117=EDGE_LOOP('',(#42));
#118=EDGE_LOOP('',(#43));
#119=EDGE_LOOP('',(#44));
#120=EDGE_LOOP('',(#45));
#121=EDGE_LOOP('',(#46));
#122=EDGE_LOOP('',(#47));
#123=EDGE_LOOP('',(#48));
#124=EDGE_LOOP('',(#49));
#125=EDGE_LOOP('',(#50));
#126=EDGE_LOOP('',(#51));
#127=EDGE_LOOP('',(#52));
#128=EDGE_LOOP('',(#53));
#129=EDGE_LOOP('',(#54));
#130=EDGE_LOOP('',(#55));
#131=EDGE_LOOP('',(#56));
#132=EDGE_LOOP('',(#57));
#133=EDGE_LOOP('',(#58));
#134=EDGE_LOOP('',(#59));
#135=EDGE_LOOP('',(#60));
#136=FACE_BOUND('',#106,.T.);
#137=FACE_BOUND('',#107,.T.);
#138=FACE_BOUND('',#108,.T.);
#139=FACE_BOUND('',#109,.T.);
#140=FACE_BOUND('',#110,.T.);
#141=FACE_BOUND('',#111,.T.);
#142=FACE_BOUND('',#112,.T.);
#143=FACE_BOUND('',#113,.T.);
#144=FACE_BOUND('',#114,.T.);
#145=FACE_BOUND('',#115,.T.);
#146=FACE_BOUND('',#116,.T.);
#147=FACE_BOUND('',#117,.T.);
#148=FACE_BOUND('',#118,.T.);
#149=FACE_BOUND('',#119,.T.);
#150=FACE_BOUND('',#120,.T.);
#151=FACE_BOUND('',#121,.T.);
#152=FACE_BOUND('',#122,.T.);
#153=FACE_BOUND('',#123,.T.);
#154=FACE_BOUND('',#124,.T.);
#155=FACE_BOUND('',#125,.T.);
#156=FACE_BOUND('',#126,.T.);
#157=FACE_BOUND('',#127,.T.);
#158=FACE_BOUND('',#128,.T.);
#159=FACE_BOUND('',#129,.T.);
#160=FACE_BOUND('',#130,.T.);
#161=FACE_BOUND('',#131,.T.);
#162=FACE_BOUND('',#132,.T.);
#163=FACE_BOUND('',#133,.T.);
#164=FACE_BOUND('',#134,.T.);
#165=FACE_BOUND('',#135,.T.);
#166=PLANE('',#200);
#167=PLANE('',#217);
#168=PLANE('',#218);
#169=PLANE('',#224);
#170=PLANE('',#230);
#171=ADVANCED_FACE('',(#136,#137),#166,.F.);
#172=ADVANCED_FACE('',(#138,#139),#29,.T.);
#173=ADVANCED_FACE('',(#140,#141),#25,.T.);
#174=ADVANCED_FACE('',(#142,#143),#30,.F.);
#175=ADVANCED_FACE('',(#144,#145),#20,.T.);
#176=ADVANCED_FACE('',(#146,#147),#21,.T.);
#177=ADVANCED_FACE('',(#148,#149),#22,.F.);
#178=ADVANCED_FACE('',(#150,#151),#23,.F.);
#179=ADVANCED_FACE('',(#152),#167,.F.);
#180=ADVANCED_FACE('',(#153,#154),#168,.T.);
#181=ADVANCED_FACE('',(#155,#156),#26,.F.);
#182=ADVANCED_FACE('',(#157,#158),#27,.T.);
#183=ADVANCED_FACE('',(#159),#169,.F.);
#184=ADVANCED_FACE('',(#160,#161),#24,.T.);
#185=ADVANCED_FACE('',(#162,#163),#28,.T.);
#186=ADVANCED_FACE('',(#164,#165),#170,.F.);
#187=CLOSED_SHELL('',(#171,#172,#173,#174,#175,#176,#177,#178,#179,#180,
#181,#182,#183,#184,#185,#186));
#188=STYLED_ITEM('',(#189),#196);
#189=PRESENTATION_STYLE_ASSIGNMENT((#190));
#190=SURFACE_STYLE_USAGE(.BOTH.,#191);
#191=SURFACE_SIDE_STYLE('',(#192));
#192=SURFACE_STYLE_FILL_AREA(#193);
#193=FILL_AREA_STYLE('',(#194));
#194=FILL_AREA_STYLE_COLOUR('',#195);
#195=COLOUR_RGB('',0.379999995231628,0.400000005960464,0.400000005960464);
#196=MANIFOLD_SOLID_BREP('189317 ESS-60-SF',#187);
#197=SHAPE_DEFINITION_REPRESENTATION(#348,#198);
#198=SHAPE_REPRESENTATION('189317 ESS-60-SF',(#199),#343);
#199=AXIS2_PLACEMENT_3D('',#295,#231,#232);
#200=AXIS2_PLACEMENT_3D('',#296,#233,#234);
#201=AXIS2_PLACEMENT_3D('',#297,#235,#236);
#202=AXIS2_PLACEMENT_3D('',#299,#237,#238);
#203=AXIS2_PLACEMENT_3D('',#301,#239,#240);
#204=AXIS2_PLACEMENT_3D('',#302,#241,#242);
#205=AXIS2_PLACEMENT_3D('',#304,#243,#244);
#206=AXIS2_PLACEMENT_3D('',#305,#245,#246);
#207=AXIS2_PLACEMENT_3D('',#307,#247,#248);
#208=AXIS2_PLACEMENT_3D('',#308,#249,#250);
#209=AXIS2_PLACEMENT_3D('',#310,#251,#252);
#210=AXIS2_PLACEMENT_3D('',#311,#253,#254);
#211=AXIS2_PLACEMENT_3D('',#313,#255,#256);
#212=AXIS2_PLACEMENT_3D('',#314,#257,#258);
#213=AXIS2_PLACEMENT_3D('',#316,#259,#260);
#214=AXIS2_PLACEMENT_3D('',#317,#261,#262);
#215=AXIS2_PLACEMENT_3D('',#319,#263,#264);
#216=AXIS2_PLACEMENT_3D('',#320,#265,#266);
#217=AXIS2_PLACEMENT_3D('',#322,#267,#268);
#218=AXIS2_PLACEMENT_3D('',#323,#269,#270);
#219=AXIS2_PLACEMENT_3D('',#324,#271,#272);
#220=AXIS2_PLACEMENT_3D('',#326,#273,#274);
#221=AXIS2_PLACEMENT_3D('',#328,#275,#276);
#222=AXIS2_PLACEMENT_3D('',#329,#277,#278);
#223=AXIS2_PLACEMENT_3D('',#331,#279,#280);
#224=AXIS2_PLACEMENT_3D('',#332,#281,#282);
#225=AXIS2_PLACEMENT_3D('',#333,#283,#284);
#226=AXIS2_PLACEMENT_3D('',#335,#285,#286);
#227=AXIS2_PLACEMENT_3D('',#336,#287,#288);
#228=AXIS2_PLACEMENT_3D('',#338,#289,#290);
#229=AXIS2_PLACEMENT_3D('',#339,#291,#292);
#230=AXIS2_PLACEMENT_3D('',#341,#293,#294);
#231=DIRECTION('',(0.,0.,1.));
#232=DIRECTION('',(1.,0.,0.));
#233=DIRECTION('',(0.,-1.,0.));
#234=DIRECTION('',(0.,0.,-1.));
#235=DIRECTION('',(0.,-1.,0.));
#236=DIRECTION('',(0.,0.,-1.));
#237=DIRECTION('',(0.,-1.,0.));
#238=DIRECTION('',(0.,0.,-1.));
#239=DIRECTION('',(0.,-1.,0.));
#240=DIRECTION('',(0.,0.,-1.));
#241=DIRECTION('',(0.,-1.,0.));
#242=DIRECTION('',(0.,0.,-1.));
#243=DIRECTION('',(0.,-1.,0.));
#244=DIRECTION('',(0.,0.,-1.));
#245=DIRECTION('',(0.,-1.,0.));
#246=DIRECTION('',(0.,0.,-1.));
#247=DIRECTION('',(0.,-1.,0.));
#248=DIRECTION('',(0.,0.,-1.));
#249=DIRECTION('',(0.,-1.,0.));
#250=DIRECTION('',(0.,0.,-1.));
#251=DIRECTION('',(0.,-1.,0.));
#252=DIRECTION('',(0.,0.,-1.));
#253=DIRECTION('',(0.,-1.,0.));
#254=DIRECTION('',(0.,0.,-1.));
#255=DIRECTION('',(0.,1.,0.));
#256=DIRECTION('',(0.,0.,1.));
#257=DIRECTION('',(0.,-1.,0.));
#258=DIRECTION('',(0.,0.,-1.));
#259=DIRECTION('',(0.,-1.,0.));
#260=DIRECTION('',(0.,0.,-1.));
#261=DIRECTION('',(0.,-1.,0.));
#262=DIRECTION('',(0.,0.,-1.));
#263=DIRECTION('',(0.,-1.,0.));
#264=DIRECTION('',(0.,0.,-1.));
#265=DIRECTION('',(0.,-1.,0.));
#266=DIRECTION('',(0.,0.,-1.));
#267=DIRECTION('',(0.,1.,0.));
#268=DIRECTION('',(0.,0.,1.));
#269=DIRECTION('',(0.,1.,0.));
#270=DIRECTION('',(0.,0.,1.));
#271=DIRECTION('',(0.,-1.,0.));
#272=DIRECTION('',(0.,0.,-1.));
#273=DIRECTION('',(0.,-1.,0.));
#274=DIRECTION('',(0.,0.,-1.));
#275=DIRECTION('',(0.,-1.,0.));
#276=DIRECTION('',(0.,0.,-1.));
#277=DIRECTION('',(0.,-1.,0.));
#278=DIRECTION('',(0.,0.,-1.));
#279=DIRECTION('',(0.,-1.,0.));
#280=DIRECTION('',(0.,0.,-1.));
#281=DIRECTION('',(0.,-1.,0.));
#282=DIRECTION('',(0.,0.,-1.));
#283=DIRECTION('',(0.,-1.,0.));
#284=DIRECTION('',(0.,0.,-1.));
#285=DIRECTION('',(0.,-1.,0.));
#286=DIRECTION('',(0.,0.,-1.));
#287=DIRECTION('',(0.,-1.,0.));
#288=DIRECTION('',(0.,0.,-1.));
#289=DIRECTION('',(0.,-1.,0.));
#290=DIRECTION('',(0.,0.,-1.));
#291=DIRECTION('',(0.,-1.,0.));
#292=DIRECTION('',(0.,0.,-1.));
#293=DIRECTION('',(0.,-1.,0.));
#294=DIRECTION('',(0.,0.,-1.));
#295=CARTESIAN_POINT('',(0.,0.,0.));
#296=CARTESIAN_POINT('',(5.,18.,0.));
#297=CARTESIAN_POINT('',(0.,18.,0.));
#298=CARTESIAN_POINT('',(0.,18.,-17.5));
#299=CARTESIAN_POINT('',(0.,18.,0.));
#300=CARTESIAN_POINT('',(0.,18.,-16.));
#301=CARTESIAN_POINT('',(0.,15.5,0.));
#302=CARTESIAN_POINT('',(0.,15.5,0.));
#303=CARTESIAN_POINT('',(0.,15.5,-20.));
#304=CARTESIAN_POINT('',(0.,6.18,0.));
#305=CARTESIAN_POINT('',(0.,14.0522428900903,0.));
#306=CARTESIAN_POINT('',(0.,14.0522428900903,-20.));
#307=CARTESIAN_POINT('',(0.,14.0522428900903,0.));
#308=CARTESIAN_POINT('',(0.,3.81539218099326,0.));
#309=CARTESIAN_POINT('',(0.,3.81539218099326,-25.7384596496023));
#310=CARTESIAN_POINT('',(0.,3.81539218099326,0.));
#311=CARTESIAN_POINT('',(0.,0.749999999999999,0.));
#312=CARTESIAN_POINT('',(0.,0.749999999999999,-30.75));
#313=CARTESIAN_POINT('',(0.,0.749999999999999,0.));
#314=CARTESIAN_POINT('',(0.,0.,0.));
#315=CARTESIAN_POINT('',(0.,0.,-30.));
#316=CARTESIAN_POINT('',(0.,0.,0.));
#317=CARTESIAN_POINT('',(0.,5.30029245131025,0.));
#318=CARTESIAN_POINT('',(0.,5.30029245131025,-21.3346717417271));
#319=CARTESIAN_POINT('',(0.,5.30029245131025,0.));
#320=CARTESIAN_POINT('',(0.,6.18,0.));
#321=CARTESIAN_POINT('',(0.,6.18,-18.0515584742151));
#322=CARTESIAN_POINT('',(18.0515584742151,6.18,0.));
#323=CARTESIAN_POINT('',(16.,20.6,0.));
#324=CARTESIAN_POINT('',(0.,20.6,0.));
#325=CARTESIAN_POINT('',(0.,20.6,-8.5));
#326=CARTESIAN_POINT('',(0.,20.6,0.));
#327=CARTESIAN_POINT('',(0.,20.6,-16.));
#328=CARTESIAN_POINT('',(0.,18.,0.));
#329=CARTESIAN_POINT('',(0.,18.,0.));
#330=CARTESIAN_POINT('',(0.,18.,-8.5));
#331=CARTESIAN_POINT('',(0.,18.,0.));
#332=CARTESIAN_POINT('',(0.,25.1,0.));
#333=CARTESIAN_POINT('',(0.,25.1,0.));
#334=CARTESIAN_POINT('',(0.,25.1,-4.08));
#335=CARTESIAN_POINT('',(0.,25.1,0.));
#336=CARTESIAN_POINT('',(0.,24.18,0.));
#337=CARTESIAN_POINT('',(0.,24.18,-5.));
#338=CARTESIAN_POINT('',(0.,6.18,0.));
#339=CARTESIAN_POINT('',(0.,18.,0.));
#340=CARTESIAN_POINT('',(0.,18.,-5.));
#341=CARTESIAN_POINT('',(5.,18.,0.));
#342=MECHANICAL_DESIGN_GEOMETRIC_PRESENTATION_REPRESENTATION('',(#188),
#343);
#343=(
GEOMETRIC_REPRESENTATION_CONTEXT(3)
GLOBAL_UNCERTAINTY_ASSIGNED_CONTEXT((#344))
GLOBAL_UNIT_ASSIGNED_CONTEXT((#347,#346,#345))
REPRESENTATION_CONTEXT('189317 ESS-60-SF','TOP_LEVEL_ASSEMBLY_PART')
);
#344=UNCERTAINTY_MEASURE_WITH_UNIT(LENGTH_MEASURE(0.005),#347,
'DISTANCE_ACCURACY_VALUE','Maximum Tolerance applied to model');
#345=(
NAMED_UNIT(*)
SI_UNIT($,.STERADIAN.)
SOLID_ANGLE_UNIT()
);
#346=(
NAMED_UNIT(*)
PLANE_ANGLE_UNIT()
SI_UNIT($,.RADIAN.)
);
#347=(
LENGTH_UNIT()
NAMED_UNIT(*)
SI_UNIT(.MILLI.,.METRE.)
);
#348=PRODUCT_DEFINITION_SHAPE('','',#349);
#349=PRODUCT_DEFINITION('','',#351,#350);
#350=PRODUCT_DEFINITION_CONTEXT('',#357,'design');
#351=PRODUCT_DEFINITION_FORMATION_WITH_SPECIFIED_SOURCE('','',#353,
 .NOT_KNOWN.);
#352=PRODUCT_RELATED_PRODUCT_CATEGORY('','',(#353));
#353=PRODUCT('189317 ESS-60-SF','189317 ESS-60-SF','189317 ESS-60-SF',(#355));
#354=PRODUCT_CATEGORY('','');
#355=PRODUCT_CONTEXT('',#357,'mechanical');
#356=APPLICATION_PROTOCOL_DEFINITION('international standard',
'automotive_design',2010,#357);
#357=APPLICATION_CONTEXT(
'core data for automotive mechanical design processes');
ENDSEC;
END-ISO-10303-21;
