ISO-10303-21;
HEADER;
/* Generated by software containing ST-Developer
 * from STEP Tools, Inc. (www.steptools.com) 
 */
/* OPTION: using custom renumber hook */

FILE_DESCRIPTION(
/* description */ ('STEP AP214'),
/* implementation_level */ '2;1');

FILE_NAME(
/* name */ '189318_ESS-80-SN',
/* time_stamp */ '2024-08-28T10:21:10+02:00',
/* author */ ('License CC BY-ND 4.0'),
/* organization */ ('CADENAS'),
/* preprocessor_version */ 'ST-DEVELOPER v19.3',
/* originating_system */ 'PARTsolutions',
/* authorisation */ '  ');

FILE_SCHEMA (('AUTOMOTIVE_DESIGN {1 0 10303 214 3 1 1}'));
ENDSEC;

DATA;
#10=PROPERTY_DEFINITION_REPRESENTATION(#14,#12);
#11=PROPERTY_DEFINITION_REPRESENTATION(#15,#13);
#12=REPRESENTATION('',(#16),#693);
#13=REPRESENTATION('',(#17),#693);
#14=PROPERTY_DEFINITION('pmi validation property','',#698);
#15=PROPERTY_DEFINITION('pmi validation property','',#698);
#16=VALUE_REPRESENTATION_ITEM('number of annotations',COUNT_MEASURE(0.));
#17=VALUE_REPRESENTATION_ITEM('number of views',COUNT_MEASURE(0.));
#18=SHAPE_REPRESENTATION_RELATIONSHIP('','',#476,#19);
#19=ADVANCED_BREP_SHAPE_REPRESENTATION('',(#474),#693);
#20=TOROIDAL_SURFACE('',#491,33.477730901172,1.5);
#21=TOROIDAL_SURFACE('',#497,31.875,2.12500000000001);
#22=CONICAL_SURFACE('',#485,25.6818181818182,1.00963291450654);
#23=CONICAL_SURFACE('',#487,40.,0.785398163397448);
#24=CONICAL_SURFACE('',#489,41.,1.00963291450654);
#25=CONICAL_SURFACE('',#503,5.,0.785398163397446);
#26=DRAUGHTING_PRE_DEFINED_COLOUR('black');
#27=CYLINDRICAL_SURFACE('',#480,3.);
#28=CYLINDRICAL_SURFACE('',#495,34.);
#29=CYLINDRICAL_SURFACE('',#501,5.);
#30=CYLINDRICAL_SURFACE('',#512,9.8);
#31=CIRCLE('',#479,3.);
#32=CIRCLE('',#481,3.);
#33=CIRCLE('',#483,25.6818181818182);
#34=CIRCLE('',#484,9.8);
#35=CIRCLE('',#486,40.);
#36=CIRCLE('',#488,41.);
#37=CIRCLE('',#490,32.6794735833444);
#38=CIRCLE('',#492,33.477730901172);
#39=CIRCLE('',#494,34.);
#40=CIRCLE('',#496,34.);
#41=CIRCLE('',#498,31.875);
#42=CIRCLE('',#500,5.);
#43=CIRCLE('',#502,5.);
#44=CIRCLE('',#504,4.08);
#45=CIRCLE('',#513,9.8);
#46=ORIENTED_EDGE('',*,*,#112,.T.);
#47=ORIENTED_EDGE('',*,*,#113,.T.);
#48=ORIENTED_EDGE('',*,*,#114,.T.);
#49=ORIENTED_EDGE('',*,*,#115,.T.);
#50=ORIENTED_EDGE('',*,*,#116,.T.);
#51=ORIENTED_EDGE('',*,*,#117,.T.);
#52=ORIENTED_EDGE('',*,*,#118,.F.);
#53=ORIENTED_EDGE('',*,*,#118,.T.);
#54=ORIENTED_EDGE('',*,*,#119,.F.);
#55=ORIENTED_EDGE('',*,*,#120,.T.);
#56=ORIENTED_EDGE('',*,*,#121,.F.);
#57=ORIENTED_EDGE('',*,*,#122,.T.);
#58=ORIENTED_EDGE('',*,*,#120,.F.);
#59=ORIENTED_EDGE('',*,*,#123,.T.);
#60=ORIENTED_EDGE('',*,*,#122,.F.);
#61=ORIENTED_EDGE('',*,*,#124,.T.);
#62=ORIENTED_EDGE('',*,*,#123,.F.);
#63=ORIENTED_EDGE('',*,*,#124,.F.);
#64=ORIENTED_EDGE('',*,*,#125,.T.);
#65=ORIENTED_EDGE('',*,*,#126,.T.);
#66=ORIENTED_EDGE('',*,*,#125,.F.);
#67=ORIENTED_EDGE('',*,*,#127,.T.);
#68=ORIENTED_EDGE('',*,*,#126,.F.);
#69=ORIENTED_EDGE('',*,*,#128,.T.);
#70=ORIENTED_EDGE('',*,*,#127,.F.);
#71=ORIENTED_EDGE('',*,*,#129,.T.);
#72=ORIENTED_EDGE('',*,*,#128,.F.);
#73=ORIENTED_EDGE('',*,*,#130,.T.);
#74=ORIENTED_EDGE('',*,*,#129,.F.);
#75=ORIENTED_EDGE('',*,*,#131,.T.);
#76=ORIENTED_EDGE('',*,*,#130,.F.);
#77=ORIENTED_EDGE('',*,*,#119,.T.);
#78=ORIENTED_EDGE('',*,*,#131,.F.);
#79=ORIENTED_EDGE('',*,*,#116,.F.);
#80=ORIENTED_EDGE('',*,*,#132,.F.);
#81=ORIENTED_EDGE('',*,*,#133,.T.);
#82=ORIENTED_EDGE('',*,*,#134,.T.);
#83=ORIENTED_EDGE('',*,*,#115,.F.);
#84=ORIENTED_EDGE('',*,*,#135,.F.);
#85=ORIENTED_EDGE('',*,*,#136,.T.);
#86=ORIENTED_EDGE('',*,*,#132,.T.);
#87=ORIENTED_EDGE('',*,*,#114,.F.);
#88=ORIENTED_EDGE('',*,*,#137,.F.);
#89=ORIENTED_EDGE('',*,*,#138,.T.);
#90=ORIENTED_EDGE('',*,*,#135,.T.);
#91=ORIENTED_EDGE('',*,*,#113,.F.);
#92=ORIENTED_EDGE('',*,*,#139,.F.);
#93=ORIENTED_EDGE('',*,*,#140,.T.);
#94=ORIENTED_EDGE('',*,*,#137,.T.);
#95=ORIENTED_EDGE('',*,*,#112,.F.);
#96=ORIENTED_EDGE('',*,*,#141,.F.);
#97=ORIENTED_EDGE('',*,*,#142,.T.);
#98=ORIENTED_EDGE('',*,*,#139,.T.);
#99=ORIENTED_EDGE('',*,*,#117,.F.);
#100=ORIENTED_EDGE('',*,*,#134,.F.);
#101=ORIENTED_EDGE('',*,*,#143,.T.);
#102=ORIENTED_EDGE('',*,*,#141,.T.);
#103=ORIENTED_EDGE('',*,*,#144,.F.);
#104=ORIENTED_EDGE('',*,*,#121,.T.);
#105=ORIENTED_EDGE('',*,*,#133,.F.);
#106=ORIENTED_EDGE('',*,*,#136,.F.);
#107=ORIENTED_EDGE('',*,*,#138,.F.);
#108=ORIENTED_EDGE('',*,*,#140,.F.);
#109=ORIENTED_EDGE('',*,*,#142,.F.);
#110=ORIENTED_EDGE('',*,*,#143,.F.);
#111=ORIENTED_EDGE('',*,*,#144,.T.);
#112=EDGE_CURVE('',#145,#146,#172,.T.);
#113=EDGE_CURVE('',#146,#147,#173,.T.);
#114=EDGE_CURVE('',#147,#148,#174,.T.);
#115=EDGE_CURVE('',#148,#149,#175,.T.);
#116=EDGE_CURVE('',#149,#150,#176,.T.);
#117=EDGE_CURVE('',#150,#145,#177,.T.);
#118=EDGE_CURVE('',#151,#151,#31,.T.);
#119=EDGE_CURVE('',#152,#152,#32,.T.);
#120=EDGE_CURVE('',#153,#153,#33,.T.);
#121=EDGE_CURVE('',#154,#154,#34,.T.);
#122=EDGE_CURVE('',#155,#155,#35,.T.);
#123=EDGE_CURVE('',#156,#156,#36,.T.);
#124=EDGE_CURVE('',#157,#157,#37,.T.);
#125=EDGE_CURVE('',#158,#158,#38,.T.);
#126=EDGE_CURVE('',#159,#159,#39,.T.);
#127=EDGE_CURVE('',#160,#160,#40,.T.);
#128=EDGE_CURVE('',#161,#161,#41,.T.);
#129=EDGE_CURVE('',#162,#162,#42,.T.);
#130=EDGE_CURVE('',#163,#163,#43,.T.);
#131=EDGE_CURVE('',#164,#164,#44,.T.);
#132=EDGE_CURVE('',#165,#149,#178,.T.);
#133=EDGE_CURVE('',#165,#166,#179,.T.);
#134=EDGE_CURVE('',#166,#150,#180,.T.);
#135=EDGE_CURVE('',#167,#148,#181,.T.);
#136=EDGE_CURVE('',#167,#165,#182,.T.);
#137=EDGE_CURVE('',#168,#147,#183,.T.);
#138=EDGE_CURVE('',#168,#167,#184,.T.);
#139=EDGE_CURVE('',#169,#146,#185,.T.);
#140=EDGE_CURVE('',#169,#168,#186,.T.);
#141=EDGE_CURVE('',#170,#145,#187,.T.);
#142=EDGE_CURVE('',#170,#169,#188,.T.);
#143=EDGE_CURVE('',#166,#170,#189,.T.);
#144=EDGE_CURVE('',#171,#171,#45,.T.);
#145=VERTEX_POINT('',#612);
#146=VERTEX_POINT('',#613);
#147=VERTEX_POINT('',#615);
#148=VERTEX_POINT('',#617);
#149=VERTEX_POINT('',#619);
#150=VERTEX_POINT('',#621);
#151=VERTEX_POINT('',#624);
#152=VERTEX_POINT('',#627);
#153=VERTEX_POINT('',#630);
#154=VERTEX_POINT('',#632);
#155=VERTEX_POINT('',#635);
#156=VERTEX_POINT('',#638);
#157=VERTEX_POINT('',#641);
#158=VERTEX_POINT('',#644);
#159=VERTEX_POINT('',#647);
#160=VERTEX_POINT('',#650);
#161=VERTEX_POINT('',#653);
#162=VERTEX_POINT('',#656);
#163=VERTEX_POINT('',#659);
#164=VERTEX_POINT('',#662);
#165=VERTEX_POINT('',#666);
#166=VERTEX_POINT('',#668);
#167=VERTEX_POINT('',#672);
#168=VERTEX_POINT('',#676);
#169=VERTEX_POINT('',#680);
#170=VERTEX_POINT('',#684);
#171=VERTEX_POINT('',#690);
#172=LINE('',#611,#190);
#173=LINE('',#614,#191);
#174=LINE('',#616,#192);
#175=LINE('',#618,#193);
#176=LINE('',#620,#194);
#177=LINE('',#622,#195);
#178=LINE('',#665,#196);
#179=LINE('',#667,#197);
#180=LINE('',#669,#198);
#181=LINE('',#671,#199);
#182=LINE('',#673,#200);
#183=LINE('',#675,#201);
#184=LINE('',#677,#202);
#185=LINE('',#679,#203);
#186=LINE('',#681,#204);
#187=LINE('',#683,#205);
#188=LINE('',#685,#206);
#189=LINE('',#687,#207);
#190=VECTOR('',#519,1000.);
#191=VECTOR('',#520,1000.);
#192=VECTOR('',#521,1000.);
#193=VECTOR('',#522,1000.);
#194=VECTOR('',#523,1000.);
#195=VECTOR('',#524,1000.);
#196=VECTOR('',#581,1000.);
#197=VECTOR('',#582,1000.);
#198=VECTOR('',#583,1000.);
#199=VECTOR('',#586,1000.);
#200=VECTOR('',#587,1000.);
#201=VECTOR('',#590,1000.);
#202=VECTOR('',#591,1000.);
#203=VECTOR('',#594,1000.);
#204=VECTOR('',#595,1000.);
#205=VECTOR('',#598,1000.);
#206=VECTOR('',#599,1000.);
#207=VECTOR('',#602,1000.);
#208=EDGE_LOOP('',(#46,#47,#48,#49,#50,#51));
#209=EDGE_LOOP('',(#52));
#210=EDGE_LOOP('',(#53));
#211=EDGE_LOOP('',(#54));
#212=EDGE_LOOP('',(#55));
#213=EDGE_LOOP('',(#56));
#214=EDGE_LOOP('',(#57));
#215=EDGE_LOOP('',(#58));
#216=EDGE_LOOP('',(#59));
#217=EDGE_LOOP('',(#60));
#218=EDGE_LOOP('',(#61));
#219=EDGE_LOOP('',(#62));
#220=EDGE_LOOP('',(#63));
#221=EDGE_LOOP('',(#64));
#222=EDGE_LOOP('',(#65));
#223=EDGE_LOOP('',(#66));
#224=EDGE_LOOP('',(#67));
#225=EDGE_LOOP('',(#68));
#226=EDGE_LOOP('',(#69));
#227=EDGE_LOOP('',(#70));
#228=EDGE_LOOP('',(#71));
#229=EDGE_LOOP('',(#72));
#230=EDGE_LOOP('',(#73));
#231=EDGE_LOOP('',(#74));
#232=EDGE_LOOP('',(#75));
#233=EDGE_LOOP('',(#76));
#234=EDGE_LOOP('',(#77));
#235=EDGE_LOOP('',(#78));
#236=EDGE_LOOP('',(#79,#80,#81,#82));
#237=EDGE_LOOP('',(#83,#84,#85,#86));
#238=EDGE_LOOP('',(#87,#88,#89,#90));
#239=EDGE_LOOP('',(#91,#92,#93,#94));
#240=EDGE_LOOP('',(#95,#96,#97,#98));
#241=EDGE_LOOP('',(#99,#100,#101,#102));
#242=EDGE_LOOP('',(#103));
#243=EDGE_LOOP('',(#104));
#244=EDGE_LOOP('',(#105,#106,#107,#108,#109,#110));
#245=EDGE_LOOP('',(#111));
#246=FACE_BOUND('',#208,.T.);
#247=FACE_BOUND('',#209,.T.);
#248=FACE_BOUND('',#210,.T.);
#249=FACE_BOUND('',#211,.T.);
#250=FACE_BOUND('',#212,.T.);
#251=FACE_BOUND('',#213,.T.);
#252=FACE_BOUND('',#214,.T.);
#253=FACE_BOUND('',#215,.T.);
#254=FACE_BOUND('',#216,.T.);
#255=FACE_BOUND('',#217,.T.);
#256=FACE_BOUND('',#218,.T.);
#257=FACE_BOUND('',#219,.T.);
#258=FACE_BOUND('',#220,.T.);
#259=FACE_BOUND('',#221,.T.);
#260=FACE_BOUND('',#222,.T.);
#261=FACE_BOUND('',#223,.T.);
#262=FACE_BOUND('',#224,.T.);
#263=FACE_BOUND('',#225,.T.);
#264=FACE_BOUND('',#226,.T.);
#265=FACE_BOUND('',#227,.T.);
#266=FACE_BOUND('',#228,.T.);
#267=FACE_BOUND('',#229,.T.);
#268=FACE_BOUND('',#230,.T.);
#269=FACE_BOUND('',#231,.T.);
#270=FACE_BOUND('',#232,.T.);
#271=FACE_BOUND('',#233,.T.);
#272=FACE_BOUND('',#234,.T.);
#273=FACE_BOUND('',#235,.T.);
#274=FACE_BOUND('',#236,.T.);
#275=FACE_BOUND('',#237,.T.);
#276=FACE_BOUND('',#238,.T.);
#277=FACE_BOUND('',#239,.T.);
#278=FACE_BOUND('',#240,.T.);
#279=FACE_BOUND('',#241,.T.);
#280=FACE_BOUND('',#242,.T.);
#281=FACE_BOUND('',#243,.T.);
#282=FACE_BOUND('',#244,.T.);
#283=FACE_BOUND('',#245,.T.);
#284=PLANE('',#478);
#285=PLANE('',#482);
#286=PLANE('',#493);
#287=PLANE('',#499);
#288=PLANE('',#505);
#289=PLANE('',#506);
#290=PLANE('',#507);
#291=PLANE('',#508);
#292=PLANE('',#509);
#293=PLANE('',#510);
#294=PLANE('',#511);
#295=PLANE('',#514);
#296=STYLED_ITEM('',(#318),#451);
#297=STYLED_ITEM('',(#319),#452);
#298=STYLED_ITEM('',(#320),#453);
#299=STYLED_ITEM('',(#321),#454);
#300=STYLED_ITEM('',(#322),#455);
#301=STYLED_ITEM('',(#323),#456);
#302=STYLED_ITEM('',(#324),#457);
#303=STYLED_ITEM('',(#325),#458);
#304=STYLED_ITEM('',(#326),#459);
#305=STYLED_ITEM('',(#327),#460);
#306=STYLED_ITEM('',(#328),#461);
#307=STYLED_ITEM('',(#329),#462);
#308=STYLED_ITEM('',(#330),#463);
#309=STYLED_ITEM('',(#331),#464);
#310=STYLED_ITEM('',(#332),#465);
#311=STYLED_ITEM('',(#333),#466);
#312=STYLED_ITEM('',(#334),#467);
#313=STYLED_ITEM('',(#335),#468);
#314=STYLED_ITEM('',(#336),#469);
#315=STYLED_ITEM('',(#337),#470);
#316=STYLED_ITEM('',(#338),#471);
#317=STYLED_ITEM('',(#339),#472);
#318=PRESENTATION_STYLE_ASSIGNMENT((#340));
#319=PRESENTATION_STYLE_ASSIGNMENT((#341));
#320=PRESENTATION_STYLE_ASSIGNMENT((#342));
#321=PRESENTATION_STYLE_ASSIGNMENT((#343));
#322=PRESENTATION_STYLE_ASSIGNMENT((#344));
#323=PRESENTATION_STYLE_ASSIGNMENT((#345));
#324=PRESENTATION_STYLE_ASSIGNMENT((#346));
#325=PRESENTATION_STYLE_ASSIGNMENT((#347));
#326=PRESENTATION_STYLE_ASSIGNMENT((#348));
#327=PRESENTATION_STYLE_ASSIGNMENT((#349));
#328=PRESENTATION_STYLE_ASSIGNMENT((#350));
#329=PRESENTATION_STYLE_ASSIGNMENT((#351));
#330=PRESENTATION_STYLE_ASSIGNMENT((#352));
#331=PRESENTATION_STYLE_ASSIGNMENT((#353));
#332=PRESENTATION_STYLE_ASSIGNMENT((#354));
#333=PRESENTATION_STYLE_ASSIGNMENT((#355));
#334=PRESENTATION_STYLE_ASSIGNMENT((#356));
#335=PRESENTATION_STYLE_ASSIGNMENT((#357));
#336=PRESENTATION_STYLE_ASSIGNMENT((#358));
#337=PRESENTATION_STYLE_ASSIGNMENT((#359));
#338=PRESENTATION_STYLE_ASSIGNMENT((#360));
#339=PRESENTATION_STYLE_ASSIGNMENT((#361));
#340=SURFACE_STYLE_USAGE(.BOTH.,#362);
#341=SURFACE_STYLE_USAGE(.BOTH.,#363);
#342=SURFACE_STYLE_USAGE(.BOTH.,#364);
#343=SURFACE_STYLE_USAGE(.BOTH.,#365);
#344=SURFACE_STYLE_USAGE(.BOTH.,#366);
#345=SURFACE_STYLE_USAGE(.BOTH.,#367);
#346=SURFACE_STYLE_USAGE(.BOTH.,#368);
#347=SURFACE_STYLE_USAGE(.BOTH.,#369);
#348=SURFACE_STYLE_USAGE(.BOTH.,#370);
#349=SURFACE_STYLE_USAGE(.BOTH.,#371);
#350=SURFACE_STYLE_USAGE(.BOTH.,#372);
#351=SURFACE_STYLE_USAGE(.BOTH.,#373);
#352=SURFACE_STYLE_USAGE(.BOTH.,#374);
#353=SURFACE_STYLE_USAGE(.BOTH.,#375);
#354=SURFACE_STYLE_USAGE(.BOTH.,#376);
#355=SURFACE_STYLE_USAGE(.BOTH.,#377);
#356=SURFACE_STYLE_USAGE(.BOTH.,#378);
#357=SURFACE_STYLE_USAGE(.BOTH.,#379);
#358=SURFACE_STYLE_USAGE(.BOTH.,#380);
#359=SURFACE_STYLE_USAGE(.BOTH.,#381);
#360=SURFACE_STYLE_USAGE(.BOTH.,#382);
#361=SURFACE_STYLE_USAGE(.BOTH.,#383);
#362=SURFACE_SIDE_STYLE('',(#384));
#363=SURFACE_SIDE_STYLE('',(#385));
#364=SURFACE_SIDE_STYLE('',(#386));
#365=SURFACE_SIDE_STYLE('',(#387));
#366=SURFACE_SIDE_STYLE('',(#388));
#367=SURFACE_SIDE_STYLE('',(#389));
#368=SURFACE_SIDE_STYLE('',(#390));
#369=SURFACE_SIDE_STYLE('',(#391));
#370=SURFACE_SIDE_STYLE('',(#392));
#371=SURFACE_SIDE_STYLE('',(#393));
#372=SURFACE_SIDE_STYLE('',(#394));
#373=SURFACE_SIDE_STYLE('',(#395));
#374=SURFACE_SIDE_STYLE('',(#396));
#375=SURFACE_SIDE_STYLE('',(#397));
#376=SURFACE_SIDE_STYLE('',(#398));
#377=SURFACE_SIDE_STYLE('',(#399));
#378=SURFACE_SIDE_STYLE('',(#400));
#379=SURFACE_SIDE_STYLE('',(#401));
#380=SURFACE_SIDE_STYLE('',(#402));
#381=SURFACE_SIDE_STYLE('',(#403));
#382=SURFACE_SIDE_STYLE('',(#404));
#383=SURFACE_SIDE_STYLE('',(#405));
#384=SURFACE_STYLE_FILL_AREA(#406);
#385=SURFACE_STYLE_FILL_AREA(#407);
#386=SURFACE_STYLE_FILL_AREA(#408);
#387=SURFACE_STYLE_FILL_AREA(#409);
#388=SURFACE_STYLE_FILL_AREA(#410);
#389=SURFACE_STYLE_FILL_AREA(#411);
#390=SURFACE_STYLE_FILL_AREA(#412);
#391=SURFACE_STYLE_FILL_AREA(#413);
#392=SURFACE_STYLE_FILL_AREA(#414);
#393=SURFACE_STYLE_FILL_AREA(#415);
#394=SURFACE_STYLE_FILL_AREA(#416);
#395=SURFACE_STYLE_FILL_AREA(#417);
#396=SURFACE_STYLE_FILL_AREA(#418);
#397=SURFACE_STYLE_FILL_AREA(#419);
#398=SURFACE_STYLE_FILL_AREA(#420);
#399=SURFACE_STYLE_FILL_AREA(#421);
#400=SURFACE_STYLE_FILL_AREA(#422);
#401=SURFACE_STYLE_FILL_AREA(#423);
#402=SURFACE_STYLE_FILL_AREA(#424);
#403=SURFACE_STYLE_FILL_AREA(#425);
#404=SURFACE_STYLE_FILL_AREA(#426);
#405=SURFACE_STYLE_FILL_AREA(#427);
#406=FILL_AREA_STYLE('',(#428));
#407=FILL_AREA_STYLE('',(#429));
#408=FILL_AREA_STYLE('',(#430));
#409=FILL_AREA_STYLE('',(#431));
#410=FILL_AREA_STYLE('',(#432));
#411=FILL_AREA_STYLE('',(#433));
#412=FILL_AREA_STYLE('',(#434));
#413=FILL_AREA_STYLE('',(#435));
#414=FILL_AREA_STYLE('',(#436));
#415=FILL_AREA_STYLE('',(#437));
#416=FILL_AREA_STYLE('',(#438));
#417=FILL_AREA_STYLE('',(#439));
#418=FILL_AREA_STYLE('',(#440));
#419=FILL_AREA_STYLE('',(#441));
#420=FILL_AREA_STYLE('',(#442));
#421=FILL_AREA_STYLE('',(#443));
#422=FILL_AREA_STYLE('',(#444));
#423=FILL_AREA_STYLE('',(#445));
#424=FILL_AREA_STYLE('',(#446));
#425=FILL_AREA_STYLE('',(#447));
#426=FILL_AREA_STYLE('',(#448));
#427=FILL_AREA_STYLE('',(#449));
#428=FILL_AREA_STYLE_COLOUR('',#450);
#429=FILL_AREA_STYLE_COLOUR('',#450);
#430=FILL_AREA_STYLE_COLOUR('',#450);
#431=FILL_AREA_STYLE_COLOUR('',#26);
#432=FILL_AREA_STYLE_COLOUR('',#26);
#433=FILL_AREA_STYLE_COLOUR('',#26);
#434=FILL_AREA_STYLE_COLOUR('',#26);
#435=FILL_AREA_STYLE_COLOUR('',#26);
#436=FILL_AREA_STYLE_COLOUR('',#450);
#437=FILL_AREA_STYLE_COLOUR('',#450);
#438=FILL_AREA_STYLE_COLOUR('',#450);
#439=FILL_AREA_STYLE_COLOUR('',#450);
#440=FILL_AREA_STYLE_COLOUR('',#450);
#441=FILL_AREA_STYLE_COLOUR('',#450);
#442=FILL_AREA_STYLE_COLOUR('',#450);
#443=FILL_AREA_STYLE_COLOUR('',#450);
#444=FILL_AREA_STYLE_COLOUR('',#450);
#445=FILL_AREA_STYLE_COLOUR('',#450);
#446=FILL_AREA_STYLE_COLOUR('',#450);
#447=FILL_AREA_STYLE_COLOUR('',#450);
#448=FILL_AREA_STYLE_COLOUR('',#450);
#449=FILL_AREA_STYLE_COLOUR('',#450);
#450=COLOUR_RGB('',0.75300002098083,0.75300002098083,0.75300002098083);
#451=ADVANCED_FACE('',(#246,#247),#284,.T.);
#452=ADVANCED_FACE('',(#248,#249),#27,.F.);
#453=ADVANCED_FACE('',(#250,#251),#285,.T.);
#454=ADVANCED_FACE('',(#252,#253),#22,.F.);
#455=ADVANCED_FACE('',(#254,#255),#23,.T.);
#456=ADVANCED_FACE('',(#256,#257),#24,.T.);
#457=ADVANCED_FACE('',(#258,#259),#20,.F.);
#458=ADVANCED_FACE('',(#260,#261),#286,.T.);
#459=ADVANCED_FACE('',(#262,#263),#28,.T.);
#460=ADVANCED_FACE('',(#264,#265),#21,.T.);
#461=ADVANCED_FACE('',(#266,#267),#287,.T.);
#462=ADVANCED_FACE('',(#268,#269),#29,.T.);
#463=ADVANCED_FACE('',(#270,#271),#25,.T.);
#464=ADVANCED_FACE('',(#272,#273),#288,.T.);
#465=ADVANCED_FACE('',(#274),#289,.T.);
#466=ADVANCED_FACE('',(#275),#290,.T.);
#467=ADVANCED_FACE('',(#276),#291,.T.);
#468=ADVANCED_FACE('',(#277),#292,.T.);
#469=ADVANCED_FACE('',(#278),#293,.T.);
#470=ADVANCED_FACE('',(#279),#294,.T.);
#471=ADVANCED_FACE('',(#280,#281),#30,.F.);
#472=ADVANCED_FACE('',(#282,#283),#295,.T.);
#473=CLOSED_SHELL('',(#451,#452,#453,#454,#455,#456,#457,#458,#459,#460,
#461,#462,#463,#464,#465,#466,#467,#468,#469,#470,#471,#472));
#474=MANIFOLD_SOLID_BREP('189318 ESS-80-SN',#473);
#475=SHAPE_DEFINITION_REPRESENTATION(#698,#476);
#476=SHAPE_REPRESENTATION('189318 ESS-80-SN',(#477),#693);
#477=AXIS2_PLACEMENT_3D('',#609,#515,#516);
#478=AXIS2_PLACEMENT_3D('',#610,#517,#518);
#479=AXIS2_PLACEMENT_3D('',#623,#525,#526);
#480=AXIS2_PLACEMENT_3D('',#625,#527,#528);
#481=AXIS2_PLACEMENT_3D('',#626,#529,#530);
#482=AXIS2_PLACEMENT_3D('',#628,#531,#532);
#483=AXIS2_PLACEMENT_3D('',#629,#533,#534);
#484=AXIS2_PLACEMENT_3D('',#631,#535,#536);
#485=AXIS2_PLACEMENT_3D('',#633,#537,#538);
#486=AXIS2_PLACEMENT_3D('',#634,#539,#540);
#487=AXIS2_PLACEMENT_3D('',#636,#541,#542);
#488=AXIS2_PLACEMENT_3D('',#637,#543,#544);
#489=AXIS2_PLACEMENT_3D('',#639,#545,#546);
#490=AXIS2_PLACEMENT_3D('',#640,#547,#548);
#491=AXIS2_PLACEMENT_3D('',#642,#549,#550);
#492=AXIS2_PLACEMENT_3D('',#643,#551,#552);
#493=AXIS2_PLACEMENT_3D('',#645,#553,#554);
#494=AXIS2_PLACEMENT_3D('',#646,#555,#556);
#495=AXIS2_PLACEMENT_3D('',#648,#557,#558);
#496=AXIS2_PLACEMENT_3D('',#649,#559,#560);
#497=AXIS2_PLACEMENT_3D('',#651,#561,#562);
#498=AXIS2_PLACEMENT_3D('',#652,#563,#564);
#499=AXIS2_PLACEMENT_3D('',#654,#565,#566);
#500=AXIS2_PLACEMENT_3D('',#655,#567,#568);
#501=AXIS2_PLACEMENT_3D('',#657,#569,#570);
#502=AXIS2_PLACEMENT_3D('',#658,#571,#572);
#503=AXIS2_PLACEMENT_3D('',#660,#573,#574);
#504=AXIS2_PLACEMENT_3D('',#661,#575,#576);
#505=AXIS2_PLACEMENT_3D('',#663,#577,#578);
#506=AXIS2_PLACEMENT_3D('',#664,#579,#580);
#507=AXIS2_PLACEMENT_3D('',#670,#584,#585);
#508=AXIS2_PLACEMENT_3D('',#674,#588,#589);
#509=AXIS2_PLACEMENT_3D('',#678,#592,#593);
#510=AXIS2_PLACEMENT_3D('',#682,#596,#597);
#511=AXIS2_PLACEMENT_3D('',#686,#600,#601);
#512=AXIS2_PLACEMENT_3D('',#688,#603,#604);
#513=AXIS2_PLACEMENT_3D('',#689,#605,#606);
#514=AXIS2_PLACEMENT_3D('',#691,#607,#608);
#515=DIRECTION('',(0.,0.,1.));
#516=DIRECTION('',(1.,0.,0.));
#517=DIRECTION('',(0.,-1.,0.));
#518=DIRECTION('',(0.,0.,-1.));
#519=DIRECTION('',(0.866025403784439,0.,0.5));
#520=DIRECTION('',(0.,0.,1.));
#521=DIRECTION('',(-0.866025403784439,0.,0.5));
#522=DIRECTION('',(-0.866025403784439,0.,-0.5));
#523=DIRECTION('',(0.,0.,-1.));
#524=DIRECTION('',(0.866025403784439,0.,-0.5));
#525=DIRECTION('',(0.,-1.,0.));
#526=DIRECTION('',(0.,0.,-1.));
#527=DIRECTION('',(0.,-1.,0.));
#528=DIRECTION('',(0.,0.,-1.));
#529=DIRECTION('',(0.,-1.,0.));
#530=DIRECTION('',(0.,0.,-1.));
#531=DIRECTION('',(0.,-1.,0.));
#532=DIRECTION('',(0.,0.,-1.));
#533=DIRECTION('',(0.,-1.,0.));
#534=DIRECTION('',(0.,0.,-1.));
#535=DIRECTION('',(0.,-1.,0.));
#536=DIRECTION('',(1.,0.,0.));
#537=DIRECTION('',(0.,-1.,0.));
#538=DIRECTION('',(0.,0.,-1.));
#539=DIRECTION('',(0.,-1.,0.));
#540=DIRECTION('',(0.,0.,-1.));
#541=DIRECTION('',(0.,1.,0.));
#542=DIRECTION('',(0.,0.,1.));
#543=DIRECTION('',(0.,-1.,0.));
#544=DIRECTION('',(0.,0.,-1.));
#545=DIRECTION('',(0.,-1.,0.));
#546=DIRECTION('',(0.,0.,-1.));
#547=DIRECTION('',(0.,-1.,0.));
#548=DIRECTION('',(0.,0.,-1.));
#549=DIRECTION('',(0.,-1.,0.));
#550=DIRECTION('',(0.,0.,-1.));
#551=DIRECTION('',(0.,-1.,0.));
#552=DIRECTION('',(0.,0.,-1.));
#553=DIRECTION('',(0.,-1.,0.));
#554=DIRECTION('',(0.,0.,-1.));
#555=DIRECTION('',(0.,-1.,0.));
#556=DIRECTION('',(0.,0.,-1.));
#557=DIRECTION('',(0.,-1.,0.));
#558=DIRECTION('',(0.,0.,-1.));
#559=DIRECTION('',(0.,-1.,0.));
#560=DIRECTION('',(0.,0.,-1.));
#561=DIRECTION('',(0.,-1.,0.));
#562=DIRECTION('',(0.,0.,-1.));
#563=DIRECTION('',(0.,-1.,0.));
#564=DIRECTION('',(0.,0.,-1.));
#565=DIRECTION('',(0.,1.,0.));
#566=DIRECTION('',(0.,0.,1.));
#567=DIRECTION('',(0.,-1.,0.));
#568=DIRECTION('',(0.,0.,-1.));
#569=DIRECTION('',(0.,-1.,0.));
#570=DIRECTION('',(0.,0.,-1.));
#571=DIRECTION('',(0.,-1.,0.));
#572=DIRECTION('',(0.,0.,-1.));
#573=DIRECTION('',(0.,-1.,0.));
#574=DIRECTION('',(0.,0.,-1.));
#575=DIRECTION('',(0.,-1.,0.));
#576=DIRECTION('',(0.,0.,-1.));
#577=DIRECTION('',(0.,1.,0.));
#578=DIRECTION('',(0.,0.,1.));
#579=DIRECTION('',(-1.,0.,0.));
#580=DIRECTION('',(0.,0.,1.));
#581=DIRECTION('',(0.,-1.,0.));
#582=DIRECTION('',(0.,0.,-1.));
#583=DIRECTION('',(0.,-1.,0.));
#584=DIRECTION('',(-0.5,0.,0.866025403784439));
#585=DIRECTION('',(0.866025403784439,0.,0.5));
#586=DIRECTION('',(0.,-1.,0.));
#587=DIRECTION('',(-0.866025403784439,0.,-0.5));
#588=DIRECTION('',(0.5,0.,0.866025403784439));
#589=DIRECTION('',(0.866025403784439,0.,-0.5));
#590=DIRECTION('',(0.,-1.,0.));
#591=DIRECTION('',(-0.866025403784439,0.,0.5));
#592=DIRECTION('',(1.,0.,0.));
#593=DIRECTION('',(0.,0.,-1.));
#594=DIRECTION('',(0.,-1.,0.));
#595=DIRECTION('',(0.,0.,1.));
#596=DIRECTION('',(0.5,0.,-0.866025403784439));
#597=DIRECTION('',(-0.866025403784439,0.,-0.5));
#598=DIRECTION('',(0.,-1.,0.));
#599=DIRECTION('',(0.866025403784439,0.,0.5));
#600=DIRECTION('',(-0.5,0.,-0.866025403784439));
#601=DIRECTION('',(-0.866025403784439,0.,0.5));
#602=DIRECTION('',(0.866025403784439,0.,-0.5));
#603=DIRECTION('',(0.,-1.,0.));
#604=DIRECTION('',(0.,0.,-1.));
#605=DIRECTION('',(0.,-1.,0.));
#606=DIRECTION('',(1.,0.,0.));
#607=DIRECTION('',(0.,-1.,0.));
#608=DIRECTION('',(0.,0.,-1.));
#609=CARTESIAN_POINT('',(0.,0.,0.));
#610=CARTESIAN_POINT('',(3.,9.,0.));
#611=CARTESIAN_POINT('',(0.,9.,-8.08290376865476));
#612=CARTESIAN_POINT('',(-2.16840434497101E-16,9.,-8.08290376865476));
#613=CARTESIAN_POINT('',(7.,9.,-4.04145188432738));
#614=CARTESIAN_POINT('',(7.,9.,0.));
#615=CARTESIAN_POINT('',(7.,9.,4.04145188432738));
#616=CARTESIAN_POINT('',(7.,9.,4.04145188432738));
#617=CARTESIAN_POINT('',(0.,9.,8.08290376865476));
#618=CARTESIAN_POINT('',(0.,9.,8.08290376865476));
#619=CARTESIAN_POINT('',(-7.,9.,4.04145188432738));
#620=CARTESIAN_POINT('',(-7.,9.,4.04145188432738));
#621=CARTESIAN_POINT('',(-7.,9.,-4.04145188432738));
#622=CARTESIAN_POINT('',(-7.,9.,-4.04145188432738));
#623=CARTESIAN_POINT('',(0.,9.,0.));
#624=CARTESIAN_POINT('',(0.,9.,-3.));
#625=CARTESIAN_POINT('',(0.,0.,0.));
#626=CARTESIAN_POINT('',(0.,32.4,0.));
#627=CARTESIAN_POINT('',(0.,32.4,-3.));
#628=CARTESIAN_POINT('',(3.,9.,0.));
#629=CARTESIAN_POINT('',(0.,9.,0.));
#630=CARTESIAN_POINT('',(0.,9.,-25.6818181818182));
#631=CARTESIAN_POINT('',(0.,9.,0.));
#632=CARTESIAN_POINT('',(9.8,9.,0.));
#633=CARTESIAN_POINT('',(0.,9.,0.));
#634=CARTESIAN_POINT('',(0.,-1.73472347597681E-15,0.));
#635=CARTESIAN_POINT('',(0.,-1.73472347597681E-15,-40.));
#636=CARTESIAN_POINT('',(0.,-1.73472347597681E-15,0.));
#637=CARTESIAN_POINT('',(0.,0.999999999999999,0.));
#638=CARTESIAN_POINT('',(0.,0.999999999999999,-41.));
#639=CARTESIAN_POINT('',(0.,0.999999999999999,0.));
#640=CARTESIAN_POINT('',(0.,6.23004517618349,0.));
#641=CARTESIAN_POINT('',(0.,6.23004517618349,-32.6794735833444));
#642=CARTESIAN_POINT('',(0.,7.5,0.));
#643=CARTESIAN_POINT('',(0.,9.,0.));
#644=CARTESIAN_POINT('',(0.,9.,-33.477730901172));
#645=CARTESIAN_POINT('',(33.477730901172,9.,0.));
#646=CARTESIAN_POINT('',(0.,9.,0.));
#647=CARTESIAN_POINT('',(0.,9.,-34.));
#648=CARTESIAN_POINT('',(0.,0.,0.));
#649=CARTESIAN_POINT('',(0.,20.875,0.));
#650=CARTESIAN_POINT('',(0.,20.875,-34.));
#651=CARTESIAN_POINT('',(0.,20.875,0.));
#652=CARTESIAN_POINT('',(0.,23.,0.));
#653=CARTESIAN_POINT('',(0.,23.,-31.875));
#654=CARTESIAN_POINT('',(31.875,23.,0.));
#655=CARTESIAN_POINT('',(0.,23.,0.));
#656=CARTESIAN_POINT('',(0.,23.,-5.));
#657=CARTESIAN_POINT('',(0.,0.,0.));
#658=CARTESIAN_POINT('',(0.,31.48,0.));
#659=CARTESIAN_POINT('',(0.,31.48,-5.));
#660=CARTESIAN_POINT('',(0.,31.48,0.));
#661=CARTESIAN_POINT('',(0.,32.4,0.));
#662=CARTESIAN_POINT('',(0.,32.4,-4.08));
#663=CARTESIAN_POINT('',(4.08,32.4,0.));
#664=CARTESIAN_POINT('',(-7.,13.6666666666667,4.04145188432738));
#665=CARTESIAN_POINT('',(-7.,13.6666666666667,4.04145188432738));
#666=CARTESIAN_POINT('',(-7.,13.6666666666667,4.04145188432738));
#667=CARTESIAN_POINT('',(-7.,13.6666666666667,4.04145188432738));
#668=CARTESIAN_POINT('',(-7.,13.6666666666667,-4.04145188432738));
#669=CARTESIAN_POINT('',(-7.,13.6666666666667,-4.04145188432738));
#670=CARTESIAN_POINT('',(0.,13.6666666666667,8.08290376865476));
#671=CARTESIAN_POINT('',(0.,13.6666666666667,8.08290376865476));
#672=CARTESIAN_POINT('',(0.,13.6666666666667,8.08290376865476));
#673=CARTESIAN_POINT('',(0.,13.6666666666667,8.08290376865476));
#674=CARTESIAN_POINT('',(7.,13.6666666666667,4.04145188432738));
#675=CARTESIAN_POINT('',(7.,13.6666666666667,4.04145188432738));
#676=CARTESIAN_POINT('',(7.,13.6666666666667,4.04145188432738));
#677=CARTESIAN_POINT('',(7.,13.6666666666667,4.04145188432738));
#678=CARTESIAN_POINT('',(7.,13.6666666666667,-4.04145188432738));
#679=CARTESIAN_POINT('',(7.,13.6666666666667,-4.04145188432738));
#680=CARTESIAN_POINT('',(7.,13.6666666666667,-4.04145188432738));
#681=CARTESIAN_POINT('',(7.,13.6666666666667,-4.04145188432738));
#682=CARTESIAN_POINT('',(0.,13.6666666666667,-8.08290376865476));
#683=CARTESIAN_POINT('',(0.,13.6666666666667,-8.08290376865476));
#684=CARTESIAN_POINT('',(0.,13.6666666666667,-8.08290376865476));
#685=CARTESIAN_POINT('',(0.,13.6666666666667,-8.08290376865476));
#686=CARTESIAN_POINT('',(-7.,13.6666666666667,-4.04145188432738));
#687=CARTESIAN_POINT('',(-7.,13.6666666666667,-4.04145188432738));
#688=CARTESIAN_POINT('',(0.,13.6666666666667,0.));
#689=CARTESIAN_POINT('',(0.,13.6666666666667,0.));
#690=CARTESIAN_POINT('',(9.8,13.6666666666667,0.));
#691=CARTESIAN_POINT('',(0.,13.6666666666667,0.));
#692=MECHANICAL_DESIGN_GEOMETRIC_PRESENTATION_REPRESENTATION('',(#296,#297,
#298,#299,#300,#301,#302,#303,#304,#305,#306,#307,#308,#309,#310,#311,#312,
#313,#314,#315,#316,#317),#693);
#693=(
GEOMETRIC_REPRESENTATION_CONTEXT(3)
GLOBAL_UNCERTAINTY_ASSIGNED_CONTEXT((#694))
GLOBAL_UNIT_ASSIGNED_CONTEXT((#697,#696,#695))
REPRESENTATION_CONTEXT('189318 ESS-80-SN','TOP_LEVEL_ASSEMBLY_PART')
);
#694=UNCERTAINTY_MEASURE_WITH_UNIT(LENGTH_MEASURE(0.005),#697,
'DISTANCE_ACCURACY_VALUE','Maximum Tolerance applied to model');
#695=(
NAMED_UNIT(*)
SI_UNIT($,.STERADIAN.)
SOLID_ANGLE_UNIT()
);
#696=(
NAMED_UNIT(*)
PLANE_ANGLE_UNIT()
SI_UNIT($,.RADIAN.)
);
#697=(
LENGTH_UNIT()
NAMED_UNIT(*)
SI_UNIT(.MILLI.,.METRE.)
);
#698=PRODUCT_DEFINITION_SHAPE('','',#699);
#699=PRODUCT_DEFINITION('','',#701,#700);
#700=PRODUCT_DEFINITION_CONTEXT('',#707,'design');
#701=PRODUCT_DEFINITION_FORMATION_WITH_SPECIFIED_SOURCE('','',#703,
 .NOT_KNOWN.);
#702=PRODUCT_RELATED_PRODUCT_CATEGORY('','',(#703));
#703=PRODUCT('189318 ESS-80-SN','189318 ESS-80-SN','189318 ESS-80-SN',(#705));
#704=PRODUCT_CATEGORY('','');
#705=PRODUCT_CONTEXT('',#707,'mechanical');
#706=APPLICATION_PROTOCOL_DEFINITION('international standard',
'automotive_design',2010,#707);
#707=APPLICATION_CONTEXT(
'core data for automotive mechanical design processes');
ENDSEC;
END-ISO-10303-21;
