ISO-10303-21;
HEADER;
/* Generated by software containing ST-Developer
 * from STEP Tools, Inc. (www.steptools.com) 
 */
/* OPTION: using custom renumber hook */

FILE_DESCRIPTION(
/* description */ ('STEP AP214'),
/* implementation_level */ '2;1');

FILE_NAME(
/* name */ '189321_ESS-80-SF',
/* time_stamp */ '2024-08-28T10:20:52+02:00',
/* author */ ('License CC BY-ND 4.0'),
/* organization */ ('CADENAS'),
/* preprocessor_version */ 'ST-DEVELOPER v19.3',
/* originating_system */ 'PARTsolutions',
/* authorisation */ '  ');

FILE_SCHEMA (('AUTOMOTIVE_DESIGN {1 0 10303 214 3 1 1}'));
ENDSEC;

DATA;
#10=PROPERTY_DEFINITION_REPRESENTATION(#14,#12);
#11=PROPERTY_DEFINITION_REPRESENTATION(#15,#13);
#12=REPRESENTATION('',(#16),#693);
#13=REPRESENTATION('',(#17),#693);
#14=PROPERTY_DEFINITION('pmi validation property','',#698);
#15=PROPERTY_DEFINITION('pmi validation property','',#698);
#16=VALUE_REPRESENTATION_ITEM('number of annotations',COUNT_MEASURE(0.));
#17=VALUE_REPRESENTATION_ITEM('number of views',COUNT_MEASURE(0.));
#18=SHAPE_REPRESENTATION_RELATIONSHIP('','',#476,#19);
#19=ADVANCED_BREP_SHAPE_REPRESENTATION('',(#474),#693);
#20=TOROIDAL_SURFACE('',#491,33.477730901172,1.5);
#21=TOROIDAL_SURFACE('',#497,31.875,2.12500000000001);
#22=CONICAL_SURFACE('',#485,25.6818181818182,1.00963291450654);
#23=CONICAL_SURFACE('',#487,40.,0.785398163397448);
#24=CONICAL_SURFACE('',#489,41.,1.00963291450654);
#25=CONICAL_SURFACE('',#503,5.,0.785398163397446);
#26=CYLINDRICAL_SURFACE('',#480,3.);
#27=CYLINDRICAL_SURFACE('',#495,34.);
#28=CYLINDRICAL_SURFACE('',#501,5.);
#29=CYLINDRICAL_SURFACE('',#512,9.8);
#30=CIRCLE('',#479,3.);
#31=CIRCLE('',#481,3.);
#32=CIRCLE('',#483,25.6818181818182);
#33=CIRCLE('',#484,9.8);
#34=CIRCLE('',#486,40.);
#35=CIRCLE('',#488,41.);
#36=CIRCLE('',#490,32.6794735833444);
#37=CIRCLE('',#492,33.477730901172);
#38=CIRCLE('',#494,34.);
#39=CIRCLE('',#496,34.);
#40=CIRCLE('',#498,31.875);
#41=CIRCLE('',#500,5.);
#42=CIRCLE('',#502,5.);
#43=CIRCLE('',#504,4.08);
#44=CIRCLE('',#513,9.8);
#45=ORIENTED_EDGE('',*,*,#111,.T.);
#46=ORIENTED_EDGE('',*,*,#112,.T.);
#47=ORIENTED_EDGE('',*,*,#113,.T.);
#48=ORIENTED_EDGE('',*,*,#114,.T.);
#49=ORIENTED_EDGE('',*,*,#115,.T.);
#50=ORIENTED_EDGE('',*,*,#116,.T.);
#51=ORIENTED_EDGE('',*,*,#117,.F.);
#52=ORIENTED_EDGE('',*,*,#117,.T.);
#53=ORIENTED_EDGE('',*,*,#118,.F.);
#54=ORIENTED_EDGE('',*,*,#119,.T.);
#55=ORIENTED_EDGE('',*,*,#120,.F.);
#56=ORIENTED_EDGE('',*,*,#121,.T.);
#57=ORIENTED_EDGE('',*,*,#119,.F.);
#58=ORIENTED_EDGE('',*,*,#122,.T.);
#59=ORIENTED_EDGE('',*,*,#121,.F.);
#60=ORIENTED_EDGE('',*,*,#123,.T.);
#61=ORIENTED_EDGE('',*,*,#122,.F.);
#62=ORIENTED_EDGE('',*,*,#123,.F.);
#63=ORIENTED_EDGE('',*,*,#124,.T.);
#64=ORIENTED_EDGE('',*,*,#125,.T.);
#65=ORIENTED_EDGE('',*,*,#124,.F.);
#66=ORIENTED_EDGE('',*,*,#126,.T.);
#67=ORIENTED_EDGE('',*,*,#125,.F.);
#68=ORIENTED_EDGE('',*,*,#127,.T.);
#69=ORIENTED_EDGE('',*,*,#126,.F.);
#70=ORIENTED_EDGE('',*,*,#128,.T.);
#71=ORIENTED_EDGE('',*,*,#127,.F.);
#72=ORIENTED_EDGE('',*,*,#129,.T.);
#73=ORIENTED_EDGE('',*,*,#128,.F.);
#74=ORIENTED_EDGE('',*,*,#130,.T.);
#75=ORIENTED_EDGE('',*,*,#129,.F.);
#76=ORIENTED_EDGE('',*,*,#118,.T.);
#77=ORIENTED_EDGE('',*,*,#130,.F.);
#78=ORIENTED_EDGE('',*,*,#115,.F.);
#79=ORIENTED_EDGE('',*,*,#131,.F.);
#80=ORIENTED_EDGE('',*,*,#132,.T.);
#81=ORIENTED_EDGE('',*,*,#133,.T.);
#82=ORIENTED_EDGE('',*,*,#114,.F.);
#83=ORIENTED_EDGE('',*,*,#134,.F.);
#84=ORIENTED_EDGE('',*,*,#135,.T.);
#85=ORIENTED_EDGE('',*,*,#131,.T.);
#86=ORIENTED_EDGE('',*,*,#113,.F.);
#87=ORIENTED_EDGE('',*,*,#136,.F.);
#88=ORIENTED_EDGE('',*,*,#137,.T.);
#89=ORIENTED_EDGE('',*,*,#134,.T.);
#90=ORIENTED_EDGE('',*,*,#112,.F.);
#91=ORIENTED_EDGE('',*,*,#138,.F.);
#92=ORIENTED_EDGE('',*,*,#139,.T.);
#93=ORIENTED_EDGE('',*,*,#136,.T.);
#94=ORIENTED_EDGE('',*,*,#111,.F.);
#95=ORIENTED_EDGE('',*,*,#140,.F.);
#96=ORIENTED_EDGE('',*,*,#141,.T.);
#97=ORIENTED_EDGE('',*,*,#138,.T.);
#98=ORIENTED_EDGE('',*,*,#116,.F.);
#99=ORIENTED_EDGE('',*,*,#133,.F.);
#100=ORIENTED_EDGE('',*,*,#142,.T.);
#101=ORIENTED_EDGE('',*,*,#140,.T.);
#102=ORIENTED_EDGE('',*,*,#143,.F.);
#103=ORIENTED_EDGE('',*,*,#120,.T.);
#104=ORIENTED_EDGE('',*,*,#132,.F.);
#105=ORIENTED_EDGE('',*,*,#135,.F.);
#106=ORIENTED_EDGE('',*,*,#137,.F.);
#107=ORIENTED_EDGE('',*,*,#139,.F.);
#108=ORIENTED_EDGE('',*,*,#141,.F.);
#109=ORIENTED_EDGE('',*,*,#142,.F.);
#110=ORIENTED_EDGE('',*,*,#143,.T.);
#111=EDGE_CURVE('',#144,#145,#171,.T.);
#112=EDGE_CURVE('',#145,#146,#172,.T.);
#113=EDGE_CURVE('',#146,#147,#173,.T.);
#114=EDGE_CURVE('',#147,#148,#174,.T.);
#115=EDGE_CURVE('',#148,#149,#175,.T.);
#116=EDGE_CURVE('',#149,#144,#176,.T.);
#117=EDGE_CURVE('',#150,#150,#30,.T.);
#118=EDGE_CURVE('',#151,#151,#31,.T.);
#119=EDGE_CURVE('',#152,#152,#32,.T.);
#120=EDGE_CURVE('',#153,#153,#33,.T.);
#121=EDGE_CURVE('',#154,#154,#34,.T.);
#122=EDGE_CURVE('',#155,#155,#35,.T.);
#123=EDGE_CURVE('',#156,#156,#36,.T.);
#124=EDGE_CURVE('',#157,#157,#37,.T.);
#125=EDGE_CURVE('',#158,#158,#38,.T.);
#126=EDGE_CURVE('',#159,#159,#39,.T.);
#127=EDGE_CURVE('',#160,#160,#40,.T.);
#128=EDGE_CURVE('',#161,#161,#41,.T.);
#129=EDGE_CURVE('',#162,#162,#42,.T.);
#130=EDGE_CURVE('',#163,#163,#43,.T.);
#131=EDGE_CURVE('',#164,#148,#177,.T.);
#132=EDGE_CURVE('',#164,#165,#178,.T.);
#133=EDGE_CURVE('',#165,#149,#179,.T.);
#134=EDGE_CURVE('',#166,#147,#180,.T.);
#135=EDGE_CURVE('',#166,#164,#181,.T.);
#136=EDGE_CURVE('',#167,#146,#182,.T.);
#137=EDGE_CURVE('',#167,#166,#183,.T.);
#138=EDGE_CURVE('',#168,#145,#184,.T.);
#139=EDGE_CURVE('',#168,#167,#185,.T.);
#140=EDGE_CURVE('',#169,#144,#186,.T.);
#141=EDGE_CURVE('',#169,#168,#187,.T.);
#142=EDGE_CURVE('',#165,#169,#188,.T.);
#143=EDGE_CURVE('',#170,#170,#44,.T.);
#144=VERTEX_POINT('',#612);
#145=VERTEX_POINT('',#613);
#146=VERTEX_POINT('',#615);
#147=VERTEX_POINT('',#617);
#148=VERTEX_POINT('',#619);
#149=VERTEX_POINT('',#621);
#150=VERTEX_POINT('',#624);
#151=VERTEX_POINT('',#627);
#152=VERTEX_POINT('',#630);
#153=VERTEX_POINT('',#632);
#154=VERTEX_POINT('',#635);
#155=VERTEX_POINT('',#638);
#156=VERTEX_POINT('',#641);
#157=VERTEX_POINT('',#644);
#158=VERTEX_POINT('',#647);
#159=VERTEX_POINT('',#650);
#160=VERTEX_POINT('',#653);
#161=VERTEX_POINT('',#656);
#162=VERTEX_POINT('',#659);
#163=VERTEX_POINT('',#662);
#164=VERTEX_POINT('',#666);
#165=VERTEX_POINT('',#668);
#166=VERTEX_POINT('',#672);
#167=VERTEX_POINT('',#676);
#168=VERTEX_POINT('',#680);
#169=VERTEX_POINT('',#684);
#170=VERTEX_POINT('',#690);
#171=LINE('',#611,#189);
#172=LINE('',#614,#190);
#173=LINE('',#616,#191);
#174=LINE('',#618,#192);
#175=LINE('',#620,#193);
#176=LINE('',#622,#194);
#177=LINE('',#665,#195);
#178=LINE('',#667,#196);
#179=LINE('',#669,#197);
#180=LINE('',#671,#198);
#181=LINE('',#673,#199);
#182=LINE('',#675,#200);
#183=LINE('',#677,#201);
#184=LINE('',#679,#202);
#185=LINE('',#681,#203);
#186=LINE('',#683,#204);
#187=LINE('',#685,#205);
#188=LINE('',#687,#206);
#189=VECTOR('',#519,1000.);
#190=VECTOR('',#520,1000.);
#191=VECTOR('',#521,1000.);
#192=VECTOR('',#522,1000.);
#193=VECTOR('',#523,1000.);
#194=VECTOR('',#524,1000.);
#195=VECTOR('',#581,1000.);
#196=VECTOR('',#582,1000.);
#197=VECTOR('',#583,1000.);
#198=VECTOR('',#586,1000.);
#199=VECTOR('',#587,1000.);
#200=VECTOR('',#590,1000.);
#201=VECTOR('',#591,1000.);
#202=VECTOR('',#594,1000.);
#203=VECTOR('',#595,1000.);
#204=VECTOR('',#598,1000.);
#205=VECTOR('',#599,1000.);
#206=VECTOR('',#602,1000.);
#207=EDGE_LOOP('',(#45,#46,#47,#48,#49,#50));
#208=EDGE_LOOP('',(#51));
#209=EDGE_LOOP('',(#52));
#210=EDGE_LOOP('',(#53));
#211=EDGE_LOOP('',(#54));
#212=EDGE_LOOP('',(#55));
#213=EDGE_LOOP('',(#56));
#214=EDGE_LOOP('',(#57));
#215=EDGE_LOOP('',(#58));
#216=EDGE_LOOP('',(#59));
#217=EDGE_LOOP('',(#60));
#218=EDGE_LOOP('',(#61));
#219=EDGE_LOOP('',(#62));
#220=EDGE_LOOP('',(#63));
#221=EDGE_LOOP('',(#64));
#222=EDGE_LOOP('',(#65));
#223=EDGE_LOOP('',(#66));
#224=EDGE_LOOP('',(#67));
#225=EDGE_LOOP('',(#68));
#226=EDGE_LOOP('',(#69));
#227=EDGE_LOOP('',(#70));
#228=EDGE_LOOP('',(#71));
#229=EDGE_LOOP('',(#72));
#230=EDGE_LOOP('',(#73));
#231=EDGE_LOOP('',(#74));
#232=EDGE_LOOP('',(#75));
#233=EDGE_LOOP('',(#76));
#234=EDGE_LOOP('',(#77));
#235=EDGE_LOOP('',(#78,#79,#80,#81));
#236=EDGE_LOOP('',(#82,#83,#84,#85));
#237=EDGE_LOOP('',(#86,#87,#88,#89));
#238=EDGE_LOOP('',(#90,#91,#92,#93));
#239=EDGE_LOOP('',(#94,#95,#96,#97));
#240=EDGE_LOOP('',(#98,#99,#100,#101));
#241=EDGE_LOOP('',(#102));
#242=EDGE_LOOP('',(#103));
#243=EDGE_LOOP('',(#104,#105,#106,#107,#108,#109));
#244=EDGE_LOOP('',(#110));
#245=FACE_BOUND('',#207,.T.);
#246=FACE_BOUND('',#208,.T.);
#247=FACE_BOUND('',#209,.T.);
#248=FACE_BOUND('',#210,.T.);
#249=FACE_BOUND('',#211,.T.);
#250=FACE_BOUND('',#212,.T.);
#251=FACE_BOUND('',#213,.T.);
#252=FACE_BOUND('',#214,.T.);
#253=FACE_BOUND('',#215,.T.);
#254=FACE_BOUND('',#216,.T.);
#255=FACE_BOUND('',#217,.T.);
#256=FACE_BOUND('',#218,.T.);
#257=FACE_BOUND('',#219,.T.);
#258=FACE_BOUND('',#220,.T.);
#259=FACE_BOUND('',#221,.T.);
#260=FACE_BOUND('',#222,.T.);
#261=FACE_BOUND('',#223,.T.);
#262=FACE_BOUND('',#224,.T.);
#263=FACE_BOUND('',#225,.T.);
#264=FACE_BOUND('',#226,.T.);
#265=FACE_BOUND('',#227,.T.);
#266=FACE_BOUND('',#228,.T.);
#267=FACE_BOUND('',#229,.T.);
#268=FACE_BOUND('',#230,.T.);
#269=FACE_BOUND('',#231,.T.);
#270=FACE_BOUND('',#232,.T.);
#271=FACE_BOUND('',#233,.T.);
#272=FACE_BOUND('',#234,.T.);
#273=FACE_BOUND('',#235,.T.);
#274=FACE_BOUND('',#236,.T.);
#275=FACE_BOUND('',#237,.T.);
#276=FACE_BOUND('',#238,.T.);
#277=FACE_BOUND('',#239,.T.);
#278=FACE_BOUND('',#240,.T.);
#279=FACE_BOUND('',#241,.T.);
#280=FACE_BOUND('',#242,.T.);
#281=FACE_BOUND('',#243,.T.);
#282=FACE_BOUND('',#244,.T.);
#283=PLANE('',#478);
#284=PLANE('',#482);
#285=PLANE('',#493);
#286=PLANE('',#499);
#287=PLANE('',#505);
#288=PLANE('',#506);
#289=PLANE('',#507);
#290=PLANE('',#508);
#291=PLANE('',#509);
#292=PLANE('',#510);
#293=PLANE('',#511);
#294=PLANE('',#514);
#295=STYLED_ITEM('',(#317),#451);
#296=STYLED_ITEM('',(#318),#452);
#297=STYLED_ITEM('',(#319),#453);
#298=STYLED_ITEM('',(#320),#454);
#299=STYLED_ITEM('',(#321),#455);
#300=STYLED_ITEM('',(#322),#456);
#301=STYLED_ITEM('',(#323),#457);
#302=STYLED_ITEM('',(#324),#458);
#303=STYLED_ITEM('',(#325),#459);
#304=STYLED_ITEM('',(#326),#460);
#305=STYLED_ITEM('',(#327),#461);
#306=STYLED_ITEM('',(#328),#462);
#307=STYLED_ITEM('',(#329),#463);
#308=STYLED_ITEM('',(#330),#464);
#309=STYLED_ITEM('',(#331),#465);
#310=STYLED_ITEM('',(#332),#466);
#311=STYLED_ITEM('',(#333),#467);
#312=STYLED_ITEM('',(#334),#468);
#313=STYLED_ITEM('',(#335),#469);
#314=STYLED_ITEM('',(#336),#470);
#315=STYLED_ITEM('',(#337),#471);
#316=STYLED_ITEM('',(#338),#472);
#317=PRESENTATION_STYLE_ASSIGNMENT((#339));
#318=PRESENTATION_STYLE_ASSIGNMENT((#340));
#319=PRESENTATION_STYLE_ASSIGNMENT((#341));
#320=PRESENTATION_STYLE_ASSIGNMENT((#342));
#321=PRESENTATION_STYLE_ASSIGNMENT((#343));
#322=PRESENTATION_STYLE_ASSIGNMENT((#344));
#323=PRESENTATION_STYLE_ASSIGNMENT((#345));
#324=PRESENTATION_STYLE_ASSIGNMENT((#346));
#325=PRESENTATION_STYLE_ASSIGNMENT((#347));
#326=PRESENTATION_STYLE_ASSIGNMENT((#348));
#327=PRESENTATION_STYLE_ASSIGNMENT((#349));
#328=PRESENTATION_STYLE_ASSIGNMENT((#350));
#329=PRESENTATION_STYLE_ASSIGNMENT((#351));
#330=PRESENTATION_STYLE_ASSIGNMENT((#352));
#331=PRESENTATION_STYLE_ASSIGNMENT((#353));
#332=PRESENTATION_STYLE_ASSIGNMENT((#354));
#333=PRESENTATION_STYLE_ASSIGNMENT((#355));
#334=PRESENTATION_STYLE_ASSIGNMENT((#356));
#335=PRESENTATION_STYLE_ASSIGNMENT((#357));
#336=PRESENTATION_STYLE_ASSIGNMENT((#358));
#337=PRESENTATION_STYLE_ASSIGNMENT((#359));
#338=PRESENTATION_STYLE_ASSIGNMENT((#360));
#339=SURFACE_STYLE_USAGE(.BOTH.,#361);
#340=SURFACE_STYLE_USAGE(.BOTH.,#362);
#341=SURFACE_STYLE_USAGE(.BOTH.,#363);
#342=SURFACE_STYLE_USAGE(.BOTH.,#364);
#343=SURFACE_STYLE_USAGE(.BOTH.,#365);
#344=SURFACE_STYLE_USAGE(.BOTH.,#366);
#345=SURFACE_STYLE_USAGE(.BOTH.,#367);
#346=SURFACE_STYLE_USAGE(.BOTH.,#368);
#347=SURFACE_STYLE_USAGE(.BOTH.,#369);
#348=SURFACE_STYLE_USAGE(.BOTH.,#370);
#349=SURFACE_STYLE_USAGE(.BOTH.,#371);
#350=SURFACE_STYLE_USAGE(.BOTH.,#372);
#351=SURFACE_STYLE_USAGE(.BOTH.,#373);
#352=SURFACE_STYLE_USAGE(.BOTH.,#374);
#353=SURFACE_STYLE_USAGE(.BOTH.,#375);
#354=SURFACE_STYLE_USAGE(.BOTH.,#376);
#355=SURFACE_STYLE_USAGE(.BOTH.,#377);
#356=SURFACE_STYLE_USAGE(.BOTH.,#378);
#357=SURFACE_STYLE_USAGE(.BOTH.,#379);
#358=SURFACE_STYLE_USAGE(.BOTH.,#380);
#359=SURFACE_STYLE_USAGE(.BOTH.,#381);
#360=SURFACE_STYLE_USAGE(.BOTH.,#382);
#361=SURFACE_SIDE_STYLE('',(#383));
#362=SURFACE_SIDE_STYLE('',(#384));
#363=SURFACE_SIDE_STYLE('',(#385));
#364=SURFACE_SIDE_STYLE('',(#386));
#365=SURFACE_SIDE_STYLE('',(#387));
#366=SURFACE_SIDE_STYLE('',(#388));
#367=SURFACE_SIDE_STYLE('',(#389));
#368=SURFACE_SIDE_STYLE('',(#390));
#369=SURFACE_SIDE_STYLE('',(#391));
#370=SURFACE_SIDE_STYLE('',(#392));
#371=SURFACE_SIDE_STYLE('',(#393));
#372=SURFACE_SIDE_STYLE('',(#394));
#373=SURFACE_SIDE_STYLE('',(#395));
#374=SURFACE_SIDE_STYLE('',(#396));
#375=SURFACE_SIDE_STYLE('',(#397));
#376=SURFACE_SIDE_STYLE('',(#398));
#377=SURFACE_SIDE_STYLE('',(#399));
#378=SURFACE_SIDE_STYLE('',(#400));
#379=SURFACE_SIDE_STYLE('',(#401));
#380=SURFACE_SIDE_STYLE('',(#402));
#381=SURFACE_SIDE_STYLE('',(#403));
#382=SURFACE_SIDE_STYLE('',(#404));
#383=SURFACE_STYLE_FILL_AREA(#405);
#384=SURFACE_STYLE_FILL_AREA(#406);
#385=SURFACE_STYLE_FILL_AREA(#407);
#386=SURFACE_STYLE_FILL_AREA(#408);
#387=SURFACE_STYLE_FILL_AREA(#409);
#388=SURFACE_STYLE_FILL_AREA(#410);
#389=SURFACE_STYLE_FILL_AREA(#411);
#390=SURFACE_STYLE_FILL_AREA(#412);
#391=SURFACE_STYLE_FILL_AREA(#413);
#392=SURFACE_STYLE_FILL_AREA(#414);
#393=SURFACE_STYLE_FILL_AREA(#415);
#394=SURFACE_STYLE_FILL_AREA(#416);
#395=SURFACE_STYLE_FILL_AREA(#417);
#396=SURFACE_STYLE_FILL_AREA(#418);
#397=SURFACE_STYLE_FILL_AREA(#419);
#398=SURFACE_STYLE_FILL_AREA(#420);
#399=SURFACE_STYLE_FILL_AREA(#421);
#400=SURFACE_STYLE_FILL_AREA(#422);
#401=SURFACE_STYLE_FILL_AREA(#423);
#402=SURFACE_STYLE_FILL_AREA(#424);
#403=SURFACE_STYLE_FILL_AREA(#425);
#404=SURFACE_STYLE_FILL_AREA(#426);
#405=FILL_AREA_STYLE('',(#427));
#406=FILL_AREA_STYLE('',(#428));
#407=FILL_AREA_STYLE('',(#429));
#408=FILL_AREA_STYLE('',(#430));
#409=FILL_AREA_STYLE('',(#431));
#410=FILL_AREA_STYLE('',(#432));
#411=FILL_AREA_STYLE('',(#433));
#412=FILL_AREA_STYLE('',(#434));
#413=FILL_AREA_STYLE('',(#435));
#414=FILL_AREA_STYLE('',(#436));
#415=FILL_AREA_STYLE('',(#437));
#416=FILL_AREA_STYLE('',(#438));
#417=FILL_AREA_STYLE('',(#439));
#418=FILL_AREA_STYLE('',(#440));
#419=FILL_AREA_STYLE('',(#441));
#420=FILL_AREA_STYLE('',(#442));
#421=FILL_AREA_STYLE('',(#443));
#422=FILL_AREA_STYLE('',(#444));
#423=FILL_AREA_STYLE('',(#445));
#424=FILL_AREA_STYLE('',(#446));
#425=FILL_AREA_STYLE('',(#447));
#426=FILL_AREA_STYLE('',(#448));
#427=FILL_AREA_STYLE_COLOUR('',#449);
#428=FILL_AREA_STYLE_COLOUR('',#449);
#429=FILL_AREA_STYLE_COLOUR('',#449);
#430=FILL_AREA_STYLE_COLOUR('',#450);
#431=FILL_AREA_STYLE_COLOUR('',#450);
#432=FILL_AREA_STYLE_COLOUR('',#450);
#433=FILL_AREA_STYLE_COLOUR('',#450);
#434=FILL_AREA_STYLE_COLOUR('',#450);
#435=FILL_AREA_STYLE_COLOUR('',#449);
#436=FILL_AREA_STYLE_COLOUR('',#449);
#437=FILL_AREA_STYLE_COLOUR('',#449);
#438=FILL_AREA_STYLE_COLOUR('',#449);
#439=FILL_AREA_STYLE_COLOUR('',#449);
#440=FILL_AREA_STYLE_COLOUR('',#449);
#441=FILL_AREA_STYLE_COLOUR('',#449);
#442=FILL_AREA_STYLE_COLOUR('',#449);
#443=FILL_AREA_STYLE_COLOUR('',#449);
#444=FILL_AREA_STYLE_COLOUR('',#449);
#445=FILL_AREA_STYLE_COLOUR('',#449);
#446=FILL_AREA_STYLE_COLOUR('',#449);
#447=FILL_AREA_STYLE_COLOUR('',#449);
#448=FILL_AREA_STYLE_COLOUR('',#449);
#449=COLOUR_RGB('',0.75300002098083,0.75300002098083,0.75300002098083);
#450=COLOUR_RGB('',0.379999995231628,0.400000005960464,0.400000005960464);
#451=ADVANCED_FACE('',(#245,#246),#283,.T.);
#452=ADVANCED_FACE('',(#247,#248),#26,.F.);
#453=ADVANCED_FACE('',(#249,#250),#284,.T.);
#454=ADVANCED_FACE('',(#251,#252),#22,.F.);
#455=ADVANCED_FACE('',(#253,#254),#23,.T.);
#456=ADVANCED_FACE('',(#255,#256),#24,.T.);
#457=ADVANCED_FACE('',(#257,#258),#20,.F.);
#458=ADVANCED_FACE('',(#259,#260),#285,.T.);
#459=ADVANCED_FACE('',(#261,#262),#27,.T.);
#460=ADVANCED_FACE('',(#263,#264),#21,.T.);
#461=ADVANCED_FACE('',(#265,#266),#286,.T.);
#462=ADVANCED_FACE('',(#267,#268),#28,.T.);
#463=ADVANCED_FACE('',(#269,#270),#25,.T.);
#464=ADVANCED_FACE('',(#271,#272),#287,.T.);
#465=ADVANCED_FACE('',(#273),#288,.T.);
#466=ADVANCED_FACE('',(#274),#289,.T.);
#467=ADVANCED_FACE('',(#275),#290,.T.);
#468=ADVANCED_FACE('',(#276),#291,.T.);
#469=ADVANCED_FACE('',(#277),#292,.T.);
#470=ADVANCED_FACE('',(#278),#293,.T.);
#471=ADVANCED_FACE('',(#279,#280),#29,.F.);
#472=ADVANCED_FACE('',(#281,#282),#294,.T.);
#473=CLOSED_SHELL('',(#451,#452,#453,#454,#455,#456,#457,#458,#459,#460,
#461,#462,#463,#464,#465,#466,#467,#468,#469,#470,#471,#472));
#474=MANIFOLD_SOLID_BREP('189321 ESS-80-SF',#473);
#475=SHAPE_DEFINITION_REPRESENTATION(#698,#476);
#476=SHAPE_REPRESENTATION('189321 ESS-80-SF',(#477),#693);
#477=AXIS2_PLACEMENT_3D('',#609,#515,#516);
#478=AXIS2_PLACEMENT_3D('',#610,#517,#518);
#479=AXIS2_PLACEMENT_3D('',#623,#525,#526);
#480=AXIS2_PLACEMENT_3D('',#625,#527,#528);
#481=AXIS2_PLACEMENT_3D('',#626,#529,#530);
#482=AXIS2_PLACEMENT_3D('',#628,#531,#532);
#483=AXIS2_PLACEMENT_3D('',#629,#533,#534);
#484=AXIS2_PLACEMENT_3D('',#631,#535,#536);
#485=AXIS2_PLACEMENT_3D('',#633,#537,#538);
#486=AXIS2_PLACEMENT_3D('',#634,#539,#540);
#487=AXIS2_PLACEMENT_3D('',#636,#541,#542);
#488=AXIS2_PLACEMENT_3D('',#637,#543,#544);
#489=AXIS2_PLACEMENT_3D('',#639,#545,#546);
#490=AXIS2_PLACEMENT_3D('',#640,#547,#548);
#491=AXIS2_PLACEMENT_3D('',#642,#549,#550);
#492=AXIS2_PLACEMENT_3D('',#643,#551,#552);
#493=AXIS2_PLACEMENT_3D('',#645,#553,#554);
#494=AXIS2_PLACEMENT_3D('',#646,#555,#556);
#495=AXIS2_PLACEMENT_3D('',#648,#557,#558);
#496=AXIS2_PLACEMENT_3D('',#649,#559,#560);
#497=AXIS2_PLACEMENT_3D('',#651,#561,#562);
#498=AXIS2_PLACEMENT_3D('',#652,#563,#564);
#499=AXIS2_PLACEMENT_3D('',#654,#565,#566);
#500=AXIS2_PLACEMENT_3D('',#655,#567,#568);
#501=AXIS2_PLACEMENT_3D('',#657,#569,#570);
#502=AXIS2_PLACEMENT_3D('',#658,#571,#572);
#503=AXIS2_PLACEMENT_3D('',#660,#573,#574);
#504=AXIS2_PLACEMENT_3D('',#661,#575,#576);
#505=AXIS2_PLACEMENT_3D('',#663,#577,#578);
#506=AXIS2_PLACEMENT_3D('',#664,#579,#580);
#507=AXIS2_PLACEMENT_3D('',#670,#584,#585);
#508=AXIS2_PLACEMENT_3D('',#674,#588,#589);
#509=AXIS2_PLACEMENT_3D('',#678,#592,#593);
#510=AXIS2_PLACEMENT_3D('',#682,#596,#597);
#511=AXIS2_PLACEMENT_3D('',#686,#600,#601);
#512=AXIS2_PLACEMENT_3D('',#688,#603,#604);
#513=AXIS2_PLACEMENT_3D('',#689,#605,#606);
#514=AXIS2_PLACEMENT_3D('',#691,#607,#608);
#515=DIRECTION('',(0.,0.,1.));
#516=DIRECTION('',(1.,0.,0.));
#517=DIRECTION('',(0.,-1.,0.));
#518=DIRECTION('',(0.,0.,-1.));
#519=DIRECTION('',(0.866025403784439,0.,0.5));
#520=DIRECTION('',(0.,0.,1.));
#521=DIRECTION('',(-0.866025403784439,0.,0.5));
#522=DIRECTION('',(-0.866025403784439,0.,-0.5));
#523=DIRECTION('',(0.,0.,-1.));
#524=DIRECTION('',(0.866025403784439,0.,-0.5));
#525=DIRECTION('',(0.,-1.,0.));
#526=DIRECTION('',(0.,0.,-1.));
#527=DIRECTION('',(0.,-1.,0.));
#528=DIRECTION('',(0.,0.,-1.));
#529=DIRECTION('',(0.,-1.,0.));
#530=DIRECTION('',(0.,0.,-1.));
#531=DIRECTION('',(0.,-1.,0.));
#532=DIRECTION('',(0.,0.,-1.));
#533=DIRECTION('',(0.,-1.,0.));
#534=DIRECTION('',(0.,0.,-1.));
#535=DIRECTION('',(0.,-1.,0.));
#536=DIRECTION('',(1.,0.,0.));
#537=DIRECTION('',(0.,-1.,0.));
#538=DIRECTION('',(0.,0.,-1.));
#539=DIRECTION('',(0.,-1.,0.));
#540=DIRECTION('',(0.,0.,-1.));
#541=DIRECTION('',(0.,1.,0.));
#542=DIRECTION('',(0.,0.,1.));
#543=DIRECTION('',(0.,-1.,0.));
#544=DIRECTION('',(0.,0.,-1.));
#545=DIRECTION('',(0.,-1.,0.));
#546=DIRECTION('',(0.,0.,-1.));
#547=DIRECTION('',(0.,-1.,0.));
#548=DIRECTION('',(0.,0.,-1.));
#549=DIRECTION('',(0.,-1.,0.));
#550=DIRECTION('',(0.,0.,-1.));
#551=DIRECTION('',(0.,-1.,0.));
#552=DIRECTION('',(0.,0.,-1.));
#553=DIRECTION('',(0.,-1.,0.));
#554=DIRECTION('',(0.,0.,-1.));
#555=DIRECTION('',(0.,-1.,0.));
#556=DIRECTION('',(0.,0.,-1.));
#557=DIRECTION('',(0.,-1.,0.));
#558=DIRECTION('',(0.,0.,-1.));
#559=DIRECTION('',(0.,-1.,0.));
#560=DIRECTION('',(0.,0.,-1.));
#561=DIRECTION('',(0.,-1.,0.));
#562=DIRECTION('',(0.,0.,-1.));
#563=DIRECTION('',(0.,-1.,0.));
#564=DIRECTION('',(0.,0.,-1.));
#565=DIRECTION('',(0.,1.,0.));
#566=DIRECTION('',(0.,0.,1.));
#567=DIRECTION('',(0.,-1.,0.));
#568=DIRECTION('',(0.,0.,-1.));
#569=DIRECTION('',(0.,-1.,0.));
#570=DIRECTION('',(0.,0.,-1.));
#571=DIRECTION('',(0.,-1.,0.));
#572=DIRECTION('',(0.,0.,-1.));
#573=DIRECTION('',(0.,-1.,0.));
#574=DIRECTION('',(0.,0.,-1.));
#575=DIRECTION('',(0.,-1.,0.));
#576=DIRECTION('',(0.,0.,-1.));
#577=DIRECTION('',(0.,1.,0.));
#578=DIRECTION('',(0.,0.,1.));
#579=DIRECTION('',(-1.,0.,0.));
#580=DIRECTION('',(0.,0.,1.));
#581=DIRECTION('',(0.,-1.,0.));
#582=DIRECTION('',(0.,0.,-1.));
#583=DIRECTION('',(0.,-1.,0.));
#584=DIRECTION('',(-0.5,0.,0.866025403784439));
#585=DIRECTION('',(0.866025403784439,0.,0.5));
#586=DIRECTION('',(0.,-1.,0.));
#587=DIRECTION('',(-0.866025403784439,0.,-0.5));
#588=DIRECTION('',(0.5,0.,0.866025403784439));
#589=DIRECTION('',(0.866025403784439,0.,-0.5));
#590=DIRECTION('',(0.,-1.,0.));
#591=DIRECTION('',(-0.866025403784439,0.,0.5));
#592=DIRECTION('',(1.,0.,0.));
#593=DIRECTION('',(0.,0.,-1.));
#594=DIRECTION('',(0.,-1.,0.));
#595=DIRECTION('',(0.,0.,1.));
#596=DIRECTION('',(0.5,0.,-0.866025403784439));
#597=DIRECTION('',(-0.866025403784439,0.,-0.5));
#598=DIRECTION('',(0.,-1.,0.));
#599=DIRECTION('',(0.866025403784439,0.,0.5));
#600=DIRECTION('',(-0.5,0.,-0.866025403784439));
#601=DIRECTION('',(-0.866025403784439,0.,0.5));
#602=DIRECTION('',(0.866025403784439,0.,-0.5));
#603=DIRECTION('',(0.,-1.,0.));
#604=DIRECTION('',(0.,0.,-1.));
#605=DIRECTION('',(0.,-1.,0.));
#606=DIRECTION('',(1.,0.,0.));
#607=DIRECTION('',(0.,-1.,0.));
#608=DIRECTION('',(0.,0.,-1.));
#609=CARTESIAN_POINT('',(0.,0.,0.));
#610=CARTESIAN_POINT('',(3.,9.,0.));
#611=CARTESIAN_POINT('',(0.,9.,-8.08290376865476));
#612=CARTESIAN_POINT('',(-2.16840434497101E-16,9.,-8.08290376865476));
#613=CARTESIAN_POINT('',(7.,9.,-4.04145188432738));
#614=CARTESIAN_POINT('',(7.,9.,0.));
#615=CARTESIAN_POINT('',(7.,9.,4.04145188432738));
#616=CARTESIAN_POINT('',(7.,9.,4.04145188432738));
#617=CARTESIAN_POINT('',(0.,9.,8.08290376865476));
#618=CARTESIAN_POINT('',(0.,9.,8.08290376865476));
#619=CARTESIAN_POINT('',(-7.,9.,4.04145188432738));
#620=CARTESIAN_POINT('',(-7.,9.,4.04145188432738));
#621=CARTESIAN_POINT('',(-7.,9.,-4.04145188432738));
#622=CARTESIAN_POINT('',(-7.,9.,-4.04145188432738));
#623=CARTESIAN_POINT('',(0.,9.,0.));
#624=CARTESIAN_POINT('',(0.,9.,-3.));
#625=CARTESIAN_POINT('',(0.,0.,0.));
#626=CARTESIAN_POINT('',(0.,32.4,0.));
#627=CARTESIAN_POINT('',(0.,32.4,-3.));
#628=CARTESIAN_POINT('',(3.,9.,0.));
#629=CARTESIAN_POINT('',(0.,9.,0.));
#630=CARTESIAN_POINT('',(0.,9.,-25.6818181818182));
#631=CARTESIAN_POINT('',(0.,9.,0.));
#632=CARTESIAN_POINT('',(9.8,9.,0.));
#633=CARTESIAN_POINT('',(0.,9.,0.));
#634=CARTESIAN_POINT('',(0.,-1.73472347597681E-15,0.));
#635=CARTESIAN_POINT('',(0.,-1.73472347597681E-15,-40.));
#636=CARTESIAN_POINT('',(0.,-1.73472347597681E-15,0.));
#637=CARTESIAN_POINT('',(0.,0.999999999999999,0.));
#638=CARTESIAN_POINT('',(0.,0.999999999999999,-41.));
#639=CARTESIAN_POINT('',(0.,0.999999999999999,0.));
#640=CARTESIAN_POINT('',(0.,6.23004517618349,0.));
#641=CARTESIAN_POINT('',(0.,6.23004517618349,-32.6794735833444));
#642=CARTESIAN_POINT('',(0.,7.5,0.));
#643=CARTESIAN_POINT('',(0.,9.,0.));
#644=CARTESIAN_POINT('',(0.,9.,-33.477730901172));
#645=CARTESIAN_POINT('',(33.477730901172,9.,0.));
#646=CARTESIAN_POINT('',(0.,9.,0.));
#647=CARTESIAN_POINT('',(0.,9.,-34.));
#648=CARTESIAN_POINT('',(0.,0.,0.));
#649=CARTESIAN_POINT('',(0.,20.875,0.));
#650=CARTESIAN_POINT('',(0.,20.875,-34.));
#651=CARTESIAN_POINT('',(0.,20.875,0.));
#652=CARTESIAN_POINT('',(0.,23.,0.));
#653=CARTESIAN_POINT('',(0.,23.,-31.875));
#654=CARTESIAN_POINT('',(31.875,23.,0.));
#655=CARTESIAN_POINT('',(0.,23.,0.));
#656=CARTESIAN_POINT('',(0.,23.,-5.));
#657=CARTESIAN_POINT('',(0.,0.,0.));
#658=CARTESIAN_POINT('',(0.,31.48,0.));
#659=CARTESIAN_POINT('',(0.,31.48,-5.));
#660=CARTESIAN_POINT('',(0.,31.48,0.));
#661=CARTESIAN_POINT('',(0.,32.4,0.));
#662=CARTESIAN_POINT('',(0.,32.4,-4.08));
#663=CARTESIAN_POINT('',(4.08,32.4,0.));
#664=CARTESIAN_POINT('',(-7.,13.6666666666667,4.04145188432738));
#665=CARTESIAN_POINT('',(-7.,13.6666666666667,4.04145188432738));
#666=CARTESIAN_POINT('',(-7.,13.6666666666667,4.04145188432738));
#667=CARTESIAN_POINT('',(-7.,13.6666666666667,4.04145188432738));
#668=CARTESIAN_POINT('',(-7.,13.6666666666667,-4.04145188432738));
#669=CARTESIAN_POINT('',(-7.,13.6666666666667,-4.04145188432738));
#670=CARTESIAN_POINT('',(0.,13.6666666666667,8.08290376865476));
#671=CARTESIAN_POINT('',(0.,13.6666666666667,8.08290376865476));
#672=CARTESIAN_POINT('',(0.,13.6666666666667,8.08290376865476));
#673=CARTESIAN_POINT('',(0.,13.6666666666667,8.08290376865476));
#674=CARTESIAN_POINT('',(7.,13.6666666666667,4.04145188432738));
#675=CARTESIAN_POINT('',(7.,13.6666666666667,4.04145188432738));
#676=CARTESIAN_POINT('',(7.,13.6666666666667,4.04145188432738));
#677=CARTESIAN_POINT('',(7.,13.6666666666667,4.04145188432738));
#678=CARTESIAN_POINT('',(7.,13.6666666666667,-4.04145188432738));
#679=CARTESIAN_POINT('',(7.,13.6666666666667,-4.04145188432738));
#680=CARTESIAN_POINT('',(7.,13.6666666666667,-4.04145188432738));
#681=CARTESIAN_POINT('',(7.,13.6666666666667,-4.04145188432738));
#682=CARTESIAN_POINT('',(0.,13.6666666666667,-8.08290376865476));
#683=CARTESIAN_POINT('',(0.,13.6666666666667,-8.08290376865476));
#684=CARTESIAN_POINT('',(0.,13.6666666666667,-8.08290376865476));
#685=CARTESIAN_POINT('',(0.,13.6666666666667,-8.08290376865476));
#686=CARTESIAN_POINT('',(-7.,13.6666666666667,-4.04145188432738));
#687=CARTESIAN_POINT('',(-7.,13.6666666666667,-4.04145188432738));
#688=CARTESIAN_POINT('',(0.,13.6666666666667,0.));
#689=CARTESIAN_POINT('',(0.,13.6666666666667,0.));
#690=CARTESIAN_POINT('',(9.8,13.6666666666667,0.));
#691=CARTESIAN_POINT('',(0.,13.6666666666667,0.));
#692=MECHANICAL_DESIGN_GEOMETRIC_PRESENTATION_REPRESENTATION('',(#295,#296,
#297,#298,#299,#300,#301,#302,#303,#304,#305,#306,#307,#308,#309,#310,#311,
#312,#313,#314,#315,#316),#693);
#693=(
GEOMETRIC_REPRESENTATION_CONTEXT(3)
GLOBAL_UNCERTAINTY_ASSIGNED_CONTEXT((#694))
GLOBAL_UNIT_ASSIGNED_CONTEXT((#697,#696,#695))
REPRESENTATION_CONTEXT('189321 ESS-80-SF','TOP_LEVEL_ASSEMBLY_PART')
);
#694=UNCERTAINTY_MEASURE_WITH_UNIT(LENGTH_MEASURE(0.005),#697,
'DISTANCE_ACCURACY_VALUE','Maximum Tolerance applied to model');
#695=(
NAMED_UNIT(*)
SI_UNIT($,.STERADIAN.)
SOLID_ANGLE_UNIT()
);
#696=(
NAMED_UNIT(*)
PLANE_ANGLE_UNIT()
SI_UNIT($,.RADIAN.)
);
#697=(
LENGTH_UNIT()
NAMED_UNIT(*)
SI_UNIT(.MILLI.,.METRE.)
);
#698=PRODUCT_DEFINITION_SHAPE('','',#699);
#699=PRODUCT_DEFINITION('','',#701,#700);
#700=PRODUCT_DEFINITION_CONTEXT('',#707,'design');
#701=PRODUCT_DEFINITION_FORMATION_WITH_SPECIFIED_SOURCE('','',#703,
 .NOT_KNOWN.);
#702=PRODUCT_RELATED_PRODUCT_CATEGORY('','',(#703));
#703=PRODUCT('189321 ESS-80-SF','189321 ESS-80-SF','189321 ESS-80-SF',(#705));
#704=PRODUCT_CATEGORY('','');
#705=PRODUCT_CONTEXT('',#707,'mechanical');
#706=APPLICATION_PROTOCOL_DEFINITION('international standard',
'automotive_design',2010,#707);
#707=APPLICATION_CONTEXT(
'core data for automotive mechanical design processes');
ENDSEC;
END-ISO-10303-21;
