ISO-10303-21;
HEADER;
/* Generated by software containing ST-Developer
 * from STEP Tools, Inc. (www.steptools.com) 
 */
/* OPTION: using custom renumber hook */

FILE_DESCRIPTION(
/* description */ ('STEP AP214'),
/* implementation_level */ '2;1');

FILE_NAME(
/* name */ '189326_ESS-150-SN',
/* time_stamp */ '2024-08-28T08:23:38+02:00',
/* author */ ('License CC BY-ND 4.0'),
/* organization */ ('CADENAS'),
/* preprocessor_version */ 'ST-DEVELOPER v19.3',
/* originating_system */ 'PARTsolutions',
/* authorisation */ '  ');

FILE_SCHEMA (('AUTOMOTIVE_DESIGN {1 0 10303 214 3 1 1}'));
ENDSEC;

DATA;
#10=PROPERTY_DEFINITION_REPRESENTATION(#14,#12);
#11=PROPERTY_DEFINITION_REPRESENTATION(#15,#13);
#12=REPRESENTATION('',(#16),#747);
#13=REPRESENTATION('',(#17),#747);
#14=PROPERTY_DEFINITION('pmi validation property','',#752);
#15=PROPERTY_DEFINITION('pmi validation property','',#752);
#16=VALUE_REPRESENTATION_ITEM('number of annotations',COUNT_MEASURE(0.));
#17=VALUE_REPRESENTATION_ITEM('number of views',COUNT_MEASURE(0.));
#18=SHAPE_REPRESENTATION_RELATIONSHIP('','',#512,#19);
#19=ADVANCED_BREP_SHAPE_REPRESENTATION('',(#510),#747);
#20=TOROIDAL_SURFACE('',#529,77.5,20.);
#21=TOROIDAL_SURFACE('',#533,52.5,5.00000000000001);
#22=CONICAL_SURFACE('',#521,41.8440066012825,1.30899693899575);
#23=CONICAL_SURFACE('',#523,59.7591349861158,0.981020675459917);
#24=CONICAL_SURFACE('',#525,75.,0.785398163397448);
#25=CONICAL_SURFACE('',#527,76.4417115319177,0.981020675459917);
#26=CONICAL_SURFACE('',#537,52.5,0.785398163397448);
#27=CONICAL_SURFACE('',#543,10.,0.785398163397446);
#28=DRAUGHTING_PRE_DEFINED_COLOUR('black');
#29=CYLINDRICAL_SURFACE('',#516,5.);
#30=CYLINDRICAL_SURFACE('',#531,57.5);
#31=CYLINDRICAL_SURFACE('',#535,52.5);
#32=CYLINDRICAL_SURFACE('',#541,10.);
#33=CYLINDRICAL_SURFACE('',#552,21.6);
#34=CIRCLE('',#515,5.);
#35=CIRCLE('',#517,5.);
#36=CIRCLE('',#519,41.8440066012825);
#37=CIRCLE('',#520,21.6);
#38=CIRCLE('',#522,59.7591349861158);
#39=CIRCLE('',#524,75.);
#40=CIRCLE('',#526,76.4417115319177);
#41=CIRCLE('',#528,66.3765082303838);
#42=CIRCLE('',#530,57.5);
#43=CIRCLE('',#532,57.5);
#44=CIRCLE('',#534,52.5);
#45=CIRCLE('',#536,52.5);
#46=CIRCLE('',#538,51.25);
#47=CIRCLE('',#540,10.);
#48=CIRCLE('',#542,10.);
#49=CIRCLE('',#544,8.773);
#50=CIRCLE('',#553,21.6);
#51=ORIENTED_EDGE('',*,*,#121,.T.);
#52=ORIENTED_EDGE('',*,*,#122,.T.);
#53=ORIENTED_EDGE('',*,*,#123,.T.);
#54=ORIENTED_EDGE('',*,*,#124,.T.);
#55=ORIENTED_EDGE('',*,*,#125,.T.);
#56=ORIENTED_EDGE('',*,*,#126,.T.);
#57=ORIENTED_EDGE('',*,*,#127,.F.);
#58=ORIENTED_EDGE('',*,*,#127,.T.);
#59=ORIENTED_EDGE('',*,*,#128,.F.);
#60=ORIENTED_EDGE('',*,*,#129,.T.);
#61=ORIENTED_EDGE('',*,*,#130,.F.);
#62=ORIENTED_EDGE('',*,*,#131,.T.);
#63=ORIENTED_EDGE('',*,*,#129,.F.);
#64=ORIENTED_EDGE('',*,*,#132,.T.);
#65=ORIENTED_EDGE('',*,*,#131,.F.);
#66=ORIENTED_EDGE('',*,*,#133,.T.);
#67=ORIENTED_EDGE('',*,*,#132,.F.);
#68=ORIENTED_EDGE('',*,*,#134,.T.);
#69=ORIENTED_EDGE('',*,*,#133,.F.);
#70=ORIENTED_EDGE('',*,*,#134,.F.);
#71=ORIENTED_EDGE('',*,*,#135,.T.);
#72=ORIENTED_EDGE('',*,*,#136,.T.);
#73=ORIENTED_EDGE('',*,*,#135,.F.);
#74=ORIENTED_EDGE('',*,*,#137,.T.);
#75=ORIENTED_EDGE('',*,*,#136,.F.);
#76=ORIENTED_EDGE('',*,*,#138,.T.);
#77=ORIENTED_EDGE('',*,*,#137,.F.);
#78=ORIENTED_EDGE('',*,*,#139,.T.);
#79=ORIENTED_EDGE('',*,*,#138,.F.);
#80=ORIENTED_EDGE('',*,*,#140,.T.);
#81=ORIENTED_EDGE('',*,*,#139,.F.);
#82=ORIENTED_EDGE('',*,*,#141,.T.);
#83=ORIENTED_EDGE('',*,*,#140,.F.);
#84=ORIENTED_EDGE('',*,*,#142,.T.);
#85=ORIENTED_EDGE('',*,*,#141,.F.);
#86=ORIENTED_EDGE('',*,*,#128,.T.);
#87=ORIENTED_EDGE('',*,*,#142,.F.);
#88=ORIENTED_EDGE('',*,*,#125,.F.);
#89=ORIENTED_EDGE('',*,*,#143,.F.);
#90=ORIENTED_EDGE('',*,*,#144,.T.);
#91=ORIENTED_EDGE('',*,*,#145,.T.);
#92=ORIENTED_EDGE('',*,*,#124,.F.);
#93=ORIENTED_EDGE('',*,*,#146,.F.);
#94=ORIENTED_EDGE('',*,*,#147,.T.);
#95=ORIENTED_EDGE('',*,*,#143,.T.);
#96=ORIENTED_EDGE('',*,*,#123,.F.);
#97=ORIENTED_EDGE('',*,*,#148,.F.);
#98=ORIENTED_EDGE('',*,*,#149,.T.);
#99=ORIENTED_EDGE('',*,*,#146,.T.);
#100=ORIENTED_EDGE('',*,*,#122,.F.);
#101=ORIENTED_EDGE('',*,*,#150,.F.);
#102=ORIENTED_EDGE('',*,*,#151,.T.);
#103=ORIENTED_EDGE('',*,*,#148,.T.);
#104=ORIENTED_EDGE('',*,*,#121,.F.);
#105=ORIENTED_EDGE('',*,*,#152,.F.);
#106=ORIENTED_EDGE('',*,*,#153,.T.);
#107=ORIENTED_EDGE('',*,*,#150,.T.);
#108=ORIENTED_EDGE('',*,*,#126,.F.);
#109=ORIENTED_EDGE('',*,*,#145,.F.);
#110=ORIENTED_EDGE('',*,*,#154,.T.);
#111=ORIENTED_EDGE('',*,*,#152,.T.);
#112=ORIENTED_EDGE('',*,*,#155,.F.);
#113=ORIENTED_EDGE('',*,*,#130,.T.);
#114=ORIENTED_EDGE('',*,*,#144,.F.);
#115=ORIENTED_EDGE('',*,*,#147,.F.);
#116=ORIENTED_EDGE('',*,*,#149,.F.);
#117=ORIENTED_EDGE('',*,*,#151,.F.);
#118=ORIENTED_EDGE('',*,*,#153,.F.);
#119=ORIENTED_EDGE('',*,*,#154,.F.);
#120=ORIENTED_EDGE('',*,*,#155,.T.);
#121=EDGE_CURVE('',#156,#157,#185,.T.);
#122=EDGE_CURVE('',#157,#158,#186,.T.);
#123=EDGE_CURVE('',#158,#159,#187,.T.);
#124=EDGE_CURVE('',#159,#160,#188,.T.);
#125=EDGE_CURVE('',#160,#161,#189,.T.);
#126=EDGE_CURVE('',#161,#156,#190,.T.);
#127=EDGE_CURVE('',#162,#162,#34,.T.);
#128=EDGE_CURVE('',#163,#163,#35,.T.);
#129=EDGE_CURVE('',#164,#164,#36,.T.);
#130=EDGE_CURVE('',#165,#165,#37,.T.);
#131=EDGE_CURVE('',#166,#166,#38,.T.);
#132=EDGE_CURVE('',#167,#167,#39,.T.);
#133=EDGE_CURVE('',#168,#168,#40,.T.);
#134=EDGE_CURVE('',#169,#169,#41,.T.);
#135=EDGE_CURVE('',#170,#170,#42,.T.);
#136=EDGE_CURVE('',#171,#171,#43,.T.);
#137=EDGE_CURVE('',#172,#172,#44,.T.);
#138=EDGE_CURVE('',#173,#173,#45,.T.);
#139=EDGE_CURVE('',#174,#174,#46,.T.);
#140=EDGE_CURVE('',#175,#175,#47,.T.);
#141=EDGE_CURVE('',#176,#176,#48,.T.);
#142=EDGE_CURVE('',#177,#177,#49,.T.);
#143=EDGE_CURVE('',#178,#160,#191,.T.);
#144=EDGE_CURVE('',#178,#179,#192,.T.);
#145=EDGE_CURVE('',#179,#161,#193,.T.);
#146=EDGE_CURVE('',#180,#159,#194,.T.);
#147=EDGE_CURVE('',#180,#178,#195,.T.);
#148=EDGE_CURVE('',#181,#158,#196,.T.);
#149=EDGE_CURVE('',#181,#180,#197,.T.);
#150=EDGE_CURVE('',#182,#157,#198,.T.);
#151=EDGE_CURVE('',#182,#181,#199,.T.);
#152=EDGE_CURVE('',#183,#156,#200,.T.);
#153=EDGE_CURVE('',#183,#182,#201,.T.);
#154=EDGE_CURVE('',#179,#183,#202,.T.);
#155=EDGE_CURVE('',#184,#184,#50,.T.);
#156=VERTEX_POINT('',#660);
#157=VERTEX_POINT('',#661);
#158=VERTEX_POINT('',#663);
#159=VERTEX_POINT('',#665);
#160=VERTEX_POINT('',#667);
#161=VERTEX_POINT('',#669);
#162=VERTEX_POINT('',#672);
#163=VERTEX_POINT('',#675);
#164=VERTEX_POINT('',#678);
#165=VERTEX_POINT('',#680);
#166=VERTEX_POINT('',#683);
#167=VERTEX_POINT('',#686);
#168=VERTEX_POINT('',#689);
#169=VERTEX_POINT('',#692);
#170=VERTEX_POINT('',#695);
#171=VERTEX_POINT('',#698);
#172=VERTEX_POINT('',#701);
#173=VERTEX_POINT('',#704);
#174=VERTEX_POINT('',#707);
#175=VERTEX_POINT('',#710);
#176=VERTEX_POINT('',#713);
#177=VERTEX_POINT('',#716);
#178=VERTEX_POINT('',#720);
#179=VERTEX_POINT('',#722);
#180=VERTEX_POINT('',#726);
#181=VERTEX_POINT('',#730);
#182=VERTEX_POINT('',#734);
#183=VERTEX_POINT('',#738);
#184=VERTEX_POINT('',#744);
#185=LINE('',#659,#203);
#186=LINE('',#662,#204);
#187=LINE('',#664,#205);
#188=LINE('',#666,#206);
#189=LINE('',#668,#207);
#190=LINE('',#670,#208);
#191=LINE('',#719,#209);
#192=LINE('',#721,#210);
#193=LINE('',#723,#211);
#194=LINE('',#725,#212);
#195=LINE('',#727,#213);
#196=LINE('',#729,#214);
#197=LINE('',#731,#215);
#198=LINE('',#733,#216);
#199=LINE('',#735,#217);
#200=LINE('',#737,#218);
#201=LINE('',#739,#219);
#202=LINE('',#741,#220);
#203=VECTOR('',#559,1000.);
#204=VECTOR('',#560,1000.);
#205=VECTOR('',#561,1000.);
#206=VECTOR('',#562,1000.);
#207=VECTOR('',#563,1000.);
#208=VECTOR('',#564,1000.);
#209=VECTOR('',#629,1000.);
#210=VECTOR('',#630,1000.);
#211=VECTOR('',#631,1000.);
#212=VECTOR('',#634,1000.);
#213=VECTOR('',#635,1000.);
#214=VECTOR('',#638,1000.);
#215=VECTOR('',#639,1000.);
#216=VECTOR('',#642,1000.);
#217=VECTOR('',#643,1000.);
#218=VECTOR('',#646,1000.);
#219=VECTOR('',#647,1000.);
#220=VECTOR('',#650,1000.);
#221=EDGE_LOOP('',(#51,#52,#53,#54,#55,#56));
#222=EDGE_LOOP('',(#57));
#223=EDGE_LOOP('',(#58));
#224=EDGE_LOOP('',(#59));
#225=EDGE_LOOP('',(#60));
#226=EDGE_LOOP('',(#61));
#227=EDGE_LOOP('',(#62));
#228=EDGE_LOOP('',(#63));
#229=EDGE_LOOP('',(#64));
#230=EDGE_LOOP('',(#65));
#231=EDGE_LOOP('',(#66));
#232=EDGE_LOOP('',(#67));
#233=EDGE_LOOP('',(#68));
#234=EDGE_LOOP('',(#69));
#235=EDGE_LOOP('',(#70));
#236=EDGE_LOOP('',(#71));
#237=EDGE_LOOP('',(#72));
#238=EDGE_LOOP('',(#73));
#239=EDGE_LOOP('',(#74));
#240=EDGE_LOOP('',(#75));
#241=EDGE_LOOP('',(#76));
#242=EDGE_LOOP('',(#77));
#243=EDGE_LOOP('',(#78));
#244=EDGE_LOOP('',(#79));
#245=EDGE_LOOP('',(#80));
#246=EDGE_LOOP('',(#81));
#247=EDGE_LOOP('',(#82));
#248=EDGE_LOOP('',(#83));
#249=EDGE_LOOP('',(#84));
#250=EDGE_LOOP('',(#85));
#251=EDGE_LOOP('',(#86));
#252=EDGE_LOOP('',(#87));
#253=EDGE_LOOP('',(#88,#89,#90,#91));
#254=EDGE_LOOP('',(#92,#93,#94,#95));
#255=EDGE_LOOP('',(#96,#97,#98,#99));
#256=EDGE_LOOP('',(#100,#101,#102,#103));
#257=EDGE_LOOP('',(#104,#105,#106,#107));
#258=EDGE_LOOP('',(#108,#109,#110,#111));
#259=EDGE_LOOP('',(#112));
#260=EDGE_LOOP('',(#113));
#261=EDGE_LOOP('',(#114,#115,#116,#117,#118,#119));
#262=EDGE_LOOP('',(#120));
#263=FACE_BOUND('',#221,.T.);
#264=FACE_BOUND('',#222,.T.);
#265=FACE_BOUND('',#223,.T.);
#266=FACE_BOUND('',#224,.T.);
#267=FACE_BOUND('',#225,.T.);
#268=FACE_BOUND('',#226,.T.);
#269=FACE_BOUND('',#227,.T.);
#270=FACE_BOUND('',#228,.T.);
#271=FACE_BOUND('',#229,.T.);
#272=FACE_BOUND('',#230,.T.);
#273=FACE_BOUND('',#231,.T.);
#274=FACE_BOUND('',#232,.T.);
#275=FACE_BOUND('',#233,.T.);
#276=FACE_BOUND('',#234,.T.);
#277=FACE_BOUND('',#235,.T.);
#278=FACE_BOUND('',#236,.T.);
#279=FACE_BOUND('',#237,.T.);
#280=FACE_BOUND('',#238,.T.);
#281=FACE_BOUND('',#239,.T.);
#282=FACE_BOUND('',#240,.T.);
#283=FACE_BOUND('',#241,.T.);
#284=FACE_BOUND('',#242,.T.);
#285=FACE_BOUND('',#243,.T.);
#286=FACE_BOUND('',#244,.T.);
#287=FACE_BOUND('',#245,.T.);
#288=FACE_BOUND('',#246,.T.);
#289=FACE_BOUND('',#247,.T.);
#290=FACE_BOUND('',#248,.T.);
#291=FACE_BOUND('',#249,.T.);
#292=FACE_BOUND('',#250,.T.);
#293=FACE_BOUND('',#251,.T.);
#294=FACE_BOUND('',#252,.T.);
#295=FACE_BOUND('',#253,.T.);
#296=FACE_BOUND('',#254,.T.);
#297=FACE_BOUND('',#255,.T.);
#298=FACE_BOUND('',#256,.T.);
#299=FACE_BOUND('',#257,.T.);
#300=FACE_BOUND('',#258,.T.);
#301=FACE_BOUND('',#259,.T.);
#302=FACE_BOUND('',#260,.T.);
#303=FACE_BOUND('',#261,.T.);
#304=FACE_BOUND('',#262,.T.);
#305=PLANE('',#514);
#306=PLANE('',#518);
#307=PLANE('',#539);
#308=PLANE('',#545);
#309=PLANE('',#546);
#310=PLANE('',#547);
#311=PLANE('',#548);
#312=PLANE('',#549);
#313=PLANE('',#550);
#314=PLANE('',#551);
#315=PLANE('',#554);
#316=STYLED_ITEM('',(#340),#485);
#317=STYLED_ITEM('',(#341),#486);
#318=STYLED_ITEM('',(#342),#487);
#319=STYLED_ITEM('',(#343),#488);
#320=STYLED_ITEM('',(#344),#489);
#321=STYLED_ITEM('',(#345),#490);
#322=STYLED_ITEM('',(#346),#491);
#323=STYLED_ITEM('',(#347),#492);
#324=STYLED_ITEM('',(#348),#493);
#325=STYLED_ITEM('',(#349),#494);
#326=STYLED_ITEM('',(#350),#495);
#327=STYLED_ITEM('',(#351),#496);
#328=STYLED_ITEM('',(#352),#497);
#329=STYLED_ITEM('',(#353),#498);
#330=STYLED_ITEM('',(#354),#499);
#331=STYLED_ITEM('',(#355),#500);
#332=STYLED_ITEM('',(#356),#501);
#333=STYLED_ITEM('',(#357),#502);
#334=STYLED_ITEM('',(#358),#503);
#335=STYLED_ITEM('',(#359),#504);
#336=STYLED_ITEM('',(#360),#505);
#337=STYLED_ITEM('',(#361),#506);
#338=STYLED_ITEM('',(#362),#507);
#339=STYLED_ITEM('',(#363),#508);
#340=PRESENTATION_STYLE_ASSIGNMENT((#364));
#341=PRESENTATION_STYLE_ASSIGNMENT((#365));
#342=PRESENTATION_STYLE_ASSIGNMENT((#366));
#343=PRESENTATION_STYLE_ASSIGNMENT((#367));
#344=PRESENTATION_STYLE_ASSIGNMENT((#368));
#345=PRESENTATION_STYLE_ASSIGNMENT((#369));
#346=PRESENTATION_STYLE_ASSIGNMENT((#370));
#347=PRESENTATION_STYLE_ASSIGNMENT((#371));
#348=PRESENTATION_STYLE_ASSIGNMENT((#372));
#349=PRESENTATION_STYLE_ASSIGNMENT((#373));
#350=PRESENTATION_STYLE_ASSIGNMENT((#374));
#351=PRESENTATION_STYLE_ASSIGNMENT((#375));
#352=PRESENTATION_STYLE_ASSIGNMENT((#376));
#353=PRESENTATION_STYLE_ASSIGNMENT((#377));
#354=PRESENTATION_STYLE_ASSIGNMENT((#378));
#355=PRESENTATION_STYLE_ASSIGNMENT((#379));
#356=PRESENTATION_STYLE_ASSIGNMENT((#380));
#357=PRESENTATION_STYLE_ASSIGNMENT((#381));
#358=PRESENTATION_STYLE_ASSIGNMENT((#382));
#359=PRESENTATION_STYLE_ASSIGNMENT((#383));
#360=PRESENTATION_STYLE_ASSIGNMENT((#384));
#361=PRESENTATION_STYLE_ASSIGNMENT((#385));
#362=PRESENTATION_STYLE_ASSIGNMENT((#386));
#363=PRESENTATION_STYLE_ASSIGNMENT((#387));
#364=SURFACE_STYLE_USAGE(.BOTH.,#388);
#365=SURFACE_STYLE_USAGE(.BOTH.,#389);
#366=SURFACE_STYLE_USAGE(.BOTH.,#390);
#367=SURFACE_STYLE_USAGE(.BOTH.,#391);
#368=SURFACE_STYLE_USAGE(.BOTH.,#392);
#369=SURFACE_STYLE_USAGE(.BOTH.,#393);
#370=SURFACE_STYLE_USAGE(.BOTH.,#394);
#371=SURFACE_STYLE_USAGE(.BOTH.,#395);
#372=SURFACE_STYLE_USAGE(.BOTH.,#396);
#373=SURFACE_STYLE_USAGE(.BOTH.,#397);
#374=SURFACE_STYLE_USAGE(.BOTH.,#398);
#375=SURFACE_STYLE_USAGE(.BOTH.,#399);
#376=SURFACE_STYLE_USAGE(.BOTH.,#400);
#377=SURFACE_STYLE_USAGE(.BOTH.,#401);
#378=SURFACE_STYLE_USAGE(.BOTH.,#402);
#379=SURFACE_STYLE_USAGE(.BOTH.,#403);
#380=SURFACE_STYLE_USAGE(.BOTH.,#404);
#381=SURFACE_STYLE_USAGE(.BOTH.,#405);
#382=SURFACE_STYLE_USAGE(.BOTH.,#406);
#383=SURFACE_STYLE_USAGE(.BOTH.,#407);
#384=SURFACE_STYLE_USAGE(.BOTH.,#408);
#385=SURFACE_STYLE_USAGE(.BOTH.,#409);
#386=SURFACE_STYLE_USAGE(.BOTH.,#410);
#387=SURFACE_STYLE_USAGE(.BOTH.,#411);
#388=SURFACE_SIDE_STYLE('',(#412));
#389=SURFACE_SIDE_STYLE('',(#413));
#390=SURFACE_SIDE_STYLE('',(#414));
#391=SURFACE_SIDE_STYLE('',(#415));
#392=SURFACE_SIDE_STYLE('',(#416));
#393=SURFACE_SIDE_STYLE('',(#417));
#394=SURFACE_SIDE_STYLE('',(#418));
#395=SURFACE_SIDE_STYLE('',(#419));
#396=SURFACE_SIDE_STYLE('',(#420));
#397=SURFACE_SIDE_STYLE('',(#421));
#398=SURFACE_SIDE_STYLE('',(#422));
#399=SURFACE_SIDE_STYLE('',(#423));
#400=SURFACE_SIDE_STYLE('',(#424));
#401=SURFACE_SIDE_STYLE('',(#425));
#402=SURFACE_SIDE_STYLE('',(#426));
#403=SURFACE_SIDE_STYLE('',(#427));
#404=SURFACE_SIDE_STYLE('',(#428));
#405=SURFACE_SIDE_STYLE('',(#429));
#406=SURFACE_SIDE_STYLE('',(#430));
#407=SURFACE_SIDE_STYLE('',(#431));
#408=SURFACE_SIDE_STYLE('',(#432));
#409=SURFACE_SIDE_STYLE('',(#433));
#410=SURFACE_SIDE_STYLE('',(#434));
#411=SURFACE_SIDE_STYLE('',(#435));
#412=SURFACE_STYLE_FILL_AREA(#436);
#413=SURFACE_STYLE_FILL_AREA(#437);
#414=SURFACE_STYLE_FILL_AREA(#438);
#415=SURFACE_STYLE_FILL_AREA(#439);
#416=SURFACE_STYLE_FILL_AREA(#440);
#417=SURFACE_STYLE_FILL_AREA(#441);
#418=SURFACE_STYLE_FILL_AREA(#442);
#419=SURFACE_STYLE_FILL_AREA(#443);
#420=SURFACE_STYLE_FILL_AREA(#444);
#421=SURFACE_STYLE_FILL_AREA(#445);
#422=SURFACE_STYLE_FILL_AREA(#446);
#423=SURFACE_STYLE_FILL_AREA(#447);
#424=SURFACE_STYLE_FILL_AREA(#448);
#425=SURFACE_STYLE_FILL_AREA(#449);
#426=SURFACE_STYLE_FILL_AREA(#450);
#427=SURFACE_STYLE_FILL_AREA(#451);
#428=SURFACE_STYLE_FILL_AREA(#452);
#429=SURFACE_STYLE_FILL_AREA(#453);
#430=SURFACE_STYLE_FILL_AREA(#454);
#431=SURFACE_STYLE_FILL_AREA(#455);
#432=SURFACE_STYLE_FILL_AREA(#456);
#433=SURFACE_STYLE_FILL_AREA(#457);
#434=SURFACE_STYLE_FILL_AREA(#458);
#435=SURFACE_STYLE_FILL_AREA(#459);
#436=FILL_AREA_STYLE('',(#460));
#437=FILL_AREA_STYLE('',(#461));
#438=FILL_AREA_STYLE('',(#462));
#439=FILL_AREA_STYLE('',(#463));
#440=FILL_AREA_STYLE('',(#464));
#441=FILL_AREA_STYLE('',(#465));
#442=FILL_AREA_STYLE('',(#466));
#443=FILL_AREA_STYLE('',(#467));
#444=FILL_AREA_STYLE('',(#468));
#445=FILL_AREA_STYLE('',(#469));
#446=FILL_AREA_STYLE('',(#470));
#447=FILL_AREA_STYLE('',(#471));
#448=FILL_AREA_STYLE('',(#472));
#449=FILL_AREA_STYLE('',(#473));
#450=FILL_AREA_STYLE('',(#474));
#451=FILL_AREA_STYLE('',(#475));
#452=FILL_AREA_STYLE('',(#476));
#453=FILL_AREA_STYLE('',(#477));
#454=FILL_AREA_STYLE('',(#478));
#455=FILL_AREA_STYLE('',(#479));
#456=FILL_AREA_STYLE('',(#480));
#457=FILL_AREA_STYLE('',(#481));
#458=FILL_AREA_STYLE('',(#482));
#459=FILL_AREA_STYLE('',(#483));
#460=FILL_AREA_STYLE_COLOUR('',#484);
#461=FILL_AREA_STYLE_COLOUR('',#484);
#462=FILL_AREA_STYLE_COLOUR('',#484);
#463=FILL_AREA_STYLE_COLOUR('',#28);
#464=FILL_AREA_STYLE_COLOUR('',#28);
#465=FILL_AREA_STYLE_COLOUR('',#28);
#466=FILL_AREA_STYLE_COLOUR('',#28);
#467=FILL_AREA_STYLE_COLOUR('',#28);
#468=FILL_AREA_STYLE_COLOUR('',#28);
#469=FILL_AREA_STYLE_COLOUR('',#28);
#470=FILL_AREA_STYLE_COLOUR('',#484);
#471=FILL_AREA_STYLE_COLOUR('',#484);
#472=FILL_AREA_STYLE_COLOUR('',#484);
#473=FILL_AREA_STYLE_COLOUR('',#484);
#474=FILL_AREA_STYLE_COLOUR('',#484);
#475=FILL_AREA_STYLE_COLOUR('',#484);
#476=FILL_AREA_STYLE_COLOUR('',#484);
#477=FILL_AREA_STYLE_COLOUR('',#484);
#478=FILL_AREA_STYLE_COLOUR('',#484);
#479=FILL_AREA_STYLE_COLOUR('',#484);
#480=FILL_AREA_STYLE_COLOUR('',#484);
#481=FILL_AREA_STYLE_COLOUR('',#484);
#482=FILL_AREA_STYLE_COLOUR('',#484);
#483=FILL_AREA_STYLE_COLOUR('',#484);
#484=COLOUR_RGB('',0.75300002098083,0.75300002098083,0.75300002098083);
#485=ADVANCED_FACE('',(#263,#264),#305,.T.);
#486=ADVANCED_FACE('',(#265,#266),#29,.F.);
#487=ADVANCED_FACE('',(#267,#268),#306,.T.);
#488=ADVANCED_FACE('',(#269,#270),#22,.F.);
#489=ADVANCED_FACE('',(#271,#272),#23,.F.);
#490=ADVANCED_FACE('',(#273,#274),#24,.T.);
#491=ADVANCED_FACE('',(#275,#276),#25,.T.);
#492=ADVANCED_FACE('',(#277,#278),#20,.F.);
#493=ADVANCED_FACE('',(#279,#280),#30,.T.);
#494=ADVANCED_FACE('',(#281,#282),#21,.T.);
#495=ADVANCED_FACE('',(#283,#284),#31,.T.);
#496=ADVANCED_FACE('',(#285,#286),#26,.T.);
#497=ADVANCED_FACE('',(#287,#288),#307,.T.);
#498=ADVANCED_FACE('',(#289,#290),#32,.T.);
#499=ADVANCED_FACE('',(#291,#292),#27,.T.);
#500=ADVANCED_FACE('',(#293,#294),#308,.T.);
#501=ADVANCED_FACE('',(#295),#309,.T.);
#502=ADVANCED_FACE('',(#296),#310,.T.);
#503=ADVANCED_FACE('',(#297),#311,.T.);
#504=ADVANCED_FACE('',(#298),#312,.T.);
#505=ADVANCED_FACE('',(#299),#313,.T.);
#506=ADVANCED_FACE('',(#300),#314,.T.);
#507=ADVANCED_FACE('',(#301,#302),#33,.F.);
#508=ADVANCED_FACE('',(#303,#304),#315,.T.);
#509=CLOSED_SHELL('',(#485,#486,#487,#488,#489,#490,#491,#492,#493,#494,
#495,#496,#497,#498,#499,#500,#501,#502,#503,#504,#505,#506,#507,#508));
#510=MANIFOLD_SOLID_BREP('189326 ESS-150-SN',#509);
#511=SHAPE_DEFINITION_REPRESENTATION(#752,#512);
#512=SHAPE_REPRESENTATION('189326 ESS-150-SN',(#513),#747);
#513=AXIS2_PLACEMENT_3D('',#657,#555,#556);
#514=AXIS2_PLACEMENT_3D('',#658,#557,#558);
#515=AXIS2_PLACEMENT_3D('',#671,#565,#566);
#516=AXIS2_PLACEMENT_3D('',#673,#567,#568);
#517=AXIS2_PLACEMENT_3D('',#674,#569,#570);
#518=AXIS2_PLACEMENT_3D('',#676,#571,#572);
#519=AXIS2_PLACEMENT_3D('',#677,#573,#574);
#520=AXIS2_PLACEMENT_3D('',#679,#575,#576);
#521=AXIS2_PLACEMENT_3D('',#681,#577,#578);
#522=AXIS2_PLACEMENT_3D('',#682,#579,#580);
#523=AXIS2_PLACEMENT_3D('',#684,#581,#582);
#524=AXIS2_PLACEMENT_3D('',#685,#583,#584);
#525=AXIS2_PLACEMENT_3D('',#687,#585,#586);
#526=AXIS2_PLACEMENT_3D('',#688,#587,#588);
#527=AXIS2_PLACEMENT_3D('',#690,#589,#590);
#528=AXIS2_PLACEMENT_3D('',#691,#591,#592);
#529=AXIS2_PLACEMENT_3D('',#693,#593,#594);
#530=AXIS2_PLACEMENT_3D('',#694,#595,#596);
#531=AXIS2_PLACEMENT_3D('',#696,#597,#598);
#532=AXIS2_PLACEMENT_3D('',#697,#599,#600);
#533=AXIS2_PLACEMENT_3D('',#699,#601,#602);
#534=AXIS2_PLACEMENT_3D('',#700,#603,#604);
#535=AXIS2_PLACEMENT_3D('',#702,#605,#606);
#536=AXIS2_PLACEMENT_3D('',#703,#607,#608);
#537=AXIS2_PLACEMENT_3D('',#705,#609,#610);
#538=AXIS2_PLACEMENT_3D('',#706,#611,#612);
#539=AXIS2_PLACEMENT_3D('',#708,#613,#614);
#540=AXIS2_PLACEMENT_3D('',#709,#615,#616);
#541=AXIS2_PLACEMENT_3D('',#711,#617,#618);
#542=AXIS2_PLACEMENT_3D('',#712,#619,#620);
#543=AXIS2_PLACEMENT_3D('',#714,#621,#622);
#544=AXIS2_PLACEMENT_3D('',#715,#623,#624);
#545=AXIS2_PLACEMENT_3D('',#717,#625,#626);
#546=AXIS2_PLACEMENT_3D('',#718,#627,#628);
#547=AXIS2_PLACEMENT_3D('',#724,#632,#633);
#548=AXIS2_PLACEMENT_3D('',#728,#636,#637);
#549=AXIS2_PLACEMENT_3D('',#732,#640,#641);
#550=AXIS2_PLACEMENT_3D('',#736,#644,#645);
#551=AXIS2_PLACEMENT_3D('',#740,#648,#649);
#552=AXIS2_PLACEMENT_3D('',#742,#651,#652);
#553=AXIS2_PLACEMENT_3D('',#743,#653,#654);
#554=AXIS2_PLACEMENT_3D('',#745,#655,#656);
#555=DIRECTION('',(0.,0.,1.));
#556=DIRECTION('',(1.,0.,0.));
#557=DIRECTION('',(0.,-1.,0.));
#558=DIRECTION('',(0.,0.,-1.));
#559=DIRECTION('',(0.866025403784439,0.,0.5));
#560=DIRECTION('',(0.,0.,1.));
#561=DIRECTION('',(-0.866025403784439,0.,0.5));
#562=DIRECTION('',(-0.866025403784439,0.,-0.5));
#563=DIRECTION('',(0.,0.,-1.));
#564=DIRECTION('',(0.866025403784439,0.,-0.5));
#565=DIRECTION('',(0.,-1.,0.));
#566=DIRECTION('',(0.,0.,-1.));
#567=DIRECTION('',(0.,-1.,0.));
#568=DIRECTION('',(0.,0.,-1.));
#569=DIRECTION('',(0.,-1.,0.));
#570=DIRECTION('',(0.,0.,-1.));
#571=DIRECTION('',(0.,-1.,0.));
#572=DIRECTION('',(0.,0.,-1.));
#573=DIRECTION('',(0.,-1.,0.));
#574=DIRECTION('',(0.,0.,-1.));
#575=DIRECTION('',(0.,-1.,0.));
#576=DIRECTION('',(1.,0.,0.));
#577=DIRECTION('',(0.,-1.,0.));
#578=DIRECTION('',(0.,0.,-1.));
#579=DIRECTION('',(0.,-1.,0.));
#580=DIRECTION('',(0.,0.,-1.));
#581=DIRECTION('',(0.,-1.,0.));
#582=DIRECTION('',(0.,0.,-1.));
#583=DIRECTION('',(0.,-1.,0.));
#584=DIRECTION('',(0.,0.,-1.));
#585=DIRECTION('',(0.,1.,0.));
#586=DIRECTION('',(0.,0.,1.));
#587=DIRECTION('',(0.,-1.,0.));
#588=DIRECTION('',(0.,0.,-1.));
#589=DIRECTION('',(0.,-1.,0.));
#590=DIRECTION('',(0.,0.,-1.));
#591=DIRECTION('',(0.,-1.,0.));
#592=DIRECTION('',(0.,0.,-1.));
#593=DIRECTION('',(0.,-1.,0.));
#594=DIRECTION('',(0.,0.,-1.));
#595=DIRECTION('',(0.,-1.,0.));
#596=DIRECTION('',(0.,0.,-1.));
#597=DIRECTION('',(0.,-1.,0.));
#598=DIRECTION('',(0.,0.,-1.));
#599=DIRECTION('',(0.,-1.,0.));
#600=DIRECTION('',(0.,0.,-1.));
#601=DIRECTION('',(0.,-1.,0.));
#602=DIRECTION('',(0.,0.,-1.));
#603=DIRECTION('',(0.,-1.,0.));
#604=DIRECTION('',(0.,0.,-1.));
#605=DIRECTION('',(0.,-1.,0.));
#606=DIRECTION('',(0.,0.,-1.));
#607=DIRECTION('',(0.,-1.,0.));
#608=DIRECTION('',(0.,0.,-1.));
#609=DIRECTION('',(0.,-1.,0.));
#610=DIRECTION('',(0.,0.,-1.));
#611=DIRECTION('',(0.,-1.,0.));
#612=DIRECTION('',(0.,0.,-1.));
#613=DIRECTION('',(0.,1.,0.));
#614=DIRECTION('',(0.,0.,1.));
#615=DIRECTION('',(0.,-1.,0.));
#616=DIRECTION('',(0.,0.,-1.));
#617=DIRECTION('',(0.,-1.,0.));
#618=DIRECTION('',(0.,0.,-1.));
#619=DIRECTION('',(0.,-1.,0.));
#620=DIRECTION('',(0.,0.,-1.));
#621=DIRECTION('',(0.,-1.,0.));
#622=DIRECTION('',(0.,0.,-1.));
#623=DIRECTION('',(0.,-1.,0.));
#624=DIRECTION('',(0.,0.,-1.));
#625=DIRECTION('',(0.,1.,0.));
#626=DIRECTION('',(0.,0.,1.));
#627=DIRECTION('',(-1.,0.,0.));
#628=DIRECTION('',(0.,0.,1.));
#629=DIRECTION('',(0.,-1.,0.));
#630=DIRECTION('',(0.,0.,-1.));
#631=DIRECTION('',(0.,-1.,0.));
#632=DIRECTION('',(-0.5,0.,0.866025403784439));
#633=DIRECTION('',(0.866025403784439,0.,0.5));
#634=DIRECTION('',(0.,-1.,0.));
#635=DIRECTION('',(-0.866025403784439,0.,-0.5));
#636=DIRECTION('',(0.5,0.,0.866025403784439));
#637=DIRECTION('',(0.866025403784439,0.,-0.5));
#638=DIRECTION('',(0.,-1.,0.));
#639=DIRECTION('',(-0.866025403784439,0.,0.5));
#640=DIRECTION('',(1.,0.,0.));
#641=DIRECTION('',(0.,0.,-1.));
#642=DIRECTION('',(0.,-1.,0.));
#643=DIRECTION('',(0.,0.,1.));
#644=DIRECTION('',(0.5,0.,-0.866025403784439));
#645=DIRECTION('',(-0.866025403784439,0.,-0.5));
#646=DIRECTION('',(0.,-1.,0.));
#647=DIRECTION('',(0.866025403784439,0.,0.5));
#648=DIRECTION('',(-0.5,0.,-0.866025403784439));
#649=DIRECTION('',(-0.866025403784439,0.,0.5));
#650=DIRECTION('',(0.866025403784439,0.,-0.5));
#651=DIRECTION('',(0.,-1.,0.));
#652=DIRECTION('',(0.,0.,-1.));
#653=DIRECTION('',(0.,-1.,0.));
#654=DIRECTION('',(1.,0.,0.));
#655=DIRECTION('',(0.,-1.,0.));
#656=DIRECTION('',(0.,0.,-1.));
#657=CARTESIAN_POINT('',(0.,0.,0.));
#658=CARTESIAN_POINT('',(5.,15.,0.));
#659=CARTESIAN_POINT('',(0.,15.,-15.5884572681199));
#660=CARTESIAN_POINT('',(0.,15.,-15.5884572681199));
#661=CARTESIAN_POINT('',(13.5,15.,-7.79422863405995));
#662=CARTESIAN_POINT('',(13.5,15.,0.));
#663=CARTESIAN_POINT('',(13.5,15.,7.79422863405995));
#664=CARTESIAN_POINT('',(13.5,15.,7.79422863405995));
#665=CARTESIAN_POINT('',(0.,15.,15.5884572681199));
#666=CARTESIAN_POINT('',(0.,15.,15.5884572681199));
#667=CARTESIAN_POINT('',(-13.5,15.,7.79422863405995));
#668=CARTESIAN_POINT('',(-13.5,15.,7.79422863405995));
#669=CARTESIAN_POINT('',(-13.5,15.,-7.79422863405995));
#670=CARTESIAN_POINT('',(-13.5,15.,-7.79422863405995));
#671=CARTESIAN_POINT('',(0.,15.,0.));
#672=CARTESIAN_POINT('',(0.,15.,-5.));
#673=CARTESIAN_POINT('',(0.,0.,0.));
#674=CARTESIAN_POINT('',(0.,58.,0.));
#675=CARTESIAN_POINT('',(0.,58.,-5.));
#676=CARTESIAN_POINT('',(5.,15.,0.));
#677=CARTESIAN_POINT('',(0.,15.,0.));
#678=CARTESIAN_POINT('',(0.,15.,-41.8440066012825));
#679=CARTESIAN_POINT('',(0.,15.,0.));
#680=CARTESIAN_POINT('',(21.6,15.,0.));
#681=CARTESIAN_POINT('',(0.,15.,0.));
#682=CARTESIAN_POINT('',(0.,10.199655816984,0.));
#683=CARTESIAN_POINT('',(0.,10.199655816984,-59.7591349861158));
#684=CARTESIAN_POINT('',(0.,10.199655816984,0.));
#685=CARTESIAN_POINT('',(0.,0.,0.));
#686=CARTESIAN_POINT('',(0.,0.,-75.));
#687=CARTESIAN_POINT('',(0.,0.,0.));
#688=CARTESIAN_POINT('',(0.,1.44171153191768,0.));
#689=CARTESIAN_POINT('',(0.,1.44171153191768,-76.4417115319177));
#690=CARTESIAN_POINT('',(0.,1.44171153191768,0.));
#691=CARTESIAN_POINT('',(0.,8.17765527986725,0.));
#692=CARTESIAN_POINT('',(0.,8.17765527986725,-66.3765082303838));
#693=CARTESIAN_POINT('',(0.,24.798964820673,0.));
#694=CARTESIAN_POINT('',(0.,24.798964820673,0.));
#695=CARTESIAN_POINT('',(0.,24.798964820673,-57.5));
#696=CARTESIAN_POINT('',(0.,0.,0.));
#697=CARTESIAN_POINT('',(0.,25.,0.));
#698=CARTESIAN_POINT('',(0.,25.,-57.5));
#699=CARTESIAN_POINT('',(0.,25.,0.));
#700=CARTESIAN_POINT('',(0.,30.,0.));
#701=CARTESIAN_POINT('',(0.,30.,-52.5));
#702=CARTESIAN_POINT('',(0.,0.,0.));
#703=CARTESIAN_POINT('',(0.,43.75,0.));
#704=CARTESIAN_POINT('',(0.,43.75,-52.5));
#705=CARTESIAN_POINT('',(0.,43.75,0.));
#706=CARTESIAN_POINT('',(0.,45.,0.));
#707=CARTESIAN_POINT('',(0.,45.,-51.25));
#708=CARTESIAN_POINT('',(51.25,45.,0.));
#709=CARTESIAN_POINT('',(0.,45.,0.));
#710=CARTESIAN_POINT('',(0.,45.,-10.));
#711=CARTESIAN_POINT('',(0.,0.,0.));
#712=CARTESIAN_POINT('',(0.,56.773,0.));
#713=CARTESIAN_POINT('',(0.,56.773,-10.));
#714=CARTESIAN_POINT('',(0.,56.773,0.));
#715=CARTESIAN_POINT('',(0.,58.,0.));
#716=CARTESIAN_POINT('',(0.,58.,-8.773));
#717=CARTESIAN_POINT('',(8.773,58.,0.));
#718=CARTESIAN_POINT('',(-13.5,22.5,7.79422863405995));
#719=CARTESIAN_POINT('',(-13.5,22.5,7.79422863405995));
#720=CARTESIAN_POINT('',(-13.5,22.5,7.79422863405995));
#721=CARTESIAN_POINT('',(-13.5,22.5,7.79422863405995));
#722=CARTESIAN_POINT('',(-13.5,22.5,-7.79422863405995));
#723=CARTESIAN_POINT('',(-13.5,22.5,-7.79422863405995));
#724=CARTESIAN_POINT('',(0.,22.5,15.5884572681199));
#725=CARTESIAN_POINT('',(0.,22.5,15.5884572681199));
#726=CARTESIAN_POINT('',(0.,22.5,15.5884572681199));
#727=CARTESIAN_POINT('',(0.,22.5,15.5884572681199));
#728=CARTESIAN_POINT('',(13.5,22.5,7.79422863405995));
#729=CARTESIAN_POINT('',(13.5,22.5,7.79422863405995));
#730=CARTESIAN_POINT('',(13.5,22.5,7.79422863405995));
#731=CARTESIAN_POINT('',(13.5,22.5,7.79422863405995));
#732=CARTESIAN_POINT('',(13.5,22.5,-7.79422863405995));
#733=CARTESIAN_POINT('',(13.5,22.5,-7.79422863405995));
#734=CARTESIAN_POINT('',(13.5,22.5,-7.79422863405995));
#735=CARTESIAN_POINT('',(13.5,22.5,-7.79422863405995));
#736=CARTESIAN_POINT('',(0.,22.5,-15.5884572681199));
#737=CARTESIAN_POINT('',(0.,22.5,-15.5884572681199));
#738=CARTESIAN_POINT('',(0.,22.5,-15.5884572681199));
#739=CARTESIAN_POINT('',(0.,22.5,-15.5884572681199));
#740=CARTESIAN_POINT('',(-13.5,22.5,-7.79422863405995));
#741=CARTESIAN_POINT('',(-13.5,22.5,-7.79422863405995));
#742=CARTESIAN_POINT('',(0.,22.5,0.));
#743=CARTESIAN_POINT('',(0.,22.5,0.));
#744=CARTESIAN_POINT('',(21.6,22.5,0.));
#745=CARTESIAN_POINT('',(0.,22.5,0.));
#746=MECHANICAL_DESIGN_GEOMETRIC_PRESENTATION_REPRESENTATION('',(#316,#317,
#318,#319,#320,#321,#322,#323,#324,#325,#326,#327,#328,#329,#330,#331,#332,
#333,#334,#335,#336,#337,#338,#339),#747);
#747=(
GEOMETRIC_REPRESENTATION_CONTEXT(3)
GLOBAL_UNCERTAINTY_ASSIGNED_CONTEXT((#748))
GLOBAL_UNIT_ASSIGNED_CONTEXT((#751,#750,#749))
REPRESENTATION_CONTEXT('189326 ESS-150-SN','TOP_LEVEL_ASSEMBLY_PART')
);
#748=UNCERTAINTY_MEASURE_WITH_UNIT(LENGTH_MEASURE(0.005),#751,
'DISTANCE_ACCURACY_VALUE','Maximum Tolerance applied to model');
#749=(
NAMED_UNIT(*)
SI_UNIT($,.STERADIAN.)
SOLID_ANGLE_UNIT()
);
#750=(
NAMED_UNIT(*)
PLANE_ANGLE_UNIT()
SI_UNIT($,.RADIAN.)
);
#751=(
LENGTH_UNIT()
NAMED_UNIT(*)
SI_UNIT(.MILLI.,.METRE.)
);
#752=PRODUCT_DEFINITION_SHAPE('','',#753);
#753=PRODUCT_DEFINITION('','',#755,#754);
#754=PRODUCT_DEFINITION_CONTEXT('',#761,'design');
#755=PRODUCT_DEFINITION_FORMATION_WITH_SPECIFIED_SOURCE('','',#757,
 .NOT_KNOWN.);
#756=PRODUCT_RELATED_PRODUCT_CATEGORY('','',(#757));
#757=PRODUCT('189326 ESS-150-SN','189326 ESS-150-SN',
'189326 ESS-150-SN',(#759));
#758=PRODUCT_CATEGORY('','');
#759=PRODUCT_CONTEXT('',#761,'mechanical');
#760=APPLICATION_PROTOCOL_DEFINITION('international standard',
'automotive_design',2010,#761);
#761=APPLICATION_CONTEXT(
'core data for automotive mechanical design processes');
ENDSEC;
END-ISO-10303-21;
