ISO-10303-21;
HEADER;
/* Generated by software containing ST-Developer
 * from STEP Tools, Inc. (www.steptools.com) 
 */
/* OPTION: using custom renumber hook */

FILE_DESCRIPTION(
/* description */ ('STEP AP214'),
/* implementation_level */ '2;1');

FILE_NAME(
/* name */ '189334_ESS-15-EN',
/* time_stamp */ '2024-08-28T08:24:41+02:00',
/* author */ ('License CC BY-ND 4.0'),
/* organization */ ('CADENAS'),
/* preprocessor_version */ 'ST-DEVELOPER v19.3',
/* originating_system */ 'PARTsolutions',
/* authorisation */ '  ');

FILE_SCHEMA (('AUTOMOTIVE_DESIGN {1 0 10303 214 3 1 1}'));
ENDSEC;

DATA;
#10=PROPERTY_DEFINITION_REPRESENTATION(#14,#12);
#11=PROPERTY_DEFINITION_REPRESENTATION(#15,#13);
#12=REPRESENTATION('',(#16),#585);
#13=REPRESENTATION('',(#17),#585);
#14=PROPERTY_DEFINITION('pmi validation property','',#590);
#15=PROPERTY_DEFINITION('pmi validation property','',#590);
#16=VALUE_REPRESENTATION_ITEM('number of annotations',COUNT_MEASURE(0.));
#17=VALUE_REPRESENTATION_ITEM('number of views',COUNT_MEASURE(0.));
#18=SHAPE_REPRESENTATION_RELATIONSHIP('','',#404,#19);
#19=ADVANCED_BREP_SHAPE_REPRESENTATION('',(#402),#585);
#20=TOROIDAL_SURFACE('',#414,4.8125,0.687499999999997);
#21=DRAUGHTING_PRE_DEFINED_COLOUR('black');
#22=CYLINDRICAL_SURFACE('',#410,2.);
#23=CYLINDRICAL_SURFACE('',#416,5.5);
#24=CYLINDRICAL_SURFACE('',#426,3.85);
#25=CONICAL_SURFACE('',#408,1.5705,0.785398163397447);
#26=CONICAL_SURFACE('',#418,5.5,0.698131700797732);
#27=CONICAL_SURFACE('',#420,4.68806033550955,1.0471975511966);
#28=CONICAL_SURFACE('',#422,7.91954981558864,0.698131700797731);
#29=CONICAL_SURFACE('',#424,7.5,1.0471975511966);
#30=LINE('',#517,#48);
#31=LINE('',#520,#49);
#32=LINE('',#522,#50);
#33=LINE('',#524,#51);
#34=LINE('',#526,#52);
#35=LINE('',#528,#53);
#36=LINE('',#560,#54);
#37=LINE('',#563,#55);
#38=LINE('',#565,#56);
#39=LINE('',#567,#57);
#40=LINE('',#569,#58);
#41=LINE('',#571,#59);
#42=LINE('',#573,#60);
#43=LINE('',#574,#61);
#44=LINE('',#576,#62);
#45=LINE('',#578,#63);
#46=LINE('',#580,#64);
#47=LINE('',#582,#65);
#48=VECTOR('',#441,1000.);
#49=VECTOR('',#442,1000.);
#50=VECTOR('',#443,1000.);
#51=VECTOR('',#444,1000.);
#52=VECTOR('',#445,1000.);
#53=VECTOR('',#446,1000.);
#54=VECTOR('',#489,1000.);
#55=VECTOR('',#490,1000.);
#56=VECTOR('',#491,1000.);
#57=VECTOR('',#492,1000.);
#58=VECTOR('',#493,1000.);
#59=VECTOR('',#494,1000.);
#60=VECTOR('',#497,1000.);
#61=VECTOR('',#498,1000.);
#62=VECTOR('',#501,1000.);
#63=VECTOR('',#504,1000.);
#64=VECTOR('',#507,1000.);
#65=VECTOR('',#510,1000.);
#66=ORIENTED_EDGE('',*,*,#124,.F.);
#67=ORIENTED_EDGE('',*,*,#125,.F.);
#68=ORIENTED_EDGE('',*,*,#126,.F.);
#69=ORIENTED_EDGE('',*,*,#127,.F.);
#70=ORIENTED_EDGE('',*,*,#128,.F.);
#71=ORIENTED_EDGE('',*,*,#129,.F.);
#72=ORIENTED_EDGE('',*,*,#130,.F.);
#73=ORIENTED_EDGE('',*,*,#131,.F.);
#74=ORIENTED_EDGE('',*,*,#124,.T.);
#75=ORIENTED_EDGE('',*,*,#132,.F.);
#76=ORIENTED_EDGE('',*,*,#131,.T.);
#77=ORIENTED_EDGE('',*,*,#133,.F.);
#78=ORIENTED_EDGE('',*,*,#132,.T.);
#79=ORIENTED_EDGE('',*,*,#133,.T.);
#80=ORIENTED_EDGE('',*,*,#134,.F.);
#81=ORIENTED_EDGE('',*,*,#135,.F.);
#82=ORIENTED_EDGE('',*,*,#134,.T.);
#83=ORIENTED_EDGE('',*,*,#136,.F.);
#84=ORIENTED_EDGE('',*,*,#135,.T.);
#85=ORIENTED_EDGE('',*,*,#137,.F.);
#86=ORIENTED_EDGE('',*,*,#136,.T.);
#87=ORIENTED_EDGE('',*,*,#138,.F.);
#88=ORIENTED_EDGE('',*,*,#137,.T.);
#89=ORIENTED_EDGE('',*,*,#139,.F.);
#90=ORIENTED_EDGE('',*,*,#138,.T.);
#91=ORIENTED_EDGE('',*,*,#140,.F.);
#92=ORIENTED_EDGE('',*,*,#139,.T.);
#93=ORIENTED_EDGE('',*,*,#141,.T.);
#94=ORIENTED_EDGE('',*,*,#142,.T.);
#95=ORIENTED_EDGE('',*,*,#143,.T.);
#96=ORIENTED_EDGE('',*,*,#144,.T.);
#97=ORIENTED_EDGE('',*,*,#145,.T.);
#98=ORIENTED_EDGE('',*,*,#146,.T.);
#99=ORIENTED_EDGE('',*,*,#140,.T.);
#100=ORIENTED_EDGE('',*,*,#147,.T.);
#101=ORIENTED_EDGE('',*,*,#127,.T.);
#102=ORIENTED_EDGE('',*,*,#148,.F.);
#103=ORIENTED_EDGE('',*,*,#145,.F.);
#104=ORIENTED_EDGE('',*,*,#148,.T.);
#105=ORIENTED_EDGE('',*,*,#126,.T.);
#106=ORIENTED_EDGE('',*,*,#149,.F.);
#107=ORIENTED_EDGE('',*,*,#146,.F.);
#108=ORIENTED_EDGE('',*,*,#149,.T.);
#109=ORIENTED_EDGE('',*,*,#125,.T.);
#110=ORIENTED_EDGE('',*,*,#150,.F.);
#111=ORIENTED_EDGE('',*,*,#141,.F.);
#112=ORIENTED_EDGE('',*,*,#150,.T.);
#113=ORIENTED_EDGE('',*,*,#130,.T.);
#114=ORIENTED_EDGE('',*,*,#151,.F.);
#115=ORIENTED_EDGE('',*,*,#142,.F.);
#116=ORIENTED_EDGE('',*,*,#151,.T.);
#117=ORIENTED_EDGE('',*,*,#129,.T.);
#118=ORIENTED_EDGE('',*,*,#152,.F.);
#119=ORIENTED_EDGE('',*,*,#143,.F.);
#120=ORIENTED_EDGE('',*,*,#152,.T.);
#121=ORIENTED_EDGE('',*,*,#128,.T.);
#122=ORIENTED_EDGE('',*,*,#147,.F.);
#123=ORIENTED_EDGE('',*,*,#144,.F.);
#124=EDGE_CURVE('',#153,#153,#176,.T.);
#125=EDGE_CURVE('',#154,#155,#30,.T.);
#126=EDGE_CURVE('',#156,#154,#31,.T.);
#127=EDGE_CURVE('',#157,#156,#32,.T.);
#128=EDGE_CURVE('',#158,#157,#33,.T.);
#129=EDGE_CURVE('',#159,#158,#34,.T.);
#130=EDGE_CURVE('',#155,#159,#35,.T.);
#131=EDGE_CURVE('',#160,#160,#177,.T.);
#132=EDGE_CURVE('',#161,#161,#178,.T.);
#133=EDGE_CURVE('',#162,#162,#179,.T.);
#134=EDGE_CURVE('',#163,#163,#180,.T.);
#135=EDGE_CURVE('',#164,#164,#181,.T.);
#136=EDGE_CURVE('',#165,#165,#182,.T.);
#137=EDGE_CURVE('',#166,#166,#183,.T.);
#138=EDGE_CURVE('',#167,#167,#184,.T.);
#139=EDGE_CURVE('',#168,#168,#185,.T.);
#140=EDGE_CURVE('',#169,#169,#186,.T.);
#141=EDGE_CURVE('',#170,#171,#36,.T.);
#142=EDGE_CURVE('',#171,#172,#37,.T.);
#143=EDGE_CURVE('',#172,#173,#38,.T.);
#144=EDGE_CURVE('',#173,#174,#39,.T.);
#145=EDGE_CURVE('',#174,#175,#40,.T.);
#146=EDGE_CURVE('',#175,#170,#41,.T.);
#147=EDGE_CURVE('',#174,#157,#42,.T.);
#148=EDGE_CURVE('',#175,#156,#43,.T.);
#149=EDGE_CURVE('',#170,#154,#44,.T.);
#150=EDGE_CURVE('',#171,#155,#45,.T.);
#151=EDGE_CURVE('',#172,#159,#46,.T.);
#152=EDGE_CURVE('',#173,#158,#47,.T.);
#153=VERTEX_POINT('',#516);
#154=VERTEX_POINT('',#518);
#155=VERTEX_POINT('',#519);
#156=VERTEX_POINT('',#521);
#157=VERTEX_POINT('',#523);
#158=VERTEX_POINT('',#525);
#159=VERTEX_POINT('',#527);
#160=VERTEX_POINT('',#531);
#161=VERTEX_POINT('',#534);
#162=VERTEX_POINT('',#537);
#163=VERTEX_POINT('',#540);
#164=VERTEX_POINT('',#543);
#165=VERTEX_POINT('',#546);
#166=VERTEX_POINT('',#549);
#167=VERTEX_POINT('',#552);
#168=VERTEX_POINT('',#555);
#169=VERTEX_POINT('',#558);
#170=VERTEX_POINT('',#561);
#171=VERTEX_POINT('',#562);
#172=VERTEX_POINT('',#564);
#173=VERTEX_POINT('',#566);
#174=VERTEX_POINT('',#568);
#175=VERTEX_POINT('',#570);
#176=CIRCLE('',#407,1.5705);
#177=CIRCLE('',#409,2.);
#178=CIRCLE('',#411,2.);
#179=CIRCLE('',#413,4.8125);
#180=CIRCLE('',#415,5.5);
#181=CIRCLE('',#417,5.5);
#182=CIRCLE('',#419,4.68806033550955);
#183=CIRCLE('',#421,7.91954981558864);
#184=CIRCLE('',#423,7.5);
#185=CIRCLE('',#425,3.85);
#186=CIRCLE('',#427,3.85);
#187=EDGE_LOOP('',(#66));
#188=EDGE_LOOP('',(#67,#68,#69,#70,#71,#72));
#189=EDGE_LOOP('',(#73));
#190=EDGE_LOOP('',(#74));
#191=EDGE_LOOP('',(#75));
#192=EDGE_LOOP('',(#76));
#193=EDGE_LOOP('',(#77));
#194=EDGE_LOOP('',(#78));
#195=EDGE_LOOP('',(#79));
#196=EDGE_LOOP('',(#80));
#197=EDGE_LOOP('',(#81));
#198=EDGE_LOOP('',(#82));
#199=EDGE_LOOP('',(#83));
#200=EDGE_LOOP('',(#84));
#201=EDGE_LOOP('',(#85));
#202=EDGE_LOOP('',(#86));
#203=EDGE_LOOP('',(#87));
#204=EDGE_LOOP('',(#88));
#205=EDGE_LOOP('',(#89));
#206=EDGE_LOOP('',(#90));
#207=EDGE_LOOP('',(#91));
#208=EDGE_LOOP('',(#92));
#209=EDGE_LOOP('',(#93,#94,#95,#96,#97,#98));
#210=EDGE_LOOP('',(#99));
#211=EDGE_LOOP('',(#100,#101,#102,#103));
#212=EDGE_LOOP('',(#104,#105,#106,#107));
#213=EDGE_LOOP('',(#108,#109,#110,#111));
#214=EDGE_LOOP('',(#112,#113,#114,#115));
#215=EDGE_LOOP('',(#116,#117,#118,#119));
#216=EDGE_LOOP('',(#120,#121,#122,#123));
#217=FACE_BOUND('',#187,.T.);
#218=FACE_BOUND('',#188,.T.);
#219=FACE_BOUND('',#189,.T.);
#220=FACE_BOUND('',#190,.T.);
#221=FACE_BOUND('',#191,.T.);
#222=FACE_BOUND('',#192,.T.);
#223=FACE_BOUND('',#193,.T.);
#224=FACE_BOUND('',#194,.T.);
#225=FACE_BOUND('',#195,.T.);
#226=FACE_BOUND('',#196,.T.);
#227=FACE_BOUND('',#197,.T.);
#228=FACE_BOUND('',#198,.T.);
#229=FACE_BOUND('',#199,.T.);
#230=FACE_BOUND('',#200,.T.);
#231=FACE_BOUND('',#201,.T.);
#232=FACE_BOUND('',#202,.T.);
#233=FACE_BOUND('',#203,.T.);
#234=FACE_BOUND('',#204,.T.);
#235=FACE_BOUND('',#205,.T.);
#236=FACE_BOUND('',#206,.T.);
#237=FACE_BOUND('',#207,.T.);
#238=FACE_BOUND('',#208,.T.);
#239=FACE_BOUND('',#209,.T.);
#240=FACE_BOUND('',#210,.T.);
#241=FACE_BOUND('',#211,.T.);
#242=FACE_BOUND('',#212,.T.);
#243=FACE_BOUND('',#213,.T.);
#244=FACE_BOUND('',#214,.T.);
#245=FACE_BOUND('',#215,.T.);
#246=FACE_BOUND('',#216,.T.);
#247=PLANE('',#406);
#248=PLANE('',#412);
#249=PLANE('',#428);
#250=PLANE('',#429);
#251=PLANE('',#430);
#252=PLANE('',#431);
#253=PLANE('',#432);
#254=PLANE('',#433);
#255=PLANE('',#434);
#256=STYLED_ITEM('',(#274),#383);
#257=STYLED_ITEM('',(#275),#384);
#258=STYLED_ITEM('',(#276),#385);
#259=STYLED_ITEM('',(#277),#386);
#260=STYLED_ITEM('',(#278),#387);
#261=STYLED_ITEM('',(#279),#388);
#262=STYLED_ITEM('',(#280),#389);
#263=STYLED_ITEM('',(#281),#390);
#264=STYLED_ITEM('',(#282),#391);
#265=STYLED_ITEM('',(#283),#392);
#266=STYLED_ITEM('',(#284),#393);
#267=STYLED_ITEM('',(#285),#394);
#268=STYLED_ITEM('',(#286),#395);
#269=STYLED_ITEM('',(#287),#396);
#270=STYLED_ITEM('',(#288),#397);
#271=STYLED_ITEM('',(#289),#398);
#272=STYLED_ITEM('',(#290),#399);
#273=STYLED_ITEM('',(#291),#400);
#274=PRESENTATION_STYLE_ASSIGNMENT((#292));
#275=PRESENTATION_STYLE_ASSIGNMENT((#293));
#276=PRESENTATION_STYLE_ASSIGNMENT((#294));
#277=PRESENTATION_STYLE_ASSIGNMENT((#295));
#278=PRESENTATION_STYLE_ASSIGNMENT((#296));
#279=PRESENTATION_STYLE_ASSIGNMENT((#297));
#280=PRESENTATION_STYLE_ASSIGNMENT((#298));
#281=PRESENTATION_STYLE_ASSIGNMENT((#299));
#282=PRESENTATION_STYLE_ASSIGNMENT((#300));
#283=PRESENTATION_STYLE_ASSIGNMENT((#301));
#284=PRESENTATION_STYLE_ASSIGNMENT((#302));
#285=PRESENTATION_STYLE_ASSIGNMENT((#303));
#286=PRESENTATION_STYLE_ASSIGNMENT((#304));
#287=PRESENTATION_STYLE_ASSIGNMENT((#305));
#288=PRESENTATION_STYLE_ASSIGNMENT((#306));
#289=PRESENTATION_STYLE_ASSIGNMENT((#307));
#290=PRESENTATION_STYLE_ASSIGNMENT((#308));
#291=PRESENTATION_STYLE_ASSIGNMENT((#309));
#292=SURFACE_STYLE_USAGE(.BOTH.,#310);
#293=SURFACE_STYLE_USAGE(.BOTH.,#311);
#294=SURFACE_STYLE_USAGE(.BOTH.,#312);
#295=SURFACE_STYLE_USAGE(.BOTH.,#313);
#296=SURFACE_STYLE_USAGE(.BOTH.,#314);
#297=SURFACE_STYLE_USAGE(.BOTH.,#315);
#298=SURFACE_STYLE_USAGE(.BOTH.,#316);
#299=SURFACE_STYLE_USAGE(.BOTH.,#317);
#300=SURFACE_STYLE_USAGE(.BOTH.,#318);
#301=SURFACE_STYLE_USAGE(.BOTH.,#319);
#302=SURFACE_STYLE_USAGE(.BOTH.,#320);
#303=SURFACE_STYLE_USAGE(.BOTH.,#321);
#304=SURFACE_STYLE_USAGE(.BOTH.,#322);
#305=SURFACE_STYLE_USAGE(.BOTH.,#323);
#306=SURFACE_STYLE_USAGE(.BOTH.,#324);
#307=SURFACE_STYLE_USAGE(.BOTH.,#325);
#308=SURFACE_STYLE_USAGE(.BOTH.,#326);
#309=SURFACE_STYLE_USAGE(.BOTH.,#327);
#310=SURFACE_SIDE_STYLE('',(#328));
#311=SURFACE_SIDE_STYLE('',(#329));
#312=SURFACE_SIDE_STYLE('',(#330));
#313=SURFACE_SIDE_STYLE('',(#331));
#314=SURFACE_SIDE_STYLE('',(#332));
#315=SURFACE_SIDE_STYLE('',(#333));
#316=SURFACE_SIDE_STYLE('',(#334));
#317=SURFACE_SIDE_STYLE('',(#335));
#318=SURFACE_SIDE_STYLE('',(#336));
#319=SURFACE_SIDE_STYLE('',(#337));
#320=SURFACE_SIDE_STYLE('',(#338));
#321=SURFACE_SIDE_STYLE('',(#339));
#322=SURFACE_SIDE_STYLE('',(#340));
#323=SURFACE_SIDE_STYLE('',(#341));
#324=SURFACE_SIDE_STYLE('',(#342));
#325=SURFACE_SIDE_STYLE('',(#343));
#326=SURFACE_SIDE_STYLE('',(#344));
#327=SURFACE_SIDE_STYLE('',(#345));
#328=SURFACE_STYLE_FILL_AREA(#346);
#329=SURFACE_STYLE_FILL_AREA(#347);
#330=SURFACE_STYLE_FILL_AREA(#348);
#331=SURFACE_STYLE_FILL_AREA(#349);
#332=SURFACE_STYLE_FILL_AREA(#350);
#333=SURFACE_STYLE_FILL_AREA(#351);
#334=SURFACE_STYLE_FILL_AREA(#352);
#335=SURFACE_STYLE_FILL_AREA(#353);
#336=SURFACE_STYLE_FILL_AREA(#354);
#337=SURFACE_STYLE_FILL_AREA(#355);
#338=SURFACE_STYLE_FILL_AREA(#356);
#339=SURFACE_STYLE_FILL_AREA(#357);
#340=SURFACE_STYLE_FILL_AREA(#358);
#341=SURFACE_STYLE_FILL_AREA(#359);
#342=SURFACE_STYLE_FILL_AREA(#360);
#343=SURFACE_STYLE_FILL_AREA(#361);
#344=SURFACE_STYLE_FILL_AREA(#362);
#345=SURFACE_STYLE_FILL_AREA(#363);
#346=FILL_AREA_STYLE('',(#364));
#347=FILL_AREA_STYLE('',(#365));
#348=FILL_AREA_STYLE('',(#366));
#349=FILL_AREA_STYLE('',(#367));
#350=FILL_AREA_STYLE('',(#368));
#351=FILL_AREA_STYLE('',(#369));
#352=FILL_AREA_STYLE('',(#370));
#353=FILL_AREA_STYLE('',(#371));
#354=FILL_AREA_STYLE('',(#372));
#355=FILL_AREA_STYLE('',(#373));
#356=FILL_AREA_STYLE('',(#374));
#357=FILL_AREA_STYLE('',(#375));
#358=FILL_AREA_STYLE('',(#376));
#359=FILL_AREA_STYLE('',(#377));
#360=FILL_AREA_STYLE('',(#378));
#361=FILL_AREA_STYLE('',(#379));
#362=FILL_AREA_STYLE('',(#380));
#363=FILL_AREA_STYLE('',(#381));
#364=FILL_AREA_STYLE_COLOUR('',#382);
#365=FILL_AREA_STYLE_COLOUR('',#382);
#366=FILL_AREA_STYLE_COLOUR('',#382);
#367=FILL_AREA_STYLE_COLOUR('',#21);
#368=FILL_AREA_STYLE_COLOUR('',#21);
#369=FILL_AREA_STYLE_COLOUR('',#21);
#370=FILL_AREA_STYLE_COLOUR('',#21);
#371=FILL_AREA_STYLE_COLOUR('',#21);
#372=FILL_AREA_STYLE_COLOUR('',#21);
#373=FILL_AREA_STYLE_COLOUR('',#21);
#374=FILL_AREA_STYLE_COLOUR('',#21);
#375=FILL_AREA_STYLE_COLOUR('',#382);
#376=FILL_AREA_STYLE_COLOUR('',#382);
#377=FILL_AREA_STYLE_COLOUR('',#382);
#378=FILL_AREA_STYLE_COLOUR('',#382);
#379=FILL_AREA_STYLE_COLOUR('',#382);
#380=FILL_AREA_STYLE_COLOUR('',#382);
#381=FILL_AREA_STYLE_COLOUR('',#382);
#382=COLOUR_RGB('',0.75300002098083,0.75300002098083,0.75300002098083);
#383=ADVANCED_FACE('',(#217,#218),#247,.F.);
#384=ADVANCED_FACE('',(#219,#220),#25,.T.);
#385=ADVANCED_FACE('',(#221,#222),#22,.T.);
#386=ADVANCED_FACE('',(#223,#224),#248,.F.);
#387=ADVANCED_FACE('',(#225,#226),#20,.T.);
#388=ADVANCED_FACE('',(#227,#228),#23,.T.);
#389=ADVANCED_FACE('',(#229,#230),#26,.T.);
#390=ADVANCED_FACE('',(#231,#232),#27,.T.);
#391=ADVANCED_FACE('',(#233,#234),#28,.T.);
#392=ADVANCED_FACE('',(#235,#236),#29,.F.);
#393=ADVANCED_FACE('',(#237,#238),#24,.F.);
#394=ADVANCED_FACE('',(#239,#240),#249,.F.);
#395=ADVANCED_FACE('',(#241),#250,.F.);
#396=ADVANCED_FACE('',(#242),#251,.F.);
#397=ADVANCED_FACE('',(#243),#252,.F.);
#398=ADVANCED_FACE('',(#244),#253,.F.);
#399=ADVANCED_FACE('',(#245),#254,.F.);
#400=ADVANCED_FACE('',(#246),#255,.F.);
#401=CLOSED_SHELL('',(#383,#384,#385,#386,#387,#388,#389,#390,#391,#392,
#393,#394,#395,#396,#397,#398,#399,#400));
#402=MANIFOLD_SOLID_BREP('189334 ESS-15-EN',#401);
#403=SHAPE_DEFINITION_REPRESENTATION(#590,#404);
#404=SHAPE_REPRESENTATION('189334 ESS-15-EN',(#405),#585);
#405=AXIS2_PLACEMENT_3D('',#513,#435,#436);
#406=AXIS2_PLACEMENT_3D('',#514,#437,#438);
#407=AXIS2_PLACEMENT_3D('',#515,#439,#440);
#408=AXIS2_PLACEMENT_3D('',#529,#447,#448);
#409=AXIS2_PLACEMENT_3D('',#530,#449,#450);
#410=AXIS2_PLACEMENT_3D('',#532,#451,#452);
#411=AXIS2_PLACEMENT_3D('',#533,#453,#454);
#412=AXIS2_PLACEMENT_3D('',#535,#455,#456);
#413=AXIS2_PLACEMENT_3D('',#536,#457,#458);
#414=AXIS2_PLACEMENT_3D('',#538,#459,#460);
#415=AXIS2_PLACEMENT_3D('',#539,#461,#462);
#416=AXIS2_PLACEMENT_3D('',#541,#463,#464);
#417=AXIS2_PLACEMENT_3D('',#542,#465,#466);
#418=AXIS2_PLACEMENT_3D('',#544,#467,#468);
#419=AXIS2_PLACEMENT_3D('',#545,#469,#470);
#420=AXIS2_PLACEMENT_3D('',#547,#471,#472);
#421=AXIS2_PLACEMENT_3D('',#548,#473,#474);
#422=AXIS2_PLACEMENT_3D('',#550,#475,#476);
#423=AXIS2_PLACEMENT_3D('',#551,#477,#478);
#424=AXIS2_PLACEMENT_3D('',#553,#479,#480);
#425=AXIS2_PLACEMENT_3D('',#554,#481,#482);
#426=AXIS2_PLACEMENT_3D('',#556,#483,#484);
#427=AXIS2_PLACEMENT_3D('',#557,#485,#486);
#428=AXIS2_PLACEMENT_3D('',#559,#487,#488);
#429=AXIS2_PLACEMENT_3D('',#572,#495,#496);
#430=AXIS2_PLACEMENT_3D('',#575,#499,#500);
#431=AXIS2_PLACEMENT_3D('',#577,#502,#503);
#432=AXIS2_PLACEMENT_3D('',#579,#505,#506);
#433=AXIS2_PLACEMENT_3D('',#581,#508,#509);
#434=AXIS2_PLACEMENT_3D('',#583,#511,#512);
#435=DIRECTION('',(0.,0.,1.));
#436=DIRECTION('',(1.,0.,0.));
#437=DIRECTION('',(0.,-1.,0.));
#438=DIRECTION('',(0.,0.,-1.));
#439=DIRECTION('',(0.,-1.,0.));
#440=DIRECTION('',(0.,0.,-1.));
#441=DIRECTION('',(0.866025403784439,0.,-0.5));
#442=DIRECTION('',(0.866025403784439,0.,0.5));
#443=DIRECTION('',(0.,0.,1.));
#444=DIRECTION('',(-0.866025403784439,0.,0.5));
#445=DIRECTION('',(-0.866025403784439,0.,-0.5));
#446=DIRECTION('',(0.,0.,-1.));
#447=DIRECTION('',(0.,-1.,0.));
#448=DIRECTION('',(0.,0.,-1.));
#449=DIRECTION('',(0.,-1.,0.));
#450=DIRECTION('',(0.,0.,-1.));
#451=DIRECTION('',(0.,-1.,0.));
#452=DIRECTION('',(0.,0.,-1.));
#453=DIRECTION('',(0.,-1.,0.));
#454=DIRECTION('',(0.,0.,-1.));
#455=DIRECTION('',(0.,-1.,0.));
#456=DIRECTION('',(0.,0.,-1.));
#457=DIRECTION('',(0.,-1.,0.));
#458=DIRECTION('',(0.,0.,-1.));
#459=DIRECTION('',(0.,-1.,0.));
#460=DIRECTION('',(0.,0.,-1.));
#461=DIRECTION('',(0.,-1.,0.));
#462=DIRECTION('',(0.,0.,-1.));
#463=DIRECTION('',(0.,-1.,0.));
#464=DIRECTION('',(0.,0.,-1.));
#465=DIRECTION('',(0.,-1.,0.));
#466=DIRECTION('',(0.,0.,-1.));
#467=DIRECTION('',(0.,1.,0.));
#468=DIRECTION('',(0.,0.,1.));
#469=DIRECTION('',(0.,-1.,0.));
#470=DIRECTION('',(0.,0.,-1.));
#471=DIRECTION('',(0.,-1.,0.));
#472=DIRECTION('',(0.,0.,-1.));
#473=DIRECTION('',(0.,-1.,0.));
#474=DIRECTION('',(0.,0.,-1.));
#475=DIRECTION('',(0.,1.,0.));
#476=DIRECTION('',(0.,0.,1.));
#477=DIRECTION('',(0.,-1.,0.));
#478=DIRECTION('',(0.,0.,-1.));
#479=DIRECTION('',(0.,-1.,0.));
#480=DIRECTION('',(0.,0.,-1.));
#481=DIRECTION('',(0.,-1.,0.));
#482=DIRECTION('',(0.,0.,-1.));
#483=DIRECTION('',(0.,-1.,0.));
#484=DIRECTION('',(0.,0.,-1.));
#485=DIRECTION('',(0.,-1.,0.));
#486=DIRECTION('',(0.,0.,-1.));
#487=DIRECTION('',(0.,1.,0.));
#488=DIRECTION('',(0.,0.,1.));
#489=DIRECTION('',(0.866025403784439,0.,-0.5));
#490=DIRECTION('',(0.,0.,-1.));
#491=DIRECTION('',(-0.866025403784439,0.,-0.5));
#492=DIRECTION('',(-0.866025403784439,0.,0.5));
#493=DIRECTION('',(0.,0.,1.));
#494=DIRECTION('',(0.866025403784439,0.,0.5));
#495=DIRECTION('',(-1.,0.,0.));
#496=DIRECTION('',(0.,0.,1.));
#497=DIRECTION('',(0.,1.,0.));
#498=DIRECTION('',(0.,1.,0.));
#499=DIRECTION('',(-0.5,0.,0.866025403784439));
#500=DIRECTION('',(0.866025403784439,0.,0.5));
#501=DIRECTION('',(0.,1.,0.));
#502=DIRECTION('',(0.5,0.,0.866025403784439));
#503=DIRECTION('',(0.866025403784439,0.,-0.5));
#504=DIRECTION('',(0.,1.,0.));
#505=DIRECTION('',(1.,0.,0.));
#506=DIRECTION('',(0.,0.,-1.));
#507=DIRECTION('',(0.,1.,0.));
#508=DIRECTION('',(0.5,0.,-0.866025403784439));
#509=DIRECTION('',(-0.866025403784439,0.,-0.5));
#510=DIRECTION('',(0.,1.,0.));
#511=DIRECTION('',(-0.5,0.,-0.866025403784439));
#512=DIRECTION('',(-0.866025403784439,0.,0.5));
#513=CARTESIAN_POINT('',(0.,0.,0.));
#514=CARTESIAN_POINT('',(0.,13.,0.));
#515=CARTESIAN_POINT('',(0.,13.,0.));
#516=CARTESIAN_POINT('',(0.,13.,-1.5705));
#517=CARTESIAN_POINT('',(0.,13.,1.15470053837925));
#518=CARTESIAN_POINT('',(0.,13.,1.15470053837925));
#519=CARTESIAN_POINT('',(1.,13.,0.577350269189626));
#520=CARTESIAN_POINT('',(-1.,13.,0.577350269189626));
#521=CARTESIAN_POINT('',(-1.,13.,0.577350269189626));
#522=CARTESIAN_POINT('',(-1.,13.,-0.577350269189626));
#523=CARTESIAN_POINT('',(-1.,13.,-0.577350269189626));
#524=CARTESIAN_POINT('',(0.,13.,-1.15470053837925));
#525=CARTESIAN_POINT('',(0.,13.,-1.15470053837925));
#526=CARTESIAN_POINT('',(1.,13.,-0.577350269189626));
#527=CARTESIAN_POINT('',(1.,13.,-0.577350269189626));
#528=CARTESIAN_POINT('',(1.,13.,0.577350269189626));
#529=CARTESIAN_POINT('',(0.,13.,0.));
#530=CARTESIAN_POINT('',(0.,12.5705,0.));
#531=CARTESIAN_POINT('',(0.,12.5705,-2.));
#532=CARTESIAN_POINT('',(0.,5.,0.));
#533=CARTESIAN_POINT('',(0.,10.,0.));
#534=CARTESIAN_POINT('',(0.,10.,-2.));
#535=CARTESIAN_POINT('',(2.,10.,0.));
#536=CARTESIAN_POINT('',(0.,10.,0.));
#537=CARTESIAN_POINT('',(0.,10.,-4.8125));
#538=CARTESIAN_POINT('',(0.,9.3125,0.));
#539=CARTESIAN_POINT('',(0.,9.3125,0.));
#540=CARTESIAN_POINT('',(0.,9.3125,-5.5));
#541=CARTESIAN_POINT('',(0.,5.,0.));
#542=CARTESIAN_POINT('',(0.,3.33333333333333,0.));
#543=CARTESIAN_POINT('',(0.,3.33333333333333,-5.5));
#544=CARTESIAN_POINT('',(0.,3.33333333333333,0.));
#545=CARTESIAN_POINT('',(0.,2.36570132120711,0.));
#546=CARTESIAN_POINT('',(0.,2.36570132120711,-4.68806033550955));
#547=CARTESIAN_POINT('',(0.,2.36570132120711,0.));
#548=CARTESIAN_POINT('',(0.,0.5,0.));
#549=CARTESIAN_POINT('',(0.,0.5,-7.91954981558864));
#550=CARTESIAN_POINT('',(0.,0.5,0.));
#551=CARTESIAN_POINT('',(0.,0.,0.));
#552=CARTESIAN_POINT('',(0.,0.,-7.5));
#553=CARTESIAN_POINT('',(0.,0.,0.));
#554=CARTESIAN_POINT('',(0.,2.10732848254213,0.));
#555=CARTESIAN_POINT('',(0.,2.10732848254213,-3.85));
#556=CARTESIAN_POINT('',(0.,5.,0.));
#557=CARTESIAN_POINT('',(0.,5.,0.));
#558=CARTESIAN_POINT('',(0.,5.,-3.85));
#559=CARTESIAN_POINT('',(3.85,5.,0.));
#560=CARTESIAN_POINT('',(3.3875,5.,-0.801073498500606));
#561=CARTESIAN_POINT('',(0.,5.,1.15470053837925));
#562=CARTESIAN_POINT('',(1.,5.,0.577350269189626));
#563=CARTESIAN_POINT('',(1.,5.,0.));
#564=CARTESIAN_POINT('',(1.,5.,-0.577350269189626));
#565=CARTESIAN_POINT('',(3.3875,5.,0.801073498500605));
#566=CARTESIAN_POINT('',(0.,5.,-1.15470053837925));
#567=CARTESIAN_POINT('',(2.3875,5.,-2.53312430606948));
#568=CARTESIAN_POINT('',(-1.,5.,-0.577350269189627));
#569=CARTESIAN_POINT('',(-1.,5.,0.));
#570=CARTESIAN_POINT('',(-1.,5.,0.577350269189626));
#571=CARTESIAN_POINT('',(2.3875,5.,2.53312430606948));
#572=CARTESIAN_POINT('',(-1.,3.,-0.577350269189626));
#573=CARTESIAN_POINT('',(-1.,3.,-0.577350269189626));
#574=CARTESIAN_POINT('',(-1.,3.,0.577350269189626));
#575=CARTESIAN_POINT('',(-1.,3.,0.577350269189626));
#576=CARTESIAN_POINT('',(0.,3.,1.15470053837925));
#577=CARTESIAN_POINT('',(0.,3.,1.15470053837925));
#578=CARTESIAN_POINT('',(1.,3.,0.577350269189626));
#579=CARTESIAN_POINT('',(1.,3.,0.577350269189626));
#580=CARTESIAN_POINT('',(1.,3.,-0.577350269189626));
#581=CARTESIAN_POINT('',(1.,3.,-0.577350269189626));
#582=CARTESIAN_POINT('',(0.,3.,-1.15470053837925));
#583=CARTESIAN_POINT('',(0.,3.,-1.15470053837925));
#584=MECHANICAL_DESIGN_GEOMETRIC_PRESENTATION_REPRESENTATION('',(#256,#257,
#258,#259,#260,#261,#262,#263,#264,#265,#266,#267,#268,#269,#270,#271,#272,
#273),#585);
#585=(
GEOMETRIC_REPRESENTATION_CONTEXT(3)
GLOBAL_UNCERTAINTY_ASSIGNED_CONTEXT((#586))
GLOBAL_UNIT_ASSIGNED_CONTEXT((#589,#588,#587))
REPRESENTATION_CONTEXT('189334 ESS-15-EN','TOP_LEVEL_ASSEMBLY_PART')
);
#586=UNCERTAINTY_MEASURE_WITH_UNIT(LENGTH_MEASURE(0.005),#589,
'DISTANCE_ACCURACY_VALUE','Maximum Tolerance applied to model');
#587=(
NAMED_UNIT(*)
SI_UNIT($,.STERADIAN.)
SOLID_ANGLE_UNIT()
);
#588=(
NAMED_UNIT(*)
PLANE_ANGLE_UNIT()
SI_UNIT($,.RADIAN.)
);
#589=(
LENGTH_UNIT()
NAMED_UNIT(*)
SI_UNIT(.MILLI.,.METRE.)
);
#590=PRODUCT_DEFINITION_SHAPE('','',#591);
#591=PRODUCT_DEFINITION('','',#593,#592);
#592=PRODUCT_DEFINITION_CONTEXT('',#599,'design');
#593=PRODUCT_DEFINITION_FORMATION_WITH_SPECIFIED_SOURCE('','',#595,
 .NOT_KNOWN.);
#594=PRODUCT_RELATED_PRODUCT_CATEGORY('','',(#595));
#595=PRODUCT('189334 ESS-15-EN','189334 ESS-15-EN','189334 ESS-15-EN',(#597));
#596=PRODUCT_CATEGORY('','');
#597=PRODUCT_CONTEXT('',#599,'mechanical');
#598=APPLICATION_PROTOCOL_DEFINITION('international standard',
'automotive_design',2010,#599);
#599=APPLICATION_CONTEXT(
'core data for automotive mechanical design processes');
ENDSEC;
END-ISO-10303-21;
