ISO-10303-21;
HEADER;
/* Generated by software containing ST-Developer
 * from STEP Tools, Inc. (www.steptools.com) 
 */
/* OPTION: using custom renumber hook */

FILE_DESCRIPTION(
/* description */ ('STEP AP214'),
/* implementation_level */ '2;1');

FILE_NAME(
/* name */ '189345_ESS-30-EF',
/* time_stamp */ '2024-08-28T09:13:50+02:00',
/* author */ ('License CC BY-ND 4.0'),
/* organization */ ('CADENAS'),
/* preprocessor_version */ 'ST-DEVELOPER v19.3',
/* originating_system */ 'PARTsolutions',
/* authorisation */ '  ');

FILE_SCHEMA (('AUTOMOTIVE_DESIGN {1 0 10303 214 3 1 1}'));
ENDSEC;

DATA;
#10=PROPERTY_DEFINITION_REPRESENTATION(#14,#12);
#11=PROPERTY_DEFINITION_REPRESENTATION(#15,#13);
#12=REPRESENTATION('',(#16),#720);
#13=REPRESENTATION('',(#17),#720);
#14=PROPERTY_DEFINITION('pmi validation property','',#725);
#15=PROPERTY_DEFINITION('pmi validation property','',#725);
#16=VALUE_REPRESENTATION_ITEM('number of annotations',COUNT_MEASURE(0.));
#17=VALUE_REPRESENTATION_ITEM('number of views',COUNT_MEASURE(0.));
#18=SHAPE_REPRESENTATION_RELATIONSHIP('','',#494,#19);
#19=ADVANCED_BREP_SHAPE_REPRESENTATION('',(#492),#720);
#20=TOROIDAL_SURFACE('',#512,7.4375,1.0625);
#21=TOROIDAL_SURFACE('',#516,10.,1.5);
#22=CYLINDRICAL_SURFACE('',#500,3.);
#23=CYLINDRICAL_SURFACE('',#504,5.25);
#24=CYLINDRICAL_SURFACE('',#508,7.75);
#25=CYLINDRICAL_SURFACE('',#514,8.5);
#26=CYLINDRICAL_SURFACE('',#526,6.8);
#27=CONICAL_SURFACE('',#498,2.3865,0.785398163397449);
#28=CONICAL_SURFACE('',#518,9.15263284067926,0.970470403447);
#29=CONICAL_SURFACE('',#520,15.75,0.78539816339745);
#30=CONICAL_SURFACE('',#522,15.,0.970470403447);
#31=CONICAL_SURFACE('',#524,9.73230909560925,1.30899693899575);
#32=LINE('',#637,#50);
#33=LINE('',#640,#51);
#34=LINE('',#642,#52);
#35=LINE('',#644,#53);
#36=LINE('',#646,#54);
#37=LINE('',#648,#55);
#38=LINE('',#695,#56);
#39=LINE('',#698,#57);
#40=LINE('',#700,#58);
#41=LINE('',#702,#59);
#42=LINE('',#704,#60);
#43=LINE('',#706,#61);
#44=LINE('',#708,#62);
#45=LINE('',#709,#63);
#46=LINE('',#711,#64);
#47=LINE('',#713,#65);
#48=LINE('',#715,#66);
#49=LINE('',#717,#67);
#50=VECTOR('',#541,1000.);
#51=VECTOR('',#542,1000.);
#52=VECTOR('',#543,1000.);
#53=VECTOR('',#544,1000.);
#54=VECTOR('',#545,1000.);
#55=VECTOR('',#546,1000.);
#56=VECTOR('',#609,1000.);
#57=VECTOR('',#610,1000.);
#58=VECTOR('',#611,1000.);
#59=VECTOR('',#612,1000.);
#60=VECTOR('',#613,1000.);
#61=VECTOR('',#614,1000.);
#62=VECTOR('',#617,1000.);
#63=VECTOR('',#618,1000.);
#64=VECTOR('',#621,1000.);
#65=VECTOR('',#624,1000.);
#66=VECTOR('',#627,1000.);
#67=VECTOR('',#630,1000.);
#68=ORIENTED_EDGE('',*,*,#136,.F.);
#69=ORIENTED_EDGE('',*,*,#137,.F.);
#70=ORIENTED_EDGE('',*,*,#138,.F.);
#71=ORIENTED_EDGE('',*,*,#139,.F.);
#72=ORIENTED_EDGE('',*,*,#140,.F.);
#73=ORIENTED_EDGE('',*,*,#141,.F.);
#74=ORIENTED_EDGE('',*,*,#142,.F.);
#75=ORIENTED_EDGE('',*,*,#143,.F.);
#76=ORIENTED_EDGE('',*,*,#136,.T.);
#77=ORIENTED_EDGE('',*,*,#144,.F.);
#78=ORIENTED_EDGE('',*,*,#143,.T.);
#79=ORIENTED_EDGE('',*,*,#145,.F.);
#80=ORIENTED_EDGE('',*,*,#144,.T.);
#81=ORIENTED_EDGE('',*,*,#146,.F.);
#82=ORIENTED_EDGE('',*,*,#145,.T.);
#83=ORIENTED_EDGE('',*,*,#147,.F.);
#84=ORIENTED_EDGE('',*,*,#146,.T.);
#85=ORIENTED_EDGE('',*,*,#148,.F.);
#86=ORIENTED_EDGE('',*,*,#147,.T.);
#87=ORIENTED_EDGE('',*,*,#149,.F.);
#88=ORIENTED_EDGE('',*,*,#148,.T.);
#89=ORIENTED_EDGE('',*,*,#149,.T.);
#90=ORIENTED_EDGE('',*,*,#150,.F.);
#91=ORIENTED_EDGE('',*,*,#151,.F.);
#92=ORIENTED_EDGE('',*,*,#150,.T.);
#93=ORIENTED_EDGE('',*,*,#152,.F.);
#94=ORIENTED_EDGE('',*,*,#151,.T.);
#95=ORIENTED_EDGE('',*,*,#153,.F.);
#96=ORIENTED_EDGE('',*,*,#152,.T.);
#97=ORIENTED_EDGE('',*,*,#154,.F.);
#98=ORIENTED_EDGE('',*,*,#153,.T.);
#99=ORIENTED_EDGE('',*,*,#155,.F.);
#100=ORIENTED_EDGE('',*,*,#154,.T.);
#101=ORIENTED_EDGE('',*,*,#156,.F.);
#102=ORIENTED_EDGE('',*,*,#155,.T.);
#103=ORIENTED_EDGE('',*,*,#157,.F.);
#104=ORIENTED_EDGE('',*,*,#156,.T.);
#105=ORIENTED_EDGE('',*,*,#158,.T.);
#106=ORIENTED_EDGE('',*,*,#159,.T.);
#107=ORIENTED_EDGE('',*,*,#160,.T.);
#108=ORIENTED_EDGE('',*,*,#161,.T.);
#109=ORIENTED_EDGE('',*,*,#162,.T.);
#110=ORIENTED_EDGE('',*,*,#163,.T.);
#111=ORIENTED_EDGE('',*,*,#157,.T.);
#112=ORIENTED_EDGE('',*,*,#164,.T.);
#113=ORIENTED_EDGE('',*,*,#139,.T.);
#114=ORIENTED_EDGE('',*,*,#165,.F.);
#115=ORIENTED_EDGE('',*,*,#162,.F.);
#116=ORIENTED_EDGE('',*,*,#165,.T.);
#117=ORIENTED_EDGE('',*,*,#138,.T.);
#118=ORIENTED_EDGE('',*,*,#166,.F.);
#119=ORIENTED_EDGE('',*,*,#163,.F.);
#120=ORIENTED_EDGE('',*,*,#166,.T.);
#121=ORIENTED_EDGE('',*,*,#137,.T.);
#122=ORIENTED_EDGE('',*,*,#167,.F.);
#123=ORIENTED_EDGE('',*,*,#158,.F.);
#124=ORIENTED_EDGE('',*,*,#167,.T.);
#125=ORIENTED_EDGE('',*,*,#142,.T.);
#126=ORIENTED_EDGE('',*,*,#168,.F.);
#127=ORIENTED_EDGE('',*,*,#159,.F.);
#128=ORIENTED_EDGE('',*,*,#168,.T.);
#129=ORIENTED_EDGE('',*,*,#141,.T.);
#130=ORIENTED_EDGE('',*,*,#169,.F.);
#131=ORIENTED_EDGE('',*,*,#160,.F.);
#132=ORIENTED_EDGE('',*,*,#169,.T.);
#133=ORIENTED_EDGE('',*,*,#140,.T.);
#134=ORIENTED_EDGE('',*,*,#164,.F.);
#135=ORIENTED_EDGE('',*,*,#161,.F.);
#136=EDGE_CURVE('',#170,#170,#198,.T.);
#137=EDGE_CURVE('',#171,#172,#32,.T.);
#138=EDGE_CURVE('',#173,#171,#33,.T.);
#139=EDGE_CURVE('',#174,#173,#34,.T.);
#140=EDGE_CURVE('',#175,#174,#35,.T.);
#141=EDGE_CURVE('',#176,#175,#36,.T.);
#142=EDGE_CURVE('',#172,#176,#37,.T.);
#143=EDGE_CURVE('',#177,#177,#199,.T.);
#144=EDGE_CURVE('',#178,#178,#200,.T.);
#145=EDGE_CURVE('',#179,#179,#201,.T.);
#146=EDGE_CURVE('',#180,#180,#202,.T.);
#147=EDGE_CURVE('',#181,#181,#203,.T.);
#148=EDGE_CURVE('',#182,#182,#204,.T.);
#149=EDGE_CURVE('',#183,#183,#205,.T.);
#150=EDGE_CURVE('',#184,#184,#206,.T.);
#151=EDGE_CURVE('',#185,#185,#207,.T.);
#152=EDGE_CURVE('',#186,#186,#208,.T.);
#153=EDGE_CURVE('',#187,#187,#209,.T.);
#154=EDGE_CURVE('',#188,#188,#210,.T.);
#155=EDGE_CURVE('',#189,#189,#211,.T.);
#156=EDGE_CURVE('',#190,#190,#212,.T.);
#157=EDGE_CURVE('',#191,#191,#213,.T.);
#158=EDGE_CURVE('',#192,#193,#38,.T.);
#159=EDGE_CURVE('',#193,#194,#39,.T.);
#160=EDGE_CURVE('',#194,#195,#40,.T.);
#161=EDGE_CURVE('',#195,#196,#41,.T.);
#162=EDGE_CURVE('',#196,#197,#42,.T.);
#163=EDGE_CURVE('',#197,#192,#43,.T.);
#164=EDGE_CURVE('',#196,#174,#44,.T.);
#165=EDGE_CURVE('',#197,#173,#45,.T.);
#166=EDGE_CURVE('',#192,#171,#46,.T.);
#167=EDGE_CURVE('',#193,#172,#47,.T.);
#168=EDGE_CURVE('',#194,#176,#48,.T.);
#169=EDGE_CURVE('',#195,#175,#49,.T.);
#170=VERTEX_POINT('',#636);
#171=VERTEX_POINT('',#638);
#172=VERTEX_POINT('',#639);
#173=VERTEX_POINT('',#641);
#174=VERTEX_POINT('',#643);
#175=VERTEX_POINT('',#645);
#176=VERTEX_POINT('',#647);
#177=VERTEX_POINT('',#651);
#178=VERTEX_POINT('',#654);
#179=VERTEX_POINT('',#657);
#180=VERTEX_POINT('',#660);
#181=VERTEX_POINT('',#663);
#182=VERTEX_POINT('',#666);
#183=VERTEX_POINT('',#669);
#184=VERTEX_POINT('',#672);
#185=VERTEX_POINT('',#675);
#186=VERTEX_POINT('',#678);
#187=VERTEX_POINT('',#681);
#188=VERTEX_POINT('',#684);
#189=VERTEX_POINT('',#687);
#190=VERTEX_POINT('',#690);
#191=VERTEX_POINT('',#693);
#192=VERTEX_POINT('',#696);
#193=VERTEX_POINT('',#697);
#194=VERTEX_POINT('',#699);
#195=VERTEX_POINT('',#701);
#196=VERTEX_POINT('',#703);
#197=VERTEX_POINT('',#705);
#198=CIRCLE('',#497,2.3865);
#199=CIRCLE('',#499,3.);
#200=CIRCLE('',#501,3.);
#201=CIRCLE('',#503,5.25);
#202=CIRCLE('',#505,5.25);
#203=CIRCLE('',#507,7.75);
#204=CIRCLE('',#509,7.75);
#205=CIRCLE('',#511,7.4375);
#206=CIRCLE('',#513,8.5);
#207=CIRCLE('',#515,8.5);
#208=CIRCLE('',#517,9.15263284067926);
#209=CIRCLE('',#519,15.75);
#210=CIRCLE('',#521,15.);
#211=CIRCLE('',#523,9.73230909560925);
#212=CIRCLE('',#525,6.8);
#213=CIRCLE('',#527,6.8);
#214=EDGE_LOOP('',(#68));
#215=EDGE_LOOP('',(#69,#70,#71,#72,#73,#74));
#216=EDGE_LOOP('',(#75));
#217=EDGE_LOOP('',(#76));
#218=EDGE_LOOP('',(#77));
#219=EDGE_LOOP('',(#78));
#220=EDGE_LOOP('',(#79));
#221=EDGE_LOOP('',(#80));
#222=EDGE_LOOP('',(#81));
#223=EDGE_LOOP('',(#82));
#224=EDGE_LOOP('',(#83));
#225=EDGE_LOOP('',(#84));
#226=EDGE_LOOP('',(#85));
#227=EDGE_LOOP('',(#86));
#228=EDGE_LOOP('',(#87));
#229=EDGE_LOOP('',(#88));
#230=EDGE_LOOP('',(#89));
#231=EDGE_LOOP('',(#90));
#232=EDGE_LOOP('',(#91));
#233=EDGE_LOOP('',(#92));
#234=EDGE_LOOP('',(#93));
#235=EDGE_LOOP('',(#94));
#236=EDGE_LOOP('',(#95));
#237=EDGE_LOOP('',(#96));
#238=EDGE_LOOP('',(#97));
#239=EDGE_LOOP('',(#98));
#240=EDGE_LOOP('',(#99));
#241=EDGE_LOOP('',(#100));
#242=EDGE_LOOP('',(#101));
#243=EDGE_LOOP('',(#102));
#244=EDGE_LOOP('',(#103));
#245=EDGE_LOOP('',(#104));
#246=EDGE_LOOP('',(#105,#106,#107,#108,#109,#110));
#247=EDGE_LOOP('',(#111));
#248=EDGE_LOOP('',(#112,#113,#114,#115));
#249=EDGE_LOOP('',(#116,#117,#118,#119));
#250=EDGE_LOOP('',(#120,#121,#122,#123));
#251=EDGE_LOOP('',(#124,#125,#126,#127));
#252=EDGE_LOOP('',(#128,#129,#130,#131));
#253=EDGE_LOOP('',(#132,#133,#134,#135));
#254=FACE_BOUND('',#214,.T.);
#255=FACE_BOUND('',#215,.T.);
#256=FACE_BOUND('',#216,.T.);
#257=FACE_BOUND('',#217,.T.);
#258=FACE_BOUND('',#218,.T.);
#259=FACE_BOUND('',#219,.T.);
#260=FACE_BOUND('',#220,.T.);
#261=FACE_BOUND('',#221,.T.);
#262=FACE_BOUND('',#222,.T.);
#263=FACE_BOUND('',#223,.T.);
#264=FACE_BOUND('',#224,.T.);
#265=FACE_BOUND('',#225,.T.);
#266=FACE_BOUND('',#226,.T.);
#267=FACE_BOUND('',#227,.T.);
#268=FACE_BOUND('',#228,.T.);
#269=FACE_BOUND('',#229,.T.);
#270=FACE_BOUND('',#230,.T.);
#271=FACE_BOUND('',#231,.T.);
#272=FACE_BOUND('',#232,.T.);
#273=FACE_BOUND('',#233,.T.);
#274=FACE_BOUND('',#234,.T.);
#275=FACE_BOUND('',#235,.T.);
#276=FACE_BOUND('',#236,.T.);
#277=FACE_BOUND('',#237,.T.);
#278=FACE_BOUND('',#238,.T.);
#279=FACE_BOUND('',#239,.T.);
#280=FACE_BOUND('',#240,.T.);
#281=FACE_BOUND('',#241,.T.);
#282=FACE_BOUND('',#242,.T.);
#283=FACE_BOUND('',#243,.T.);
#284=FACE_BOUND('',#244,.T.);
#285=FACE_BOUND('',#245,.T.);
#286=FACE_BOUND('',#246,.T.);
#287=FACE_BOUND('',#247,.T.);
#288=FACE_BOUND('',#248,.T.);
#289=FACE_BOUND('',#249,.T.);
#290=FACE_BOUND('',#250,.T.);
#291=FACE_BOUND('',#251,.T.);
#292=FACE_BOUND('',#252,.T.);
#293=FACE_BOUND('',#253,.T.);
#294=PLANE('',#496);
#295=PLANE('',#502);
#296=PLANE('',#506);
#297=PLANE('',#510);
#298=PLANE('',#528);
#299=PLANE('',#529);
#300=PLANE('',#530);
#301=PLANE('',#531);
#302=PLANE('',#532);
#303=PLANE('',#533);
#304=PLANE('',#534);
#305=STYLED_ITEM('',(#328),#468);
#306=STYLED_ITEM('',(#329),#469);
#307=STYLED_ITEM('',(#330),#470);
#308=STYLED_ITEM('',(#331),#471);
#309=STYLED_ITEM('',(#332),#472);
#310=STYLED_ITEM('',(#333),#473);
#311=STYLED_ITEM('',(#334),#474);
#312=STYLED_ITEM('',(#335),#475);
#313=STYLED_ITEM('',(#336),#476);
#314=STYLED_ITEM('',(#337),#477);
#315=STYLED_ITEM('',(#338),#478);
#316=STYLED_ITEM('',(#339),#479);
#317=STYLED_ITEM('',(#340),#480);
#318=STYLED_ITEM('',(#341),#481);
#319=STYLED_ITEM('',(#342),#482);
#320=STYLED_ITEM('',(#343),#483);
#321=STYLED_ITEM('',(#344),#484);
#322=STYLED_ITEM('',(#345),#485);
#323=STYLED_ITEM('',(#346),#486);
#324=STYLED_ITEM('',(#347),#487);
#325=STYLED_ITEM('',(#348),#488);
#326=STYLED_ITEM('',(#349),#489);
#327=STYLED_ITEM('',(#350),#490);
#328=PRESENTATION_STYLE_ASSIGNMENT((#351));
#329=PRESENTATION_STYLE_ASSIGNMENT((#352));
#330=PRESENTATION_STYLE_ASSIGNMENT((#353));
#331=PRESENTATION_STYLE_ASSIGNMENT((#354));
#332=PRESENTATION_STYLE_ASSIGNMENT((#355));
#333=PRESENTATION_STYLE_ASSIGNMENT((#356));
#334=PRESENTATION_STYLE_ASSIGNMENT((#357));
#335=PRESENTATION_STYLE_ASSIGNMENT((#358));
#336=PRESENTATION_STYLE_ASSIGNMENT((#359));
#337=PRESENTATION_STYLE_ASSIGNMENT((#360));
#338=PRESENTATION_STYLE_ASSIGNMENT((#361));
#339=PRESENTATION_STYLE_ASSIGNMENT((#362));
#340=PRESENTATION_STYLE_ASSIGNMENT((#363));
#341=PRESENTATION_STYLE_ASSIGNMENT((#364));
#342=PRESENTATION_STYLE_ASSIGNMENT((#365));
#343=PRESENTATION_STYLE_ASSIGNMENT((#366));
#344=PRESENTATION_STYLE_ASSIGNMENT((#367));
#345=PRESENTATION_STYLE_ASSIGNMENT((#368));
#346=PRESENTATION_STYLE_ASSIGNMENT((#369));
#347=PRESENTATION_STYLE_ASSIGNMENT((#370));
#348=PRESENTATION_STYLE_ASSIGNMENT((#371));
#349=PRESENTATION_STYLE_ASSIGNMENT((#372));
#350=PRESENTATION_STYLE_ASSIGNMENT((#373));
#351=SURFACE_STYLE_USAGE(.BOTH.,#374);
#352=SURFACE_STYLE_USAGE(.BOTH.,#375);
#353=SURFACE_STYLE_USAGE(.BOTH.,#376);
#354=SURFACE_STYLE_USAGE(.BOTH.,#377);
#355=SURFACE_STYLE_USAGE(.BOTH.,#378);
#356=SURFACE_STYLE_USAGE(.BOTH.,#379);
#357=SURFACE_STYLE_USAGE(.BOTH.,#380);
#358=SURFACE_STYLE_USAGE(.BOTH.,#381);
#359=SURFACE_STYLE_USAGE(.BOTH.,#382);
#360=SURFACE_STYLE_USAGE(.BOTH.,#383);
#361=SURFACE_STYLE_USAGE(.BOTH.,#384);
#362=SURFACE_STYLE_USAGE(.BOTH.,#385);
#363=SURFACE_STYLE_USAGE(.BOTH.,#386);
#364=SURFACE_STYLE_USAGE(.BOTH.,#387);
#365=SURFACE_STYLE_USAGE(.BOTH.,#388);
#366=SURFACE_STYLE_USAGE(.BOTH.,#389);
#367=SURFACE_STYLE_USAGE(.BOTH.,#390);
#368=SURFACE_STYLE_USAGE(.BOTH.,#391);
#369=SURFACE_STYLE_USAGE(.BOTH.,#392);
#370=SURFACE_STYLE_USAGE(.BOTH.,#393);
#371=SURFACE_STYLE_USAGE(.BOTH.,#394);
#372=SURFACE_STYLE_USAGE(.BOTH.,#395);
#373=SURFACE_STYLE_USAGE(.BOTH.,#396);
#374=SURFACE_SIDE_STYLE('',(#397));
#375=SURFACE_SIDE_STYLE('',(#398));
#376=SURFACE_SIDE_STYLE('',(#399));
#377=SURFACE_SIDE_STYLE('',(#400));
#378=SURFACE_SIDE_STYLE('',(#401));
#379=SURFACE_SIDE_STYLE('',(#402));
#380=SURFACE_SIDE_STYLE('',(#403));
#381=SURFACE_SIDE_STYLE('',(#404));
#382=SURFACE_SIDE_STYLE('',(#405));
#383=SURFACE_SIDE_STYLE('',(#406));
#384=SURFACE_SIDE_STYLE('',(#407));
#385=SURFACE_SIDE_STYLE('',(#408));
#386=SURFACE_SIDE_STYLE('',(#409));
#387=SURFACE_SIDE_STYLE('',(#410));
#388=SURFACE_SIDE_STYLE('',(#411));
#389=SURFACE_SIDE_STYLE('',(#412));
#390=SURFACE_SIDE_STYLE('',(#413));
#391=SURFACE_SIDE_STYLE('',(#414));
#392=SURFACE_SIDE_STYLE('',(#415));
#393=SURFACE_SIDE_STYLE('',(#416));
#394=SURFACE_SIDE_STYLE('',(#417));
#395=SURFACE_SIDE_STYLE('',(#418));
#396=SURFACE_SIDE_STYLE('',(#419));
#397=SURFACE_STYLE_FILL_AREA(#420);
#398=SURFACE_STYLE_FILL_AREA(#421);
#399=SURFACE_STYLE_FILL_AREA(#422);
#400=SURFACE_STYLE_FILL_AREA(#423);
#401=SURFACE_STYLE_FILL_AREA(#424);
#402=SURFACE_STYLE_FILL_AREA(#425);
#403=SURFACE_STYLE_FILL_AREA(#426);
#404=SURFACE_STYLE_FILL_AREA(#427);
#405=SURFACE_STYLE_FILL_AREA(#428);
#406=SURFACE_STYLE_FILL_AREA(#429);
#407=SURFACE_STYLE_FILL_AREA(#430);
#408=SURFACE_STYLE_FILL_AREA(#431);
#409=SURFACE_STYLE_FILL_AREA(#432);
#410=SURFACE_STYLE_FILL_AREA(#433);
#411=SURFACE_STYLE_FILL_AREA(#434);
#412=SURFACE_STYLE_FILL_AREA(#435);
#413=SURFACE_STYLE_FILL_AREA(#436);
#414=SURFACE_STYLE_FILL_AREA(#437);
#415=SURFACE_STYLE_FILL_AREA(#438);
#416=SURFACE_STYLE_FILL_AREA(#439);
#417=SURFACE_STYLE_FILL_AREA(#440);
#418=SURFACE_STYLE_FILL_AREA(#441);
#419=SURFACE_STYLE_FILL_AREA(#442);
#420=FILL_AREA_STYLE('',(#443));
#421=FILL_AREA_STYLE('',(#444));
#422=FILL_AREA_STYLE('',(#445));
#423=FILL_AREA_STYLE('',(#446));
#424=FILL_AREA_STYLE('',(#447));
#425=FILL_AREA_STYLE('',(#448));
#426=FILL_AREA_STYLE('',(#449));
#427=FILL_AREA_STYLE('',(#450));
#428=FILL_AREA_STYLE('',(#451));
#429=FILL_AREA_STYLE('',(#452));
#430=FILL_AREA_STYLE('',(#453));
#431=FILL_AREA_STYLE('',(#454));
#432=FILL_AREA_STYLE('',(#455));
#433=FILL_AREA_STYLE('',(#456));
#434=FILL_AREA_STYLE('',(#457));
#435=FILL_AREA_STYLE('',(#458));
#436=FILL_AREA_STYLE('',(#459));
#437=FILL_AREA_STYLE('',(#460));
#438=FILL_AREA_STYLE('',(#461));
#439=FILL_AREA_STYLE('',(#462));
#440=FILL_AREA_STYLE('',(#463));
#441=FILL_AREA_STYLE('',(#464));
#442=FILL_AREA_STYLE('',(#465));
#443=FILL_AREA_STYLE_COLOUR('',#466);
#444=FILL_AREA_STYLE_COLOUR('',#466);
#445=FILL_AREA_STYLE_COLOUR('',#466);
#446=FILL_AREA_STYLE_COLOUR('',#467);
#447=FILL_AREA_STYLE_COLOUR('',#466);
#448=FILL_AREA_STYLE_COLOUR('',#466);
#449=FILL_AREA_STYLE_COLOUR('',#466);
#450=FILL_AREA_STYLE_COLOUR('',#466);
#451=FILL_AREA_STYLE_COLOUR('',#467);
#452=FILL_AREA_STYLE_COLOUR('',#467);
#453=FILL_AREA_STYLE_COLOUR('',#467);
#454=FILL_AREA_STYLE_COLOUR('',#467);
#455=FILL_AREA_STYLE_COLOUR('',#467);
#456=FILL_AREA_STYLE_COLOUR('',#467);
#457=FILL_AREA_STYLE_COLOUR('',#467);
#458=FILL_AREA_STYLE_COLOUR('',#467);
#459=FILL_AREA_STYLE_COLOUR('',#466);
#460=FILL_AREA_STYLE_COLOUR('',#466);
#461=FILL_AREA_STYLE_COLOUR('',#466);
#462=FILL_AREA_STYLE_COLOUR('',#466);
#463=FILL_AREA_STYLE_COLOUR('',#466);
#464=FILL_AREA_STYLE_COLOUR('',#466);
#465=FILL_AREA_STYLE_COLOUR('',#466);
#466=COLOUR_RGB('',0.75300002098083,0.75300002098083,0.75300002098083);
#467=COLOUR_RGB('',0.379999995231628,0.400000005960464,0.400000005960464);
#468=ADVANCED_FACE('',(#254,#255),#294,.F.);
#469=ADVANCED_FACE('',(#256,#257),#27,.T.);
#470=ADVANCED_FACE('',(#258,#259),#22,.T.);
#471=ADVANCED_FACE('',(#260,#261),#295,.F.);
#472=ADVANCED_FACE('',(#262,#263),#23,.F.);
#473=ADVANCED_FACE('',(#264,#265),#296,.F.);
#474=ADVANCED_FACE('',(#266,#267),#24,.T.);
#475=ADVANCED_FACE('',(#268,#269),#297,.F.);
#476=ADVANCED_FACE('',(#270,#271),#20,.T.);
#477=ADVANCED_FACE('',(#272,#273),#25,.T.);
#478=ADVANCED_FACE('',(#274,#275),#21,.F.);
#479=ADVANCED_FACE('',(#276,#277),#28,.T.);
#480=ADVANCED_FACE('',(#278,#279),#29,.T.);
#481=ADVANCED_FACE('',(#280,#281),#30,.F.);
#482=ADVANCED_FACE('',(#282,#283),#31,.F.);
#483=ADVANCED_FACE('',(#284,#285),#26,.F.);
#484=ADVANCED_FACE('',(#286,#287),#298,.F.);
#485=ADVANCED_FACE('',(#288),#299,.F.);
#486=ADVANCED_FACE('',(#289),#300,.F.);
#487=ADVANCED_FACE('',(#290),#301,.F.);
#488=ADVANCED_FACE('',(#291),#302,.F.);
#489=ADVANCED_FACE('',(#292),#303,.F.);
#490=ADVANCED_FACE('',(#293),#304,.F.);
#491=CLOSED_SHELL('',(#468,#469,#470,#471,#472,#473,#474,#475,#476,#477,
#478,#479,#480,#481,#482,#483,#484,#485,#486,#487,#488,#489,#490));
#492=MANIFOLD_SOLID_BREP('189345 ESS-30-EF',#491);
#493=SHAPE_DEFINITION_REPRESENTATION(#725,#494);
#494=SHAPE_REPRESENTATION('189345 ESS-30-EF',(#495),#720);
#495=AXIS2_PLACEMENT_3D('',#633,#535,#536);
#496=AXIS2_PLACEMENT_3D('',#634,#537,#538);
#497=AXIS2_PLACEMENT_3D('',#635,#539,#540);
#498=AXIS2_PLACEMENT_3D('',#649,#547,#548);
#499=AXIS2_PLACEMENT_3D('',#650,#549,#550);
#500=AXIS2_PLACEMENT_3D('',#652,#551,#552);
#501=AXIS2_PLACEMENT_3D('',#653,#553,#554);
#502=AXIS2_PLACEMENT_3D('',#655,#555,#556);
#503=AXIS2_PLACEMENT_3D('',#656,#557,#558);
#504=AXIS2_PLACEMENT_3D('',#658,#559,#560);
#505=AXIS2_PLACEMENT_3D('',#659,#561,#562);
#506=AXIS2_PLACEMENT_3D('',#661,#563,#564);
#507=AXIS2_PLACEMENT_3D('',#662,#565,#566);
#508=AXIS2_PLACEMENT_3D('',#664,#567,#568);
#509=AXIS2_PLACEMENT_3D('',#665,#569,#570);
#510=AXIS2_PLACEMENT_3D('',#667,#571,#572);
#511=AXIS2_PLACEMENT_3D('',#668,#573,#574);
#512=AXIS2_PLACEMENT_3D('',#670,#575,#576);
#513=AXIS2_PLACEMENT_3D('',#671,#577,#578);
#514=AXIS2_PLACEMENT_3D('',#673,#579,#580);
#515=AXIS2_PLACEMENT_3D('',#674,#581,#582);
#516=AXIS2_PLACEMENT_3D('',#676,#583,#584);
#517=AXIS2_PLACEMENT_3D('',#677,#585,#586);
#518=AXIS2_PLACEMENT_3D('',#679,#587,#588);
#519=AXIS2_PLACEMENT_3D('',#680,#589,#590);
#520=AXIS2_PLACEMENT_3D('',#682,#591,#592);
#521=AXIS2_PLACEMENT_3D('',#683,#593,#594);
#522=AXIS2_PLACEMENT_3D('',#685,#595,#596);
#523=AXIS2_PLACEMENT_3D('',#686,#597,#598);
#524=AXIS2_PLACEMENT_3D('',#688,#599,#600);
#525=AXIS2_PLACEMENT_3D('',#689,#601,#602);
#526=AXIS2_PLACEMENT_3D('',#691,#603,#604);
#527=AXIS2_PLACEMENT_3D('',#692,#605,#606);
#528=AXIS2_PLACEMENT_3D('',#694,#607,#608);
#529=AXIS2_PLACEMENT_3D('',#707,#615,#616);
#530=AXIS2_PLACEMENT_3D('',#710,#619,#620);
#531=AXIS2_PLACEMENT_3D('',#712,#622,#623);
#532=AXIS2_PLACEMENT_3D('',#714,#625,#626);
#533=AXIS2_PLACEMENT_3D('',#716,#628,#629);
#534=AXIS2_PLACEMENT_3D('',#718,#631,#632);
#535=DIRECTION('',(0.,0.,1.));
#536=DIRECTION('',(1.,0.,0.));
#537=DIRECTION('',(0.,-1.,0.));
#538=DIRECTION('',(0.,0.,-1.));
#539=DIRECTION('',(0.,-1.,0.));
#540=DIRECTION('',(0.,0.,-1.));
#541=DIRECTION('',(0.866025403784439,0.,-0.5));
#542=DIRECTION('',(0.866025403784439,0.,0.5));
#543=DIRECTION('',(0.,0.,1.));
#544=DIRECTION('',(-0.866025403784439,0.,0.5));
#545=DIRECTION('',(-0.866025403784439,0.,-0.5));
#546=DIRECTION('',(0.,0.,-1.));
#547=DIRECTION('',(0.,-1.,0.));
#548=DIRECTION('',(0.,0.,-1.));
#549=DIRECTION('',(0.,-1.,0.));
#550=DIRECTION('',(0.,0.,-1.));
#551=DIRECTION('',(0.,-1.,0.));
#552=DIRECTION('',(0.,0.,-1.));
#553=DIRECTION('',(0.,-1.,0.));
#554=DIRECTION('',(0.,0.,-1.));
#555=DIRECTION('',(0.,-1.,0.));
#556=DIRECTION('',(0.,0.,-1.));
#557=DIRECTION('',(0.,-1.,0.));
#558=DIRECTION('',(0.,0.,-1.));
#559=DIRECTION('',(0.,-1.,0.));
#560=DIRECTION('',(0.,0.,-1.));
#561=DIRECTION('',(0.,-1.,0.));
#562=DIRECTION('',(0.,0.,-1.));
#563=DIRECTION('',(0.,-1.,0.));
#564=DIRECTION('',(0.,0.,-1.));
#565=DIRECTION('',(0.,-1.,0.));
#566=DIRECTION('',(0.,0.,-1.));
#567=DIRECTION('',(0.,-1.,0.));
#568=DIRECTION('',(0.,0.,-1.));
#569=DIRECTION('',(0.,-1.,0.));
#570=DIRECTION('',(0.,0.,-1.));
#571=DIRECTION('',(0.,1.,0.));
#572=DIRECTION('',(0.,0.,1.));
#573=DIRECTION('',(0.,-1.,0.));
#574=DIRECTION('',(0.,0.,-1.));
#575=DIRECTION('',(0.,-1.,0.));
#576=DIRECTION('',(0.,0.,-1.));
#577=DIRECTION('',(0.,-1.,0.));
#578=DIRECTION('',(0.,0.,-1.));
#579=DIRECTION('',(0.,-1.,0.));
#580=DIRECTION('',(0.,0.,-1.));
#581=DIRECTION('',(0.,-1.,0.));
#582=DIRECTION('',(0.,0.,-1.));
#583=DIRECTION('',(0.,-1.,0.));
#584=DIRECTION('',(0.,0.,-1.));
#585=DIRECTION('',(0.,-1.,0.));
#586=DIRECTION('',(0.,0.,-1.));
#587=DIRECTION('',(0.,-1.,0.));
#588=DIRECTION('',(0.,0.,-1.));
#589=DIRECTION('',(0.,-1.,0.));
#590=DIRECTION('',(0.,0.,-1.));
#591=DIRECTION('',(0.,1.,0.));
#592=DIRECTION('',(0.,0.,1.));
#593=DIRECTION('',(0.,-1.,0.));
#594=DIRECTION('',(0.,0.,-1.));
#595=DIRECTION('',(0.,-1.,0.));
#596=DIRECTION('',(0.,0.,-1.));
#597=DIRECTION('',(0.,-1.,0.));
#598=DIRECTION('',(0.,0.,-1.));
#599=DIRECTION('',(0.,-1.,0.));
#600=DIRECTION('',(0.,0.,-1.));
#601=DIRECTION('',(0.,-1.,0.));
#602=DIRECTION('',(0.,0.,-1.));
#603=DIRECTION('',(0.,-1.,0.));
#604=DIRECTION('',(0.,0.,-1.));
#605=DIRECTION('',(0.,-1.,0.));
#606=DIRECTION('',(0.,0.,-1.));
#607=DIRECTION('',(0.,1.,0.));
#608=DIRECTION('',(0.,0.,1.));
#609=DIRECTION('',(0.866025403784439,0.,-0.5));
#610=DIRECTION('',(0.,0.,-1.));
#611=DIRECTION('',(-0.866025403784439,0.,-0.5));
#612=DIRECTION('',(-0.866025403784439,0.,0.5));
#613=DIRECTION('',(0.,0.,1.));
#614=DIRECTION('',(0.866025403784439,0.,0.5));
#615=DIRECTION('',(-1.,0.,0.));
#616=DIRECTION('',(0.,0.,1.));
#617=DIRECTION('',(0.,1.,0.));
#618=DIRECTION('',(0.,1.,0.));
#619=DIRECTION('',(-0.5,0.,0.866025403784439));
#620=DIRECTION('',(0.866025403784439,0.,0.5));
#621=DIRECTION('',(0.,1.,0.));
#622=DIRECTION('',(0.5,0.,0.866025403784439));
#623=DIRECTION('',(0.866025403784439,0.,-0.5));
#624=DIRECTION('',(0.,1.,0.));
#625=DIRECTION('',(1.,0.,0.));
#626=DIRECTION('',(0.,0.,-1.));
#627=DIRECTION('',(0.,1.,0.));
#628=DIRECTION('',(0.5,0.,-0.866025403784439));
#629=DIRECTION('',(-0.866025403784439,0.,-0.5));
#630=DIRECTION('',(0.,1.,0.));
#631=DIRECTION('',(-0.5,0.,-0.866025403784439));
#632=DIRECTION('',(-0.866025403784439,0.,0.5));
#633=CARTESIAN_POINT('',(0.,0.,0.));
#634=CARTESIAN_POINT('',(0.,19.,0.));
#635=CARTESIAN_POINT('',(0.,19.,0.));
#636=CARTESIAN_POINT('',(0.,19.,-2.3865));
#637=CARTESIAN_POINT('',(0.,19.,1.73205080756888));
#638=CARTESIAN_POINT('',(0.,19.,1.73205080756888));
#639=CARTESIAN_POINT('',(1.5,19.,0.866025403784439));
#640=CARTESIAN_POINT('',(-1.5,19.,0.866025403784439));
#641=CARTESIAN_POINT('',(-1.5,19.,0.866025403784439));
#642=CARTESIAN_POINT('',(-1.5,19.,-0.866025403784439));
#643=CARTESIAN_POINT('',(-1.5,19.,-0.866025403784439));
#644=CARTESIAN_POINT('',(0.,19.,-1.73205080756888));
#645=CARTESIAN_POINT('',(1.0842021724855E-16,19.,-1.73205080756888));
#646=CARTESIAN_POINT('',(1.5,19.,-0.866025403784439));
#647=CARTESIAN_POINT('',(1.5,19.,-0.866025403784438));
#648=CARTESIAN_POINT('',(1.5,19.,0.866025403784439));
#649=CARTESIAN_POINT('',(0.,19.,0.));
#650=CARTESIAN_POINT('',(0.,18.3865,0.));
#651=CARTESIAN_POINT('',(0.,18.3865,-3.));
#652=CARTESIAN_POINT('',(0.,10.6,0.));
#653=CARTESIAN_POINT('',(0.,14.,0.));
#654=CARTESIAN_POINT('',(0.,14.,-3.));
#655=CARTESIAN_POINT('',(3.,14.,0.));
#656=CARTESIAN_POINT('',(0.,14.,0.));
#657=CARTESIAN_POINT('',(0.,14.,-5.25));
#658=CARTESIAN_POINT('',(0.,10.6,0.));
#659=CARTESIAN_POINT('',(0.,15.6,0.));
#660=CARTESIAN_POINT('',(0.,15.6,-5.25));
#661=CARTESIAN_POINT('',(5.25,15.6,0.));
#662=CARTESIAN_POINT('',(0.,15.6,0.));
#663=CARTESIAN_POINT('',(0.,15.6,-7.75));
#664=CARTESIAN_POINT('',(0.,10.6,0.));
#665=CARTESIAN_POINT('',(0.,14.,0.));
#666=CARTESIAN_POINT('',(0.,14.,-7.75));
#667=CARTESIAN_POINT('',(7.75,14.,0.));
#668=CARTESIAN_POINT('',(0.,14.,0.));
#669=CARTESIAN_POINT('',(0.,14.,-7.4375));
#670=CARTESIAN_POINT('',(0.,12.9375,0.));
#671=CARTESIAN_POINT('',(0.,12.9375,0.));
#672=CARTESIAN_POINT('',(0.,12.9375,-8.5));
#673=CARTESIAN_POINT('',(0.,10.6,0.));
#674=CARTESIAN_POINT('',(0.,6.50438636659464,0.));
#675=CARTESIAN_POINT('',(0.,6.50438636659464,-8.5));
#676=CARTESIAN_POINT('',(0.,6.50438636659464,0.));
#677=CARTESIAN_POINT('',(0.,5.26665905522727,0.));
#678=CARTESIAN_POINT('',(0.,5.26665905522727,-9.15263284067926));
#679=CARTESIAN_POINT('',(0.,5.26665905522727,0.));
#680=CARTESIAN_POINT('',(0.,0.749999999999999,0.));
#681=CARTESIAN_POINT('',(0.,0.749999999999999,-15.75));
#682=CARTESIAN_POINT('',(0.,0.749999999999999,0.));
#683=CARTESIAN_POINT('',(0.,0.,0.));
#684=CARTESIAN_POINT('',(0.,0.,-15.));
#685=CARTESIAN_POINT('',(0.,0.,0.));
#686=CARTESIAN_POINT('',(0.,3.60634223454444,0.));
#687=CARTESIAN_POINT('',(0.,3.60634223454444,-9.73230909560925));
#688=CARTESIAN_POINT('',(0.,3.60634223454444,0.));
#689=CARTESIAN_POINT('',(0.,4.39205208867137,0.));
#690=CARTESIAN_POINT('',(0.,4.39205208867137,-6.8));
#691=CARTESIAN_POINT('',(0.,10.6,0.));
#692=CARTESIAN_POINT('',(0.,10.6,0.));
#693=CARTESIAN_POINT('',(0.,10.6,-6.8));
#694=CARTESIAN_POINT('',(6.8,10.6,0.));
#695=CARTESIAN_POINT('',(5.85,10.6,-1.64544826719043));
#696=CARTESIAN_POINT('',(0.,10.6,1.73205080756888));
#697=CARTESIAN_POINT('',(1.5,10.6,0.866025403784439));
#698=CARTESIAN_POINT('',(1.5,10.6,0.));
#699=CARTESIAN_POINT('',(1.5,10.6,-0.866025403784438));
#700=CARTESIAN_POINT('',(5.85,10.6,1.64544826719043));
#701=CARTESIAN_POINT('',(0.,10.6,-1.73205080756888));
#702=CARTESIAN_POINT('',(4.35,10.6,-4.24352447854375));
#703=CARTESIAN_POINT('',(-1.5,10.6,-0.866025403784439));
#704=CARTESIAN_POINT('',(-1.5,10.6,0.));
#705=CARTESIAN_POINT('',(-1.5,10.6,0.866025403784439));
#706=CARTESIAN_POINT('',(4.35,10.6,4.24352447854375));
#707=CARTESIAN_POINT('',(-1.5,3.4,-0.866025403784439));
#708=CARTESIAN_POINT('',(-1.5,3.4,-0.866025403784439));
#709=CARTESIAN_POINT('',(-1.5,3.4,0.866025403784439));
#710=CARTESIAN_POINT('',(-1.5,3.4,0.866025403784439));
#711=CARTESIAN_POINT('',(0.,3.4,1.73205080756888));
#712=CARTESIAN_POINT('',(0.,3.4,1.73205080756888));
#713=CARTESIAN_POINT('',(1.5,3.4,0.866025403784439));
#714=CARTESIAN_POINT('',(1.5,3.4,0.866025403784439));
#715=CARTESIAN_POINT('',(1.5,3.4,-0.866025403784438));
#716=CARTESIAN_POINT('',(1.5,3.4,-0.866025403784439));
#717=CARTESIAN_POINT('',(0.,3.4,-1.73205080756888));
#718=CARTESIAN_POINT('',(0.,3.4,-1.73205080756888));
#719=MECHANICAL_DESIGN_GEOMETRIC_PRESENTATION_REPRESENTATION('',(#305,#306,
#307,#308,#309,#310,#311,#312,#313,#314,#315,#316,#317,#318,#319,#320,#321,
#322,#323,#324,#325,#326,#327),#720);
#720=(
GEOMETRIC_REPRESENTATION_CONTEXT(3)
GLOBAL_UNCERTAINTY_ASSIGNED_CONTEXT((#721))
GLOBAL_UNIT_ASSIGNED_CONTEXT((#724,#723,#722))
REPRESENTATION_CONTEXT('189345 ESS-30-EF','TOP_LEVEL_ASSEMBLY_PART')
);
#721=UNCERTAINTY_MEASURE_WITH_UNIT(LENGTH_MEASURE(0.005),#724,
'DISTANCE_ACCURACY_VALUE','Maximum Tolerance applied to model');
#722=(
NAMED_UNIT(*)
SI_UNIT($,.STERADIAN.)
SOLID_ANGLE_UNIT()
);
#723=(
NAMED_UNIT(*)
PLANE_ANGLE_UNIT()
SI_UNIT($,.RADIAN.)
);
#724=(
LENGTH_UNIT()
NAMED_UNIT(*)
SI_UNIT(.MILLI.,.METRE.)
);
#725=PRODUCT_DEFINITION_SHAPE('','',#726);
#726=PRODUCT_DEFINITION('','',#728,#727);
#727=PRODUCT_DEFINITION_CONTEXT('',#734,'design');
#728=PRODUCT_DEFINITION_FORMATION_WITH_SPECIFIED_SOURCE('','',#730,
 .NOT_KNOWN.);
#729=PRODUCT_RELATED_PRODUCT_CATEGORY('','',(#730));
#730=PRODUCT('189345 ESS-30-EF','189345 ESS-30-EF','189345 ESS-30-EF',(#732));
#731=PRODUCT_CATEGORY('','');
#732=PRODUCT_CONTEXT('',#734,'mechanical');
#733=APPLICATION_PROTOCOL_DEFINITION('international standard',
'automotive_design',2010,#734);
#734=APPLICATION_CONTEXT(
'core data for automotive mechanical design processes');
ENDSEC;
END-ISO-10303-21;
