ISO-10303-21;
HEADER;
/* Generated by software containing ST-Developer
 * from STEP Tools, Inc. (www.steptools.com) 
 */
/* OPTION: using custom renumber hook */

FILE_DESCRIPTION(
/* description */ ('STEP AP214'),
/* implementation_level */ '2;1');

FILE_NAME(
/* name */ '189346_ESS-40-EN',
/* time_stamp */ '2024-08-28T09:21:55+02:00',
/* author */ ('License CC BY-ND 4.0'),
/* organization */ ('CADENAS'),
/* preprocessor_version */ 'ST-DEVELOPER v19.3',
/* originating_system */ 'PARTsolutions',
/* authorisation */ '  ');

FILE_SCHEMA (('AUTOMOTIVE_DESIGN {1 0 10303 214 3 1 1}'));
ENDSEC;

DATA;
#10=PROPERTY_DEFINITION_REPRESENTATION(#14,#12);
#11=PROPERTY_DEFINITION_REPRESENTATION(#15,#13);
#12=REPRESENTATION('',(#16),#747);
#13=REPRESENTATION('',(#17),#747);
#14=PROPERTY_DEFINITION('pmi validation property','',#752);
#15=PROPERTY_DEFINITION('pmi validation property','',#752);
#16=VALUE_REPRESENTATION_ITEM('number of annotations',COUNT_MEASURE(0.));
#17=VALUE_REPRESENTATION_ITEM('number of views',COUNT_MEASURE(0.));
#18=SHAPE_REPRESENTATION_RELATIONSHIP('','',#512,#19);
#19=ADVANCED_BREP_SHAPE_REPRESENTATION('',(#510),#747);
#20=LINE('',#688,#38);
#21=LINE('',#691,#39);
#22=LINE('',#693,#40);
#23=LINE('',#695,#41);
#24=LINE('',#697,#42);
#25=LINE('',#699,#43);
#26=LINE('',#715,#44);
#27=LINE('',#718,#45);
#28=LINE('',#720,#46);
#29=LINE('',#722,#47);
#30=LINE('',#724,#48);
#31=LINE('',#726,#49);
#32=LINE('',#735,#50);
#33=LINE('',#736,#51);
#34=LINE('',#738,#52);
#35=LINE('',#740,#53);
#36=LINE('',#742,#54);
#37=LINE('',#744,#55);
#38=VECTOR('',#597,1000.);
#39=VECTOR('',#598,1000.);
#40=VECTOR('',#599,1000.);
#41=VECTOR('',#600,1000.);
#42=VECTOR('',#601,1000.);
#43=VECTOR('',#602,1000.);
#44=VECTOR('',#623,1000.);
#45=VECTOR('',#624,1000.);
#46=VECTOR('',#625,1000.);
#47=VECTOR('',#626,1000.);
#48=VECTOR('',#627,1000.);
#49=VECTOR('',#628,1000.);
#50=VECTOR('',#641,1000.);
#51=VECTOR('',#642,1000.);
#52=VECTOR('',#645,1000.);
#53=VECTOR('',#648,1000.);
#54=VECTOR('',#651,1000.);
#55=VECTOR('',#654,1000.);
#56=COLOUR_RGB('',0.75300002098083,0.75300002098083,0.75300002098083);
#57=PLANE('',#527);
#58=PLANE('',#533);
#59=PLANE('',#534);
#60=PLANE('',#539);
#61=PLANE('',#542);
#62=PLANE('',#548);
#63=PLANE('',#549);
#64=PLANE('',#550);
#65=PLANE('',#551);
#66=PLANE('',#552);
#67=PLANE('',#553);
#68=PLANE('',#554);
#69=CONICAL_SURFACE('',#521,16.5056934417972,0.928006708454305);
#70=CONICAL_SURFACE('',#523,20.75,0.785398163397448);
#71=CONICAL_SURFACE('',#525,20.,0.928006708454306);
#72=CONICAL_SURFACE('',#529,12.5,1.30899693899575);
#73=CONICAL_SURFACE('',#544,2.3865,0.785398163397452);
#74=CYLINDRICAL_SURFACE('',#517,12.5);
#75=CYLINDRICAL_SURFACE('',#531,8.75);
#76=CYLINDRICAL_SURFACE('',#537,5.25);
#77=CYLINDRICAL_SURFACE('',#541,11.);
#78=CYLINDRICAL_SURFACE('',#546,3.);
#79=ORIENTED_EDGE('',*,*,#149,.T.);
#80=ORIENTED_EDGE('',*,*,#150,.F.);
#81=ORIENTED_EDGE('',*,*,#151,.F.);
#82=ORIENTED_EDGE('',*,*,#150,.T.);
#83=ORIENTED_EDGE('',*,*,#152,.F.);
#84=ORIENTED_EDGE('',*,*,#151,.T.);
#85=ORIENTED_EDGE('',*,*,#153,.F.);
#86=ORIENTED_EDGE('',*,*,#152,.T.);
#87=ORIENTED_EDGE('',*,*,#154,.F.);
#88=ORIENTED_EDGE('',*,*,#153,.T.);
#89=ORIENTED_EDGE('',*,*,#155,.F.);
#90=ORIENTED_EDGE('',*,*,#154,.T.);
#91=ORIENTED_EDGE('',*,*,#156,.F.);
#92=ORIENTED_EDGE('',*,*,#155,.T.);
#93=ORIENTED_EDGE('',*,*,#157,.F.);
#94=ORIENTED_EDGE('',*,*,#156,.T.);
#95=ORIENTED_EDGE('',*,*,#158,.F.);
#96=ORIENTED_EDGE('',*,*,#157,.T.);
#97=ORIENTED_EDGE('',*,*,#159,.T.);
#98=ORIENTED_EDGE('',*,*,#160,.T.);
#99=ORIENTED_EDGE('',*,*,#161,.T.);
#100=ORIENTED_EDGE('',*,*,#162,.T.);
#101=ORIENTED_EDGE('',*,*,#163,.T.);
#102=ORIENTED_EDGE('',*,*,#164,.T.);
#103=ORIENTED_EDGE('',*,*,#158,.T.);
#104=ORIENTED_EDGE('',*,*,#165,.T.);
#105=ORIENTED_EDGE('',*,*,#166,.F.);
#106=ORIENTED_EDGE('',*,*,#167,.T.);
#107=ORIENTED_EDGE('',*,*,#165,.F.);
#108=ORIENTED_EDGE('',*,*,#168,.T.);
#109=ORIENTED_EDGE('',*,*,#149,.F.);
#110=ORIENTED_EDGE('',*,*,#166,.T.);
#111=ORIENTED_EDGE('',*,*,#168,.F.);
#112=ORIENTED_EDGE('',*,*,#169,.F.);
#113=ORIENTED_EDGE('',*,*,#170,.F.);
#114=ORIENTED_EDGE('',*,*,#171,.F.);
#115=ORIENTED_EDGE('',*,*,#172,.F.);
#116=ORIENTED_EDGE('',*,*,#173,.F.);
#117=ORIENTED_EDGE('',*,*,#174,.F.);
#118=ORIENTED_EDGE('',*,*,#175,.T.);
#119=ORIENTED_EDGE('',*,*,#176,.F.);
#120=ORIENTED_EDGE('',*,*,#169,.T.);
#121=ORIENTED_EDGE('',*,*,#177,.F.);
#122=ORIENTED_EDGE('',*,*,#176,.T.);
#123=ORIENTED_EDGE('',*,*,#167,.F.);
#124=ORIENTED_EDGE('',*,*,#177,.T.);
#125=ORIENTED_EDGE('',*,*,#178,.T.);
#126=ORIENTED_EDGE('',*,*,#172,.T.);
#127=ORIENTED_EDGE('',*,*,#179,.F.);
#128=ORIENTED_EDGE('',*,*,#162,.F.);
#129=ORIENTED_EDGE('',*,*,#179,.T.);
#130=ORIENTED_EDGE('',*,*,#171,.T.);
#131=ORIENTED_EDGE('',*,*,#180,.F.);
#132=ORIENTED_EDGE('',*,*,#163,.F.);
#133=ORIENTED_EDGE('',*,*,#180,.T.);
#134=ORIENTED_EDGE('',*,*,#170,.T.);
#135=ORIENTED_EDGE('',*,*,#181,.F.);
#136=ORIENTED_EDGE('',*,*,#164,.F.);
#137=ORIENTED_EDGE('',*,*,#181,.T.);
#138=ORIENTED_EDGE('',*,*,#175,.F.);
#139=ORIENTED_EDGE('',*,*,#182,.F.);
#140=ORIENTED_EDGE('',*,*,#159,.F.);
#141=ORIENTED_EDGE('',*,*,#182,.T.);
#142=ORIENTED_EDGE('',*,*,#174,.T.);
#143=ORIENTED_EDGE('',*,*,#183,.F.);
#144=ORIENTED_EDGE('',*,*,#160,.F.);
#145=ORIENTED_EDGE('',*,*,#183,.T.);
#146=ORIENTED_EDGE('',*,*,#173,.T.);
#147=ORIENTED_EDGE('',*,*,#178,.F.);
#148=ORIENTED_EDGE('',*,*,#161,.F.);
#149=EDGE_CURVE('',#184,#184,#213,.T.);
#150=EDGE_CURVE('',#185,#185,#214,.T.);
#151=EDGE_CURVE('',#186,#186,#215,.T.);
#152=EDGE_CURVE('',#187,#187,#216,.T.);
#153=EDGE_CURVE('',#188,#188,#217,.T.);
#154=EDGE_CURVE('',#189,#189,#218,.T.);
#155=EDGE_CURVE('',#190,#190,#219,.T.);
#156=EDGE_CURVE('',#191,#191,#220,.T.);
#157=EDGE_CURVE('',#192,#192,#221,.T.);
#158=EDGE_CURVE('',#193,#193,#222,.T.);
#159=EDGE_CURVE('',#194,#195,#20,.T.);
#160=EDGE_CURVE('',#195,#196,#21,.T.);
#161=EDGE_CURVE('',#196,#197,#22,.T.);
#162=EDGE_CURVE('',#197,#198,#23,.T.);
#163=EDGE_CURVE('',#198,#199,#24,.T.);
#164=EDGE_CURVE('',#199,#194,#25,.T.);
#165=EDGE_CURVE('',#200,#200,#223,.T.);
#166=EDGE_CURVE('',#201,#201,#224,.T.);
#167=EDGE_CURVE('',#202,#202,#225,.T.);
#168=EDGE_CURVE('',#203,#203,#226,.T.);
#169=EDGE_CURVE('',#204,#204,#227,.T.);
#170=EDGE_CURVE('',#205,#206,#26,.T.);
#171=EDGE_CURVE('',#207,#205,#27,.T.);
#172=EDGE_CURVE('',#208,#207,#28,.T.);
#173=EDGE_CURVE('',#209,#208,#29,.T.);
#174=EDGE_CURVE('',#210,#209,#30,.T.);
#175=EDGE_CURVE('',#210,#206,#31,.T.);
#176=EDGE_CURVE('',#211,#211,#228,.T.);
#177=EDGE_CURVE('',#212,#212,#229,.T.);
#178=EDGE_CURVE('',#197,#208,#32,.T.);
#179=EDGE_CURVE('',#198,#207,#33,.T.);
#180=EDGE_CURVE('',#199,#205,#34,.T.);
#181=EDGE_CURVE('',#194,#206,#35,.T.);
#182=EDGE_CURVE('',#195,#210,#36,.T.);
#183=EDGE_CURVE('',#196,#209,#37,.T.);
#184=VERTEX_POINT('',#660);
#185=VERTEX_POINT('',#662);
#186=VERTEX_POINT('',#665);
#187=VERTEX_POINT('',#668);
#188=VERTEX_POINT('',#671);
#189=VERTEX_POINT('',#674);
#190=VERTEX_POINT('',#677);
#191=VERTEX_POINT('',#680);
#192=VERTEX_POINT('',#683);
#193=VERTEX_POINT('',#686);
#194=VERTEX_POINT('',#689);
#195=VERTEX_POINT('',#690);
#196=VERTEX_POINT('',#692);
#197=VERTEX_POINT('',#694);
#198=VERTEX_POINT('',#696);
#199=VERTEX_POINT('',#698);
#200=VERTEX_POINT('',#702);
#201=VERTEX_POINT('',#704);
#202=VERTEX_POINT('',#707);
#203=VERTEX_POINT('',#710);
#204=VERTEX_POINT('',#714);
#205=VERTEX_POINT('',#716);
#206=VERTEX_POINT('',#717);
#207=VERTEX_POINT('',#719);
#208=VERTEX_POINT('',#721);
#209=VERTEX_POINT('',#723);
#210=VERTEX_POINT('',#725);
#211=VERTEX_POINT('',#729);
#212=VERTEX_POINT('',#732);
#213=CIRCLE('',#515,10.9375);
#214=CIRCLE('',#516,12.5);
#215=CIRCLE('',#518,12.5);
#216=CIRCLE('',#520,16.5056934417972);
#217=CIRCLE('',#522,20.75);
#218=CIRCLE('',#524,20.);
#219=CIRCLE('',#526,13.25);
#220=CIRCLE('',#528,12.5);
#221=CIRCLE('',#530,8.75);
#222=CIRCLE('',#532,8.75);
#223=CIRCLE('',#535,5.25);
#224=CIRCLE('',#536,11.);
#225=CIRCLE('',#538,5.25);
#226=CIRCLE('',#540,11.);
#227=CIRCLE('',#543,2.3865);
#228=CIRCLE('',#545,3.);
#229=CIRCLE('',#547,3.);
#230=EDGE_LOOP('',(#79));
#231=EDGE_LOOP('',(#80));
#232=EDGE_LOOP('',(#81));
#233=EDGE_LOOP('',(#82));
#234=EDGE_LOOP('',(#83));
#235=EDGE_LOOP('',(#84));
#236=EDGE_LOOP('',(#85));
#237=EDGE_LOOP('',(#86));
#238=EDGE_LOOP('',(#87));
#239=EDGE_LOOP('',(#88));
#240=EDGE_LOOP('',(#89));
#241=EDGE_LOOP('',(#90));
#242=EDGE_LOOP('',(#91));
#243=EDGE_LOOP('',(#92));
#244=EDGE_LOOP('',(#93));
#245=EDGE_LOOP('',(#94));
#246=EDGE_LOOP('',(#95));
#247=EDGE_LOOP('',(#96));
#248=EDGE_LOOP('',(#97,#98,#99,#100,#101,#102));
#249=EDGE_LOOP('',(#103));
#250=EDGE_LOOP('',(#104));
#251=EDGE_LOOP('',(#105));
#252=EDGE_LOOP('',(#106));
#253=EDGE_LOOP('',(#107));
#254=EDGE_LOOP('',(#108));
#255=EDGE_LOOP('',(#109));
#256=EDGE_LOOP('',(#110));
#257=EDGE_LOOP('',(#111));
#258=EDGE_LOOP('',(#112));
#259=EDGE_LOOP('',(#113,#114,#115,#116,#117,#118));
#260=EDGE_LOOP('',(#119));
#261=EDGE_LOOP('',(#120));
#262=EDGE_LOOP('',(#121));
#263=EDGE_LOOP('',(#122));
#264=EDGE_LOOP('',(#123));
#265=EDGE_LOOP('',(#124));
#266=EDGE_LOOP('',(#125,#126,#127,#128));
#267=EDGE_LOOP('',(#129,#130,#131,#132));
#268=EDGE_LOOP('',(#133,#134,#135,#136));
#269=EDGE_LOOP('',(#137,#138,#139,#140));
#270=EDGE_LOOP('',(#141,#142,#143,#144));
#271=EDGE_LOOP('',(#145,#146,#147,#148));
#272=FACE_BOUND('',#230,.T.);
#273=FACE_BOUND('',#231,.T.);
#274=FACE_BOUND('',#232,.T.);
#275=FACE_BOUND('',#233,.T.);
#276=FACE_BOUND('',#234,.T.);
#277=FACE_BOUND('',#235,.T.);
#278=FACE_BOUND('',#236,.T.);
#279=FACE_BOUND('',#237,.T.);
#280=FACE_BOUND('',#238,.T.);
#281=FACE_BOUND('',#239,.T.);
#282=FACE_BOUND('',#240,.T.);
#283=FACE_BOUND('',#241,.T.);
#284=FACE_BOUND('',#242,.T.);
#285=FACE_BOUND('',#243,.T.);
#286=FACE_BOUND('',#244,.T.);
#287=FACE_BOUND('',#245,.T.);
#288=FACE_BOUND('',#246,.T.);
#289=FACE_BOUND('',#247,.T.);
#290=FACE_BOUND('',#248,.T.);
#291=FACE_BOUND('',#249,.T.);
#292=FACE_BOUND('',#250,.T.);
#293=FACE_BOUND('',#251,.T.);
#294=FACE_BOUND('',#252,.T.);
#295=FACE_BOUND('',#253,.T.);
#296=FACE_BOUND('',#254,.T.);
#297=FACE_BOUND('',#255,.T.);
#298=FACE_BOUND('',#256,.T.);
#299=FACE_BOUND('',#257,.T.);
#300=FACE_BOUND('',#258,.T.);
#301=FACE_BOUND('',#259,.T.);
#302=FACE_BOUND('',#260,.T.);
#303=FACE_BOUND('',#261,.T.);
#304=FACE_BOUND('',#262,.T.);
#305=FACE_BOUND('',#263,.T.);
#306=FACE_BOUND('',#264,.T.);
#307=FACE_BOUND('',#265,.T.);
#308=FACE_BOUND('',#266,.T.);
#309=FACE_BOUND('',#267,.T.);
#310=FACE_BOUND('',#268,.T.);
#311=FACE_BOUND('',#269,.T.);
#312=FACE_BOUND('',#270,.T.);
#313=FACE_BOUND('',#271,.T.);
#314=TOROIDAL_SURFACE('',#514,10.9375,1.5625);
#315=TOROIDAL_SURFACE('',#519,22.5,9.99999999999999);
#316=STYLED_ITEM('',(#340),#485);
#317=STYLED_ITEM('',(#341),#486);
#318=STYLED_ITEM('',(#342),#487);
#319=STYLED_ITEM('',(#343),#488);
#320=STYLED_ITEM('',(#344),#489);
#321=STYLED_ITEM('',(#345),#490);
#322=STYLED_ITEM('',(#346),#491);
#323=STYLED_ITEM('',(#347),#492);
#324=STYLED_ITEM('',(#348),#493);
#325=STYLED_ITEM('',(#349),#494);
#326=STYLED_ITEM('',(#350),#495);
#327=STYLED_ITEM('',(#351),#496);
#328=STYLED_ITEM('',(#352),#497);
#329=STYLED_ITEM('',(#353),#498);
#330=STYLED_ITEM('',(#354),#499);
#331=STYLED_ITEM('',(#355),#500);
#332=STYLED_ITEM('',(#356),#501);
#333=STYLED_ITEM('',(#357),#502);
#334=STYLED_ITEM('',(#358),#503);
#335=STYLED_ITEM('',(#359),#504);
#336=STYLED_ITEM('',(#360),#505);
#337=STYLED_ITEM('',(#361),#506);
#338=STYLED_ITEM('',(#362),#507);
#339=STYLED_ITEM('',(#363),#508);
#340=PRESENTATION_STYLE_ASSIGNMENT((#364));
#341=PRESENTATION_STYLE_ASSIGNMENT((#365));
#342=PRESENTATION_STYLE_ASSIGNMENT((#366));
#343=PRESENTATION_STYLE_ASSIGNMENT((#367));
#344=PRESENTATION_STYLE_ASSIGNMENT((#368));
#345=PRESENTATION_STYLE_ASSIGNMENT((#369));
#346=PRESENTATION_STYLE_ASSIGNMENT((#370));
#347=PRESENTATION_STYLE_ASSIGNMENT((#371));
#348=PRESENTATION_STYLE_ASSIGNMENT((#372));
#349=PRESENTATION_STYLE_ASSIGNMENT((#373));
#350=PRESENTATION_STYLE_ASSIGNMENT((#374));
#351=PRESENTATION_STYLE_ASSIGNMENT((#375));
#352=PRESENTATION_STYLE_ASSIGNMENT((#376));
#353=PRESENTATION_STYLE_ASSIGNMENT((#377));
#354=PRESENTATION_STYLE_ASSIGNMENT((#378));
#355=PRESENTATION_STYLE_ASSIGNMENT((#379));
#356=PRESENTATION_STYLE_ASSIGNMENT((#380));
#357=PRESENTATION_STYLE_ASSIGNMENT((#381));
#358=PRESENTATION_STYLE_ASSIGNMENT((#382));
#359=PRESENTATION_STYLE_ASSIGNMENT((#383));
#360=PRESENTATION_STYLE_ASSIGNMENT((#384));
#361=PRESENTATION_STYLE_ASSIGNMENT((#385));
#362=PRESENTATION_STYLE_ASSIGNMENT((#386));
#363=PRESENTATION_STYLE_ASSIGNMENT((#387));
#364=SURFACE_STYLE_USAGE(.BOTH.,#388);
#365=SURFACE_STYLE_USAGE(.BOTH.,#389);
#366=SURFACE_STYLE_USAGE(.BOTH.,#390);
#367=SURFACE_STYLE_USAGE(.BOTH.,#391);
#368=SURFACE_STYLE_USAGE(.BOTH.,#392);
#369=SURFACE_STYLE_USAGE(.BOTH.,#393);
#370=SURFACE_STYLE_USAGE(.BOTH.,#394);
#371=SURFACE_STYLE_USAGE(.BOTH.,#395);
#372=SURFACE_STYLE_USAGE(.BOTH.,#396);
#373=SURFACE_STYLE_USAGE(.BOTH.,#397);
#374=SURFACE_STYLE_USAGE(.BOTH.,#398);
#375=SURFACE_STYLE_USAGE(.BOTH.,#399);
#376=SURFACE_STYLE_USAGE(.BOTH.,#400);
#377=SURFACE_STYLE_USAGE(.BOTH.,#401);
#378=SURFACE_STYLE_USAGE(.BOTH.,#402);
#379=SURFACE_STYLE_USAGE(.BOTH.,#403);
#380=SURFACE_STYLE_USAGE(.BOTH.,#404);
#381=SURFACE_STYLE_USAGE(.BOTH.,#405);
#382=SURFACE_STYLE_USAGE(.BOTH.,#406);
#383=SURFACE_STYLE_USAGE(.BOTH.,#407);
#384=SURFACE_STYLE_USAGE(.BOTH.,#408);
#385=SURFACE_STYLE_USAGE(.BOTH.,#409);
#386=SURFACE_STYLE_USAGE(.BOTH.,#410);
#387=SURFACE_STYLE_USAGE(.BOTH.,#411);
#388=SURFACE_SIDE_STYLE('',(#412));
#389=SURFACE_SIDE_STYLE('',(#413));
#390=SURFACE_SIDE_STYLE('',(#414));
#391=SURFACE_SIDE_STYLE('',(#415));
#392=SURFACE_SIDE_STYLE('',(#416));
#393=SURFACE_SIDE_STYLE('',(#417));
#394=SURFACE_SIDE_STYLE('',(#418));
#395=SURFACE_SIDE_STYLE('',(#419));
#396=SURFACE_SIDE_STYLE('',(#420));
#397=SURFACE_SIDE_STYLE('',(#421));
#398=SURFACE_SIDE_STYLE('',(#422));
#399=SURFACE_SIDE_STYLE('',(#423));
#400=SURFACE_SIDE_STYLE('',(#424));
#401=SURFACE_SIDE_STYLE('',(#425));
#402=SURFACE_SIDE_STYLE('',(#426));
#403=SURFACE_SIDE_STYLE('',(#427));
#404=SURFACE_SIDE_STYLE('',(#428));
#405=SURFACE_SIDE_STYLE('',(#429));
#406=SURFACE_SIDE_STYLE('',(#430));
#407=SURFACE_SIDE_STYLE('',(#431));
#408=SURFACE_SIDE_STYLE('',(#432));
#409=SURFACE_SIDE_STYLE('',(#433));
#410=SURFACE_SIDE_STYLE('',(#434));
#411=SURFACE_SIDE_STYLE('',(#435));
#412=SURFACE_STYLE_FILL_AREA(#436);
#413=SURFACE_STYLE_FILL_AREA(#437);
#414=SURFACE_STYLE_FILL_AREA(#438);
#415=SURFACE_STYLE_FILL_AREA(#439);
#416=SURFACE_STYLE_FILL_AREA(#440);
#417=SURFACE_STYLE_FILL_AREA(#441);
#418=SURFACE_STYLE_FILL_AREA(#442);
#419=SURFACE_STYLE_FILL_AREA(#443);
#420=SURFACE_STYLE_FILL_AREA(#444);
#421=SURFACE_STYLE_FILL_AREA(#445);
#422=SURFACE_STYLE_FILL_AREA(#446);
#423=SURFACE_STYLE_FILL_AREA(#447);
#424=SURFACE_STYLE_FILL_AREA(#448);
#425=SURFACE_STYLE_FILL_AREA(#449);
#426=SURFACE_STYLE_FILL_AREA(#450);
#427=SURFACE_STYLE_FILL_AREA(#451);
#428=SURFACE_STYLE_FILL_AREA(#452);
#429=SURFACE_STYLE_FILL_AREA(#453);
#430=SURFACE_STYLE_FILL_AREA(#454);
#431=SURFACE_STYLE_FILL_AREA(#455);
#432=SURFACE_STYLE_FILL_AREA(#456);
#433=SURFACE_STYLE_FILL_AREA(#457);
#434=SURFACE_STYLE_FILL_AREA(#458);
#435=SURFACE_STYLE_FILL_AREA(#459);
#436=FILL_AREA_STYLE('',(#460));
#437=FILL_AREA_STYLE('',(#461));
#438=FILL_AREA_STYLE('',(#462));
#439=FILL_AREA_STYLE('',(#463));
#440=FILL_AREA_STYLE('',(#464));
#441=FILL_AREA_STYLE('',(#465));
#442=FILL_AREA_STYLE('',(#466));
#443=FILL_AREA_STYLE('',(#467));
#444=FILL_AREA_STYLE('',(#468));
#445=FILL_AREA_STYLE('',(#469));
#446=FILL_AREA_STYLE('',(#470));
#447=FILL_AREA_STYLE('',(#471));
#448=FILL_AREA_STYLE('',(#472));
#449=FILL_AREA_STYLE('',(#473));
#450=FILL_AREA_STYLE('',(#474));
#451=FILL_AREA_STYLE('',(#475));
#452=FILL_AREA_STYLE('',(#476));
#453=FILL_AREA_STYLE('',(#477));
#454=FILL_AREA_STYLE('',(#478));
#455=FILL_AREA_STYLE('',(#479));
#456=FILL_AREA_STYLE('',(#480));
#457=FILL_AREA_STYLE('',(#481));
#458=FILL_AREA_STYLE('',(#482));
#459=FILL_AREA_STYLE('',(#483));
#460=FILL_AREA_STYLE_COLOUR('',#484);
#461=FILL_AREA_STYLE_COLOUR('',#484);
#462=FILL_AREA_STYLE_COLOUR('',#484);
#463=FILL_AREA_STYLE_COLOUR('',#484);
#464=FILL_AREA_STYLE_COLOUR('',#484);
#465=FILL_AREA_STYLE_COLOUR('',#484);
#466=FILL_AREA_STYLE_COLOUR('',#484);
#467=FILL_AREA_STYLE_COLOUR('',#484);
#468=FILL_AREA_STYLE_COLOUR('',#484);
#469=FILL_AREA_STYLE_COLOUR('',#56);
#470=FILL_AREA_STYLE_COLOUR('',#56);
#471=FILL_AREA_STYLE_COLOUR('',#56);
#472=FILL_AREA_STYLE_COLOUR('',#484);
#473=FILL_AREA_STYLE_COLOUR('',#56);
#474=FILL_AREA_STYLE_COLOUR('',#56);
#475=FILL_AREA_STYLE_COLOUR('',#56);
#476=FILL_AREA_STYLE_COLOUR('',#56);
#477=FILL_AREA_STYLE_COLOUR('',#484);
#478=FILL_AREA_STYLE_COLOUR('',#56);
#479=FILL_AREA_STYLE_COLOUR('',#56);
#480=FILL_AREA_STYLE_COLOUR('',#56);
#481=FILL_AREA_STYLE_COLOUR('',#56);
#482=FILL_AREA_STYLE_COLOUR('',#56);
#483=FILL_AREA_STYLE_COLOUR('',#56);
#484=DRAUGHTING_PRE_DEFINED_COLOUR('black');
#485=ADVANCED_FACE('',(#272,#273),#314,.T.);
#486=ADVANCED_FACE('',(#274,#275),#74,.T.);
#487=ADVANCED_FACE('',(#276,#277),#315,.F.);
#488=ADVANCED_FACE('',(#278,#279),#69,.T.);
#489=ADVANCED_FACE('',(#280,#281),#70,.T.);
#490=ADVANCED_FACE('',(#282,#283),#71,.F.);
#491=ADVANCED_FACE('',(#284,#285),#57,.F.);
#492=ADVANCED_FACE('',(#286,#287),#72,.F.);
#493=ADVANCED_FACE('',(#288,#289),#75,.F.);
#494=ADVANCED_FACE('',(#290,#291),#58,.F.);
#495=ADVANCED_FACE('',(#292,#293),#59,.T.);
#496=ADVANCED_FACE('',(#294,#295),#76,.F.);
#497=ADVANCED_FACE('',(#296,#297),#60,.T.);
#498=ADVANCED_FACE('',(#298,#299),#77,.T.);
#499=ADVANCED_FACE('',(#300,#301),#61,.F.);
#500=ADVANCED_FACE('',(#302,#303),#73,.T.);
#501=ADVANCED_FACE('',(#304,#305),#78,.T.);
#502=ADVANCED_FACE('',(#306,#307),#62,.F.);
#503=ADVANCED_FACE('',(#308),#63,.F.);
#504=ADVANCED_FACE('',(#309),#64,.F.);
#505=ADVANCED_FACE('',(#310),#65,.F.);
#506=ADVANCED_FACE('',(#311),#66,.F.);
#507=ADVANCED_FACE('',(#312),#67,.F.);
#508=ADVANCED_FACE('',(#313),#68,.F.);
#509=CLOSED_SHELL('',(#485,#486,#487,#488,#489,#490,#491,#492,#493,#494,
#495,#496,#497,#498,#499,#500,#501,#502,#503,#504,#505,#506,#507,#508));
#510=MANIFOLD_SOLID_BREP('189346 ESS-40-EN',#509);
#511=SHAPE_DEFINITION_REPRESENTATION(#752,#512);
#512=SHAPE_REPRESENTATION('189346 ESS-40-EN',(#513),#747);
#513=AXIS2_PLACEMENT_3D('',#657,#555,#556);
#514=AXIS2_PLACEMENT_3D('',#658,#557,#558);
#515=AXIS2_PLACEMENT_3D('',#659,#559,#560);
#516=AXIS2_PLACEMENT_3D('',#661,#561,#562);
#517=AXIS2_PLACEMENT_3D('',#663,#563,#564);
#518=AXIS2_PLACEMENT_3D('',#664,#565,#566);
#519=AXIS2_PLACEMENT_3D('',#666,#567,#568);
#520=AXIS2_PLACEMENT_3D('',#667,#569,#570);
#521=AXIS2_PLACEMENT_3D('',#669,#571,#572);
#522=AXIS2_PLACEMENT_3D('',#670,#573,#574);
#523=AXIS2_PLACEMENT_3D('',#672,#575,#576);
#524=AXIS2_PLACEMENT_3D('',#673,#577,#578);
#525=AXIS2_PLACEMENT_3D('',#675,#579,#580);
#526=AXIS2_PLACEMENT_3D('',#676,#581,#582);
#527=AXIS2_PLACEMENT_3D('',#678,#583,#584);
#528=AXIS2_PLACEMENT_3D('',#679,#585,#586);
#529=AXIS2_PLACEMENT_3D('',#681,#587,#588);
#530=AXIS2_PLACEMENT_3D('',#682,#589,#590);
#531=AXIS2_PLACEMENT_3D('',#684,#591,#592);
#532=AXIS2_PLACEMENT_3D('',#685,#593,#594);
#533=AXIS2_PLACEMENT_3D('',#687,#595,#596);
#534=AXIS2_PLACEMENT_3D('',#700,#603,#604);
#535=AXIS2_PLACEMENT_3D('',#701,#605,#606);
#536=AXIS2_PLACEMENT_3D('',#703,#607,#608);
#537=AXIS2_PLACEMENT_3D('',#705,#609,#610);
#538=AXIS2_PLACEMENT_3D('',#706,#611,#612);
#539=AXIS2_PLACEMENT_3D('',#708,#613,#614);
#540=AXIS2_PLACEMENT_3D('',#709,#615,#616);
#541=AXIS2_PLACEMENT_3D('',#711,#617,#618);
#542=AXIS2_PLACEMENT_3D('',#712,#619,#620);
#543=AXIS2_PLACEMENT_3D('',#713,#621,#622);
#544=AXIS2_PLACEMENT_3D('',#727,#629,#630);
#545=AXIS2_PLACEMENT_3D('',#728,#631,#632);
#546=AXIS2_PLACEMENT_3D('',#730,#633,#634);
#547=AXIS2_PLACEMENT_3D('',#731,#635,#636);
#548=AXIS2_PLACEMENT_3D('',#733,#637,#638);
#549=AXIS2_PLACEMENT_3D('',#734,#639,#640);
#550=AXIS2_PLACEMENT_3D('',#737,#643,#644);
#551=AXIS2_PLACEMENT_3D('',#739,#646,#647);
#552=AXIS2_PLACEMENT_3D('',#741,#649,#650);
#553=AXIS2_PLACEMENT_3D('',#743,#652,#653);
#554=AXIS2_PLACEMENT_3D('',#745,#655,#656);
#555=DIRECTION('',(0.,0.,1.));
#556=DIRECTION('',(1.,0.,0.));
#557=DIRECTION('',(0.,-1.,0.));
#558=DIRECTION('',(0.,0.,-1.));
#559=DIRECTION('',(0.,-1.,0.));
#560=DIRECTION('',(0.,0.,-1.));
#561=DIRECTION('',(0.,-1.,0.));
#562=DIRECTION('',(0.,0.,-1.));
#563=DIRECTION('',(0.,-1.,0.));
#564=DIRECTION('',(0.,0.,-1.));
#565=DIRECTION('',(0.,-1.,0.));
#566=DIRECTION('',(0.,0.,-1.));
#567=DIRECTION('',(0.,-1.,0.));
#568=DIRECTION('',(0.,0.,-1.));
#569=DIRECTION('',(0.,-1.,0.));
#570=DIRECTION('',(0.,0.,-1.));
#571=DIRECTION('',(0.,-1.,0.));
#572=DIRECTION('',(0.,0.,-1.));
#573=DIRECTION('',(0.,-1.,0.));
#574=DIRECTION('',(0.,0.,-1.));
#575=DIRECTION('',(0.,1.,0.));
#576=DIRECTION('',(0.,0.,1.));
#577=DIRECTION('',(0.,-1.,0.));
#578=DIRECTION('',(0.,0.,-1.));
#579=DIRECTION('',(0.,-1.,0.));
#580=DIRECTION('',(0.,0.,-1.));
#581=DIRECTION('',(0.,-1.,0.));
#582=DIRECTION('',(0.,0.,-1.));
#583=DIRECTION('',(0.,1.,0.));
#584=DIRECTION('',(0.,0.,1.));
#585=DIRECTION('',(0.,-1.,0.));
#586=DIRECTION('',(0.,0.,-1.));
#587=DIRECTION('',(0.,-1.,0.));
#588=DIRECTION('',(0.,0.,-1.));
#589=DIRECTION('',(0.,-1.,0.));
#590=DIRECTION('',(0.,0.,-1.));
#591=DIRECTION('',(0.,-1.,0.));
#592=DIRECTION('',(0.,0.,-1.));
#593=DIRECTION('',(0.,-1.,0.));
#594=DIRECTION('',(0.,0.,-1.));
#595=DIRECTION('',(0.,1.,0.));
#596=DIRECTION('',(0.,0.,1.));
#597=DIRECTION('',(0.,0.,-1.));
#598=DIRECTION('',(-0.866025403784439,0.,-0.5));
#599=DIRECTION('',(-0.866025403784439,0.,0.5));
#600=DIRECTION('',(0.,0.,1.));
#601=DIRECTION('',(0.866025403784439,0.,0.5));
#602=DIRECTION('',(0.866025403784439,0.,-0.5));
#603=DIRECTION('',(0.,1.,0.));
#604=DIRECTION('',(0.,0.,1.));
#605=DIRECTION('',(0.,-1.,0.));
#606=DIRECTION('',(0.,0.,-1.));
#607=DIRECTION('',(0.,-1.,0.));
#608=DIRECTION('',(0.,0.,-1.));
#609=DIRECTION('',(0.,-1.,0.));
#610=DIRECTION('',(0.,0.,-1.));
#611=DIRECTION('',(0.,-1.,0.));
#612=DIRECTION('',(0.,0.,-1.));
#613=DIRECTION('',(0.,-1.,0.));
#614=DIRECTION('',(0.,0.,-1.));
#615=DIRECTION('',(0.,-1.,0.));
#616=DIRECTION('',(0.,0.,-1.));
#617=DIRECTION('',(0.,-1.,0.));
#618=DIRECTION('',(0.,0.,-1.));
#619=DIRECTION('',(0.,-1.,0.));
#620=DIRECTION('',(0.,0.,-1.));
#621=DIRECTION('',(0.,-1.,0.));
#622=DIRECTION('',(0.,0.,-1.));
#623=DIRECTION('',(0.866025403784439,0.,-0.5));
#624=DIRECTION('',(0.866025403784439,0.,0.5));
#625=DIRECTION('',(0.,0.,1.));
#626=DIRECTION('',(-0.866025403784439,0.,0.5));
#627=DIRECTION('',(-0.866025403784439,0.,-0.5));
#628=DIRECTION('',(0.,0.,1.));
#629=DIRECTION('',(0.,-1.,0.));
#630=DIRECTION('',(0.,0.,-1.));
#631=DIRECTION('',(0.,-1.,0.));
#632=DIRECTION('',(0.,0.,-1.));
#633=DIRECTION('',(0.,-1.,0.));
#634=DIRECTION('',(0.,0.,-1.));
#635=DIRECTION('',(0.,-1.,0.));
#636=DIRECTION('',(0.,0.,-1.));
#637=DIRECTION('',(0.,-1.,0.));
#638=DIRECTION('',(0.,0.,-1.));
#639=DIRECTION('',(-1.,0.,0.));
#640=DIRECTION('',(0.,0.,1.));
#641=DIRECTION('',(0.,1.,0.));
#642=DIRECTION('',(0.,1.,0.));
#643=DIRECTION('',(-0.5,0.,0.866025403784439));
#644=DIRECTION('',(0.866025403784439,0.,0.5));
#645=DIRECTION('',(0.,1.,0.));
#646=DIRECTION('',(0.5,0.,0.866025403784439));
#647=DIRECTION('',(0.866025403784439,0.,-0.5));
#648=DIRECTION('',(0.,1.,0.));
#649=DIRECTION('',(1.,0.,0.));
#650=DIRECTION('',(0.,0.,-1.));
#651=DIRECTION('',(0.,1.,0.));
#652=DIRECTION('',(0.5,0.,-0.866025403784439));
#653=DIRECTION('',(-0.866025403784439,0.,-0.5));
#654=DIRECTION('',(0.,1.,0.));
#655=DIRECTION('',(-0.5,0.,-0.866025403784439));
#656=DIRECTION('',(-0.866025403784439,0.,0.5));
#657=CARTESIAN_POINT('',(0.,0.,0.));
#658=CARTESIAN_POINT('',(0.,15.9375,0.));
#659=CARTESIAN_POINT('',(0.,17.5,0.));
#660=CARTESIAN_POINT('',(0.,17.5,-10.9375));
#661=CARTESIAN_POINT('',(0.,15.9375,0.));
#662=CARTESIAN_POINT('',(0.,15.9375,-12.5));
#663=CARTESIAN_POINT('',(0.,9.55,0.));
#664=CARTESIAN_POINT('',(0.,11.9327809399577,0.));
#665=CARTESIAN_POINT('',(0.,11.9327809399577,-12.5));
#666=CARTESIAN_POINT('',(0.,11.9327809399577,0.));
#667=CARTESIAN_POINT('',(0.,3.92851402247628,0.));
#668=CARTESIAN_POINT('',(0.,3.92851402247628,-16.5056934417972));
#669=CARTESIAN_POINT('',(0.,3.92851402247628,0.));
#670=CARTESIAN_POINT('',(0.,0.750000000000001,0.));
#671=CARTESIAN_POINT('',(0.,0.750000000000001,-20.75));
#672=CARTESIAN_POINT('',(0.,0.750000000000001,0.));
#673=CARTESIAN_POINT('',(0.,0.,0.));
#674=CARTESIAN_POINT('',(0.,0.,-20.));
#675=CARTESIAN_POINT('',(0.,0.,0.));
#676=CARTESIAN_POINT('',(0.,5.055,0.));
#677=CARTESIAN_POINT('',(0.,5.055,-13.25));
#678=CARTESIAN_POINT('',(13.25,5.055,0.));
#679=CARTESIAN_POINT('',(0.,5.055,0.));
#680=CARTESIAN_POINT('',(0.,5.055,-12.5));
#681=CARTESIAN_POINT('',(0.,5.055,0.));
#682=CARTESIAN_POINT('',(0.,6.05980947161671,0.));
#683=CARTESIAN_POINT('',(0.,6.05980947161671,-8.75));
#684=CARTESIAN_POINT('',(0.,9.55,0.));
#685=CARTESIAN_POINT('',(0.,9.55,0.));
#686=CARTESIAN_POINT('',(0.,9.55,-8.75));
#687=CARTESIAN_POINT('',(8.75,9.55,0.));
#688=CARTESIAN_POINT('',(1.5,9.55,0.));
#689=CARTESIAN_POINT('',(1.5,9.55,0.866025403784439));
#690=CARTESIAN_POINT('',(1.5,9.55,-0.866025403784438));
#691=CARTESIAN_POINT('',(7.3125,9.55,2.48982303588026));
#692=CARTESIAN_POINT('',(0.,9.55,-1.73205080756888));
#693=CARTESIAN_POINT('',(5.8125,9.55,-5.08789924723358));
#694=CARTESIAN_POINT('',(-1.5,9.55,-0.866025403784439));
#695=CARTESIAN_POINT('',(-1.5,9.55,0.));
#696=CARTESIAN_POINT('',(-1.5,9.55,0.866025403784439));
#697=CARTESIAN_POINT('',(5.8125,9.55,5.08789924723358));
#698=CARTESIAN_POINT('',(0.,9.55,1.73205080756888));
#699=CARTESIAN_POINT('',(7.3125,9.55,-2.48982303588026));
#700=CARTESIAN_POINT('',(11.,19.1,0.));
#701=CARTESIAN_POINT('',(0.,19.1,0.));
#702=CARTESIAN_POINT('',(0.,19.1,-5.25));
#703=CARTESIAN_POINT('',(0.,19.1,0.));
#704=CARTESIAN_POINT('',(0.,19.1,-11.));
#705=CARTESIAN_POINT('',(0.,17.5,0.));
#706=CARTESIAN_POINT('',(0.,17.5,0.));
#707=CARTESIAN_POINT('',(0.,17.5,-5.25));
#708=CARTESIAN_POINT('',(5.25,17.5,0.));
#709=CARTESIAN_POINT('',(0.,17.5,0.));
#710=CARTESIAN_POINT('',(0.,17.5,-11.));
#711=CARTESIAN_POINT('',(0.,17.5,0.));
#712=CARTESIAN_POINT('',(0.,21.8,0.));
#713=CARTESIAN_POINT('',(0.,21.8,0.));
#714=CARTESIAN_POINT('',(0.,21.8,-2.3865));
#715=CARTESIAN_POINT('',(0.,21.8,1.73205080756888));
#716=CARTESIAN_POINT('',(0.,21.8,1.73205080756888));
#717=CARTESIAN_POINT('',(1.5,21.8,0.866025403784439));
#718=CARTESIAN_POINT('',(-1.5,21.8,0.866025403784439));
#719=CARTESIAN_POINT('',(-1.5,21.8,0.866025403784439));
#720=CARTESIAN_POINT('',(-1.5,21.8,-0.866025403784439));
#721=CARTESIAN_POINT('',(-1.5,21.8,-0.866025403784439));
#722=CARTESIAN_POINT('',(0.,21.8,-1.73205080756888));
#723=CARTESIAN_POINT('',(1.0842021724855E-16,21.8,-1.73205080756888));
#724=CARTESIAN_POINT('',(1.5,21.8,-0.866025403784439));
#725=CARTESIAN_POINT('',(1.5,21.8,-0.866025403784438));
#726=CARTESIAN_POINT('',(1.5,21.8,0.));
#727=CARTESIAN_POINT('',(0.,21.8,0.));
#728=CARTESIAN_POINT('',(0.,21.1865,0.));
#729=CARTESIAN_POINT('',(0.,21.1865,-3.));
#730=CARTESIAN_POINT('',(0.,9.55,0.));
#731=CARTESIAN_POINT('',(0.,17.5,0.));
#732=CARTESIAN_POINT('',(0.,17.5,-3.));
#733=CARTESIAN_POINT('',(3.,17.5,0.));
#734=CARTESIAN_POINT('',(-1.5,2.7,-0.866025403784439));
#735=CARTESIAN_POINT('',(-1.5,2.7,-0.866025403784439));
#736=CARTESIAN_POINT('',(-1.5,2.7,0.866025403784439));
#737=CARTESIAN_POINT('',(-1.5,2.7,0.866025403784439));
#738=CARTESIAN_POINT('',(0.,2.7,1.73205080756888));
#739=CARTESIAN_POINT('',(0.,2.7,1.73205080756888));
#740=CARTESIAN_POINT('',(1.5,2.7,0.866025403784439));
#741=CARTESIAN_POINT('',(1.5,2.7,0.866025403784439));
#742=CARTESIAN_POINT('',(1.5,2.7,-0.866025403784438));
#743=CARTESIAN_POINT('',(1.5,2.7,-0.866025403784439));
#744=CARTESIAN_POINT('',(0.,2.7,-1.73205080756888));
#745=CARTESIAN_POINT('',(0.,2.7,-1.73205080756888));
#746=MECHANICAL_DESIGN_GEOMETRIC_PRESENTATION_REPRESENTATION('',(#316,#317,
#318,#319,#320,#321,#322,#323,#324,#325,#326,#327,#328,#329,#330,#331,#332,
#333,#334,#335,#336,#337,#338,#339),#747);
#747=(
GEOMETRIC_REPRESENTATION_CONTEXT(3)
GLOBAL_UNCERTAINTY_ASSIGNED_CONTEXT((#748))
GLOBAL_UNIT_ASSIGNED_CONTEXT((#751,#750,#749))
REPRESENTATION_CONTEXT('189346 ESS-40-EN','TOP_LEVEL_ASSEMBLY_PART')
);
#748=UNCERTAINTY_MEASURE_WITH_UNIT(LENGTH_MEASURE(0.005),#751,
'DISTANCE_ACCURACY_VALUE','Maximum Tolerance applied to model');
#749=(
NAMED_UNIT(*)
SI_UNIT($,.STERADIAN.)
SOLID_ANGLE_UNIT()
);
#750=(
NAMED_UNIT(*)
PLANE_ANGLE_UNIT()
SI_UNIT($,.RADIAN.)
);
#751=(
LENGTH_UNIT()
NAMED_UNIT(*)
SI_UNIT(.MILLI.,.METRE.)
);
#752=PRODUCT_DEFINITION_SHAPE('','',#753);
#753=PRODUCT_DEFINITION('','',#755,#754);
#754=PRODUCT_DEFINITION_CONTEXT('',#761,'design');
#755=PRODUCT_DEFINITION_FORMATION_WITH_SPECIFIED_SOURCE('','',#757,
 .NOT_KNOWN.);
#756=PRODUCT_RELATED_PRODUCT_CATEGORY('','',(#757));
#757=PRODUCT('189346 ESS-40-EN','189346 ESS-40-EN','189346 ESS-40-EN',(#759));
#758=PRODUCT_CATEGORY('','');
#759=PRODUCT_CONTEXT('',#761,'mechanical');
#760=APPLICATION_PROTOCOL_DEFINITION('international standard',
'automotive_design',2010,#761);
#761=APPLICATION_CONTEXT(
'core data for automotive mechanical design processes');
ENDSEC;
END-ISO-10303-21;
