ISO-10303-21;
HEADER;
/* Generated by software containing ST-Developer
 * from STEP Tools, Inc. (www.steptools.com) 
 */
/* OPTION: using custom renumber hook */

FILE_DESCRIPTION(
/* description */ ('STEP AP214'),
/* implementation_level */ '2;1');

FILE_NAME(
/* name */ '189353_ESS-50-EF',
/* time_stamp */ '2024-08-28T09:47:44+02:00',
/* author */ ('License CC BY-ND 4.0'),
/* organization */ ('CADENAS'),
/* preprocessor_version */ 'ST-DEVELOPER v19.3',
/* originating_system */ 'PARTsolutions',
/* authorisation */ '  ');

FILE_SCHEMA (('AUTOMOTIVE_DESIGN {1 0 10303 214 3 1 1}'));
ENDSEC;

DATA;
#10=PROPERTY_DEFINITION_REPRESENTATION(#14,#12);
#11=PROPERTY_DEFINITION_REPRESENTATION(#15,#13);
#12=REPRESENTATION('',(#16),#747);
#13=REPRESENTATION('',(#17),#747);
#14=PROPERTY_DEFINITION('pmi validation property','',#752);
#15=PROPERTY_DEFINITION('pmi validation property','',#752);
#16=VALUE_REPRESENTATION_ITEM('number of annotations',COUNT_MEASURE(0.));
#17=VALUE_REPRESENTATION_ITEM('number of views',COUNT_MEASURE(0.));
#18=SHAPE_REPRESENTATION_RELATIONSHIP('','',#512,#19);
#19=ADVANCED_BREP_SHAPE_REPRESENTATION('',(#510),#747);
#20=LINE('',#691,#38);
#21=LINE('',#694,#39);
#22=LINE('',#696,#40);
#23=LINE('',#698,#41);
#24=LINE('',#700,#42);
#25=LINE('',#702,#43);
#26=LINE('',#715,#44);
#27=LINE('',#718,#45);
#28=LINE('',#720,#46);
#29=LINE('',#722,#47);
#30=LINE('',#724,#48);
#31=LINE('',#726,#49);
#32=LINE('',#735,#50);
#33=LINE('',#736,#51);
#34=LINE('',#738,#52);
#35=LINE('',#740,#53);
#36=LINE('',#742,#54);
#37=LINE('',#744,#55);
#38=VECTOR('',#601,1000.);
#39=VECTOR('',#602,1000.);
#40=VECTOR('',#603,1000.);
#41=VECTOR('',#604,1000.);
#42=VECTOR('',#605,1000.);
#43=VECTOR('',#606,1000.);
#44=VECTOR('',#623,1000.);
#45=VECTOR('',#624,1000.);
#46=VECTOR('',#625,1000.);
#47=VECTOR('',#626,1000.);
#48=VECTOR('',#627,1000.);
#49=VECTOR('',#628,1000.);
#50=VECTOR('',#641,1000.);
#51=VECTOR('',#642,1000.);
#52=VECTOR('',#645,1000.);
#53=VECTOR('',#648,1000.);
#54=VECTOR('',#651,1000.);
#55=VECTOR('',#654,1000.);
#56=CONICAL_SURFACE('',#523,20.8496621168756,1.00980359792129);
#57=CONICAL_SURFACE('',#525,25.75,0.785398163397448);
#58=CONICAL_SURFACE('',#527,25.,1.00980359792129);
#59=CONICAL_SURFACE('',#531,15.,1.30899693899575);
#60=CONICAL_SURFACE('',#544,2.3865,0.785398163397446);
#61=CYLINDRICAL_SURFACE('',#519,15.);
#62=CYLINDRICAL_SURFACE('',#533,10.5);
#63=CYLINDRICAL_SURFACE('',#539,5.25);
#64=CYLINDRICAL_SURFACE('',#541,11.);
#65=CYLINDRICAL_SURFACE('',#546,3.);
#66=TOROIDAL_SURFACE('',#517,13.125,1.875);
#67=TOROIDAL_SURFACE('',#521,27.5,12.5);
#68=ORIENTED_EDGE('',*,*,#138,.F.);
#69=ORIENTED_EDGE('',*,*,#139,.T.);
#70=ORIENTED_EDGE('',*,*,#138,.T.);
#71=ORIENTED_EDGE('',*,*,#140,.F.);
#72=ORIENTED_EDGE('',*,*,#141,.F.);
#73=ORIENTED_EDGE('',*,*,#140,.T.);
#74=ORIENTED_EDGE('',*,*,#142,.F.);
#75=ORIENTED_EDGE('',*,*,#141,.T.);
#76=ORIENTED_EDGE('',*,*,#143,.F.);
#77=ORIENTED_EDGE('',*,*,#142,.T.);
#78=ORIENTED_EDGE('',*,*,#144,.F.);
#79=ORIENTED_EDGE('',*,*,#143,.T.);
#80=ORIENTED_EDGE('',*,*,#145,.F.);
#81=ORIENTED_EDGE('',*,*,#144,.T.);
#82=ORIENTED_EDGE('',*,*,#146,.F.);
#83=ORIENTED_EDGE('',*,*,#145,.T.);
#84=ORIENTED_EDGE('',*,*,#147,.F.);
#85=ORIENTED_EDGE('',*,*,#146,.T.);
#86=ORIENTED_EDGE('',*,*,#148,.F.);
#87=ORIENTED_EDGE('',*,*,#147,.T.);
#88=ORIENTED_EDGE('',*,*,#149,.T.);
#89=ORIENTED_EDGE('',*,*,#150,.T.);
#90=ORIENTED_EDGE('',*,*,#151,.T.);
#91=ORIENTED_EDGE('',*,*,#152,.T.);
#92=ORIENTED_EDGE('',*,*,#153,.T.);
#93=ORIENTED_EDGE('',*,*,#154,.T.);
#94=ORIENTED_EDGE('',*,*,#148,.T.);
#95=ORIENTED_EDGE('',*,*,#155,.T.);
#96=ORIENTED_EDGE('',*,*,#156,.F.);
#97=ORIENTED_EDGE('',*,*,#157,.T.);
#98=ORIENTED_EDGE('',*,*,#155,.F.);
#99=ORIENTED_EDGE('',*,*,#156,.T.);
#100=ORIENTED_EDGE('',*,*,#139,.F.);
#101=ORIENTED_EDGE('',*,*,#158,.F.);
#102=ORIENTED_EDGE('',*,*,#159,.F.);
#103=ORIENTED_EDGE('',*,*,#160,.F.);
#104=ORIENTED_EDGE('',*,*,#161,.F.);
#105=ORIENTED_EDGE('',*,*,#162,.F.);
#106=ORIENTED_EDGE('',*,*,#163,.F.);
#107=ORIENTED_EDGE('',*,*,#164,.T.);
#108=ORIENTED_EDGE('',*,*,#165,.F.);
#109=ORIENTED_EDGE('',*,*,#158,.T.);
#110=ORIENTED_EDGE('',*,*,#166,.F.);
#111=ORIENTED_EDGE('',*,*,#165,.T.);
#112=ORIENTED_EDGE('',*,*,#157,.F.);
#113=ORIENTED_EDGE('',*,*,#166,.T.);
#114=ORIENTED_EDGE('',*,*,#167,.T.);
#115=ORIENTED_EDGE('',*,*,#161,.T.);
#116=ORIENTED_EDGE('',*,*,#168,.F.);
#117=ORIENTED_EDGE('',*,*,#152,.F.);
#118=ORIENTED_EDGE('',*,*,#168,.T.);
#119=ORIENTED_EDGE('',*,*,#160,.T.);
#120=ORIENTED_EDGE('',*,*,#169,.F.);
#121=ORIENTED_EDGE('',*,*,#153,.F.);
#122=ORIENTED_EDGE('',*,*,#169,.T.);
#123=ORIENTED_EDGE('',*,*,#159,.T.);
#124=ORIENTED_EDGE('',*,*,#170,.F.);
#125=ORIENTED_EDGE('',*,*,#154,.F.);
#126=ORIENTED_EDGE('',*,*,#170,.T.);
#127=ORIENTED_EDGE('',*,*,#164,.F.);
#128=ORIENTED_EDGE('',*,*,#171,.F.);
#129=ORIENTED_EDGE('',*,*,#149,.F.);
#130=ORIENTED_EDGE('',*,*,#171,.T.);
#131=ORIENTED_EDGE('',*,*,#163,.T.);
#132=ORIENTED_EDGE('',*,*,#172,.F.);
#133=ORIENTED_EDGE('',*,*,#150,.F.);
#134=ORIENTED_EDGE('',*,*,#172,.T.);
#135=ORIENTED_EDGE('',*,*,#162,.T.);
#136=ORIENTED_EDGE('',*,*,#167,.F.);
#137=ORIENTED_EDGE('',*,*,#151,.F.);
#138=EDGE_CURVE('',#173,#173,#202,.T.);
#139=EDGE_CURVE('',#174,#174,#203,.T.);
#140=EDGE_CURVE('',#175,#175,#204,.T.);
#141=EDGE_CURVE('',#176,#176,#205,.T.);
#142=EDGE_CURVE('',#177,#177,#206,.T.);
#143=EDGE_CURVE('',#178,#178,#207,.T.);
#144=EDGE_CURVE('',#179,#179,#208,.T.);
#145=EDGE_CURVE('',#180,#180,#209,.T.);
#146=EDGE_CURVE('',#181,#181,#210,.T.);
#147=EDGE_CURVE('',#182,#182,#211,.T.);
#148=EDGE_CURVE('',#183,#183,#212,.T.);
#149=EDGE_CURVE('',#184,#185,#20,.T.);
#150=EDGE_CURVE('',#185,#186,#21,.T.);
#151=EDGE_CURVE('',#186,#187,#22,.T.);
#152=EDGE_CURVE('',#187,#188,#23,.T.);
#153=EDGE_CURVE('',#188,#189,#24,.T.);
#154=EDGE_CURVE('',#189,#184,#25,.T.);
#155=EDGE_CURVE('',#190,#190,#213,.T.);
#156=EDGE_CURVE('',#191,#191,#214,.T.);
#157=EDGE_CURVE('',#192,#192,#215,.T.);
#158=EDGE_CURVE('',#193,#193,#216,.T.);
#159=EDGE_CURVE('',#194,#195,#26,.T.);
#160=EDGE_CURVE('',#196,#194,#27,.T.);
#161=EDGE_CURVE('',#197,#196,#28,.T.);
#162=EDGE_CURVE('',#198,#197,#29,.T.);
#163=EDGE_CURVE('',#199,#198,#30,.T.);
#164=EDGE_CURVE('',#199,#195,#31,.T.);
#165=EDGE_CURVE('',#200,#200,#217,.T.);
#166=EDGE_CURVE('',#201,#201,#218,.T.);
#167=EDGE_CURVE('',#187,#197,#32,.T.);
#168=EDGE_CURVE('',#188,#196,#33,.T.);
#169=EDGE_CURVE('',#189,#194,#34,.T.);
#170=EDGE_CURVE('',#184,#195,#35,.T.);
#171=EDGE_CURVE('',#185,#199,#36,.T.);
#172=EDGE_CURVE('',#186,#198,#37,.T.);
#173=VERTEX_POINT('',#660);
#174=VERTEX_POINT('',#662);
#175=VERTEX_POINT('',#665);
#176=VERTEX_POINT('',#668);
#177=VERTEX_POINT('',#671);
#178=VERTEX_POINT('',#674);
#179=VERTEX_POINT('',#677);
#180=VERTEX_POINT('',#680);
#181=VERTEX_POINT('',#683);
#182=VERTEX_POINT('',#686);
#183=VERTEX_POINT('',#689);
#184=VERTEX_POINT('',#692);
#185=VERTEX_POINT('',#693);
#186=VERTEX_POINT('',#695);
#187=VERTEX_POINT('',#697);
#188=VERTEX_POINT('',#699);
#189=VERTEX_POINT('',#701);
#190=VERTEX_POINT('',#705);
#191=VERTEX_POINT('',#707);
#192=VERTEX_POINT('',#710);
#193=VERTEX_POINT('',#714);
#194=VERTEX_POINT('',#716);
#195=VERTEX_POINT('',#717);
#196=VERTEX_POINT('',#719);
#197=VERTEX_POINT('',#721);
#198=VERTEX_POINT('',#723);
#199=VERTEX_POINT('',#725);
#200=VERTEX_POINT('',#729);
#201=VERTEX_POINT('',#732);
#202=CIRCLE('',#515,13.125);
#203=CIRCLE('',#516,11.);
#204=CIRCLE('',#518,15.);
#205=CIRCLE('',#520,15.);
#206=CIRCLE('',#522,20.8496621168756);
#207=CIRCLE('',#524,25.75);
#208=CIRCLE('',#526,25.);
#209=CIRCLE('',#528,15.75);
#210=CIRCLE('',#530,15.);
#211=CIRCLE('',#532,10.5);
#212=CIRCLE('',#534,10.5);
#213=CIRCLE('',#537,5.25);
#214=CIRCLE('',#538,11.);
#215=CIRCLE('',#540,5.25);
#216=CIRCLE('',#543,2.3865);
#217=CIRCLE('',#545,3.);
#218=CIRCLE('',#547,3.);
#219=EDGE_LOOP('',(#68));
#220=EDGE_LOOP('',(#69));
#221=EDGE_LOOP('',(#70));
#222=EDGE_LOOP('',(#71));
#223=EDGE_LOOP('',(#72));
#224=EDGE_LOOP('',(#73));
#225=EDGE_LOOP('',(#74));
#226=EDGE_LOOP('',(#75));
#227=EDGE_LOOP('',(#76));
#228=EDGE_LOOP('',(#77));
#229=EDGE_LOOP('',(#78));
#230=EDGE_LOOP('',(#79));
#231=EDGE_LOOP('',(#80));
#232=EDGE_LOOP('',(#81));
#233=EDGE_LOOP('',(#82));
#234=EDGE_LOOP('',(#83));
#235=EDGE_LOOP('',(#84));
#236=EDGE_LOOP('',(#85));
#237=EDGE_LOOP('',(#86));
#238=EDGE_LOOP('',(#87));
#239=EDGE_LOOP('',(#88,#89,#90,#91,#92,#93));
#240=EDGE_LOOP('',(#94));
#241=EDGE_LOOP('',(#95));
#242=EDGE_LOOP('',(#96));
#243=EDGE_LOOP('',(#97));
#244=EDGE_LOOP('',(#98));
#245=EDGE_LOOP('',(#99));
#246=EDGE_LOOP('',(#100));
#247=EDGE_LOOP('',(#101));
#248=EDGE_LOOP('',(#102,#103,#104,#105,#106,#107));
#249=EDGE_LOOP('',(#108));
#250=EDGE_LOOP('',(#109));
#251=EDGE_LOOP('',(#110));
#252=EDGE_LOOP('',(#111));
#253=EDGE_LOOP('',(#112));
#254=EDGE_LOOP('',(#113));
#255=EDGE_LOOP('',(#114,#115,#116,#117));
#256=EDGE_LOOP('',(#118,#119,#120,#121));
#257=EDGE_LOOP('',(#122,#123,#124,#125));
#258=EDGE_LOOP('',(#126,#127,#128,#129));
#259=EDGE_LOOP('',(#130,#131,#132,#133));
#260=EDGE_LOOP('',(#134,#135,#136,#137));
#261=FACE_BOUND('',#219,.T.);
#262=FACE_BOUND('',#220,.T.);
#263=FACE_BOUND('',#221,.T.);
#264=FACE_BOUND('',#222,.T.);
#265=FACE_BOUND('',#223,.T.);
#266=FACE_BOUND('',#224,.T.);
#267=FACE_BOUND('',#225,.T.);
#268=FACE_BOUND('',#226,.T.);
#269=FACE_BOUND('',#227,.T.);
#270=FACE_BOUND('',#228,.T.);
#271=FACE_BOUND('',#229,.T.);
#272=FACE_BOUND('',#230,.T.);
#273=FACE_BOUND('',#231,.T.);
#274=FACE_BOUND('',#232,.T.);
#275=FACE_BOUND('',#233,.T.);
#276=FACE_BOUND('',#234,.T.);
#277=FACE_BOUND('',#235,.T.);
#278=FACE_BOUND('',#236,.T.);
#279=FACE_BOUND('',#237,.T.);
#280=FACE_BOUND('',#238,.T.);
#281=FACE_BOUND('',#239,.T.);
#282=FACE_BOUND('',#240,.T.);
#283=FACE_BOUND('',#241,.T.);
#284=FACE_BOUND('',#242,.T.);
#285=FACE_BOUND('',#243,.T.);
#286=FACE_BOUND('',#244,.T.);
#287=FACE_BOUND('',#245,.T.);
#288=FACE_BOUND('',#246,.T.);
#289=FACE_BOUND('',#247,.T.);
#290=FACE_BOUND('',#248,.T.);
#291=FACE_BOUND('',#249,.T.);
#292=FACE_BOUND('',#250,.T.);
#293=FACE_BOUND('',#251,.T.);
#294=FACE_BOUND('',#252,.T.);
#295=FACE_BOUND('',#253,.T.);
#296=FACE_BOUND('',#254,.T.);
#297=FACE_BOUND('',#255,.T.);
#298=FACE_BOUND('',#256,.T.);
#299=FACE_BOUND('',#257,.T.);
#300=FACE_BOUND('',#258,.T.);
#301=FACE_BOUND('',#259,.T.);
#302=FACE_BOUND('',#260,.T.);
#303=PLANE('',#514);
#304=PLANE('',#529);
#305=PLANE('',#535);
#306=PLANE('',#536);
#307=PLANE('',#542);
#308=PLANE('',#548);
#309=PLANE('',#549);
#310=PLANE('',#550);
#311=PLANE('',#551);
#312=PLANE('',#552);
#313=PLANE('',#553);
#314=PLANE('',#554);
#315=STYLED_ITEM('',(#339),#485);
#316=STYLED_ITEM('',(#340),#486);
#317=STYLED_ITEM('',(#341),#487);
#318=STYLED_ITEM('',(#342),#488);
#319=STYLED_ITEM('',(#343),#489);
#320=STYLED_ITEM('',(#344),#490);
#321=STYLED_ITEM('',(#345),#491);
#322=STYLED_ITEM('',(#346),#492);
#323=STYLED_ITEM('',(#347),#493);
#324=STYLED_ITEM('',(#348),#494);
#325=STYLED_ITEM('',(#349),#495);
#326=STYLED_ITEM('',(#350),#496);
#327=STYLED_ITEM('',(#351),#497);
#328=STYLED_ITEM('',(#352),#498);
#329=STYLED_ITEM('',(#353),#499);
#330=STYLED_ITEM('',(#354),#500);
#331=STYLED_ITEM('',(#355),#501);
#332=STYLED_ITEM('',(#356),#502);
#333=STYLED_ITEM('',(#357),#503);
#334=STYLED_ITEM('',(#358),#504);
#335=STYLED_ITEM('',(#359),#505);
#336=STYLED_ITEM('',(#360),#506);
#337=STYLED_ITEM('',(#361),#507);
#338=STYLED_ITEM('',(#362),#508);
#339=PRESENTATION_STYLE_ASSIGNMENT((#363));
#340=PRESENTATION_STYLE_ASSIGNMENT((#364));
#341=PRESENTATION_STYLE_ASSIGNMENT((#365));
#342=PRESENTATION_STYLE_ASSIGNMENT((#366));
#343=PRESENTATION_STYLE_ASSIGNMENT((#367));
#344=PRESENTATION_STYLE_ASSIGNMENT((#368));
#345=PRESENTATION_STYLE_ASSIGNMENT((#369));
#346=PRESENTATION_STYLE_ASSIGNMENT((#370));
#347=PRESENTATION_STYLE_ASSIGNMENT((#371));
#348=PRESENTATION_STYLE_ASSIGNMENT((#372));
#349=PRESENTATION_STYLE_ASSIGNMENT((#373));
#350=PRESENTATION_STYLE_ASSIGNMENT((#374));
#351=PRESENTATION_STYLE_ASSIGNMENT((#375));
#352=PRESENTATION_STYLE_ASSIGNMENT((#376));
#353=PRESENTATION_STYLE_ASSIGNMENT((#377));
#354=PRESENTATION_STYLE_ASSIGNMENT((#378));
#355=PRESENTATION_STYLE_ASSIGNMENT((#379));
#356=PRESENTATION_STYLE_ASSIGNMENT((#380));
#357=PRESENTATION_STYLE_ASSIGNMENT((#381));
#358=PRESENTATION_STYLE_ASSIGNMENT((#382));
#359=PRESENTATION_STYLE_ASSIGNMENT((#383));
#360=PRESENTATION_STYLE_ASSIGNMENT((#384));
#361=PRESENTATION_STYLE_ASSIGNMENT((#385));
#362=PRESENTATION_STYLE_ASSIGNMENT((#386));
#363=SURFACE_STYLE_USAGE(.BOTH.,#387);
#364=SURFACE_STYLE_USAGE(.BOTH.,#388);
#365=SURFACE_STYLE_USAGE(.BOTH.,#389);
#366=SURFACE_STYLE_USAGE(.BOTH.,#390);
#367=SURFACE_STYLE_USAGE(.BOTH.,#391);
#368=SURFACE_STYLE_USAGE(.BOTH.,#392);
#369=SURFACE_STYLE_USAGE(.BOTH.,#393);
#370=SURFACE_STYLE_USAGE(.BOTH.,#394);
#371=SURFACE_STYLE_USAGE(.BOTH.,#395);
#372=SURFACE_STYLE_USAGE(.BOTH.,#396);
#373=SURFACE_STYLE_USAGE(.BOTH.,#397);
#374=SURFACE_STYLE_USAGE(.BOTH.,#398);
#375=SURFACE_STYLE_USAGE(.BOTH.,#399);
#376=SURFACE_STYLE_USAGE(.BOTH.,#400);
#377=SURFACE_STYLE_USAGE(.BOTH.,#401);
#378=SURFACE_STYLE_USAGE(.BOTH.,#402);
#379=SURFACE_STYLE_USAGE(.BOTH.,#403);
#380=SURFACE_STYLE_USAGE(.BOTH.,#404);
#381=SURFACE_STYLE_USAGE(.BOTH.,#405);
#382=SURFACE_STYLE_USAGE(.BOTH.,#406);
#383=SURFACE_STYLE_USAGE(.BOTH.,#407);
#384=SURFACE_STYLE_USAGE(.BOTH.,#408);
#385=SURFACE_STYLE_USAGE(.BOTH.,#409);
#386=SURFACE_STYLE_USAGE(.BOTH.,#410);
#387=SURFACE_SIDE_STYLE('',(#411));
#388=SURFACE_SIDE_STYLE('',(#412));
#389=SURFACE_SIDE_STYLE('',(#413));
#390=SURFACE_SIDE_STYLE('',(#414));
#391=SURFACE_SIDE_STYLE('',(#415));
#392=SURFACE_SIDE_STYLE('',(#416));
#393=SURFACE_SIDE_STYLE('',(#417));
#394=SURFACE_SIDE_STYLE('',(#418));
#395=SURFACE_SIDE_STYLE('',(#419));
#396=SURFACE_SIDE_STYLE('',(#420));
#397=SURFACE_SIDE_STYLE('',(#421));
#398=SURFACE_SIDE_STYLE('',(#422));
#399=SURFACE_SIDE_STYLE('',(#423));
#400=SURFACE_SIDE_STYLE('',(#424));
#401=SURFACE_SIDE_STYLE('',(#425));
#402=SURFACE_SIDE_STYLE('',(#426));
#403=SURFACE_SIDE_STYLE('',(#427));
#404=SURFACE_SIDE_STYLE('',(#428));
#405=SURFACE_SIDE_STYLE('',(#429));
#406=SURFACE_SIDE_STYLE('',(#430));
#407=SURFACE_SIDE_STYLE('',(#431));
#408=SURFACE_SIDE_STYLE('',(#432));
#409=SURFACE_SIDE_STYLE('',(#433));
#410=SURFACE_SIDE_STYLE('',(#434));
#411=SURFACE_STYLE_FILL_AREA(#435);
#412=SURFACE_STYLE_FILL_AREA(#436);
#413=SURFACE_STYLE_FILL_AREA(#437);
#414=SURFACE_STYLE_FILL_AREA(#438);
#415=SURFACE_STYLE_FILL_AREA(#439);
#416=SURFACE_STYLE_FILL_AREA(#440);
#417=SURFACE_STYLE_FILL_AREA(#441);
#418=SURFACE_STYLE_FILL_AREA(#442);
#419=SURFACE_STYLE_FILL_AREA(#443);
#420=SURFACE_STYLE_FILL_AREA(#444);
#421=SURFACE_STYLE_FILL_AREA(#445);
#422=SURFACE_STYLE_FILL_AREA(#446);
#423=SURFACE_STYLE_FILL_AREA(#447);
#424=SURFACE_STYLE_FILL_AREA(#448);
#425=SURFACE_STYLE_FILL_AREA(#449);
#426=SURFACE_STYLE_FILL_AREA(#450);
#427=SURFACE_STYLE_FILL_AREA(#451);
#428=SURFACE_STYLE_FILL_AREA(#452);
#429=SURFACE_STYLE_FILL_AREA(#453);
#430=SURFACE_STYLE_FILL_AREA(#454);
#431=SURFACE_STYLE_FILL_AREA(#455);
#432=SURFACE_STYLE_FILL_AREA(#456);
#433=SURFACE_STYLE_FILL_AREA(#457);
#434=SURFACE_STYLE_FILL_AREA(#458);
#435=FILL_AREA_STYLE('',(#459));
#436=FILL_AREA_STYLE('',(#460));
#437=FILL_AREA_STYLE('',(#461));
#438=FILL_AREA_STYLE('',(#462));
#439=FILL_AREA_STYLE('',(#463));
#440=FILL_AREA_STYLE('',(#464));
#441=FILL_AREA_STYLE('',(#465));
#442=FILL_AREA_STYLE('',(#466));
#443=FILL_AREA_STYLE('',(#467));
#444=FILL_AREA_STYLE('',(#468));
#445=FILL_AREA_STYLE('',(#469));
#446=FILL_AREA_STYLE('',(#470));
#447=FILL_AREA_STYLE('',(#471));
#448=FILL_AREA_STYLE('',(#472));
#449=FILL_AREA_STYLE('',(#473));
#450=FILL_AREA_STYLE('',(#474));
#451=FILL_AREA_STYLE('',(#475));
#452=FILL_AREA_STYLE('',(#476));
#453=FILL_AREA_STYLE('',(#477));
#454=FILL_AREA_STYLE('',(#478));
#455=FILL_AREA_STYLE('',(#479));
#456=FILL_AREA_STYLE('',(#480));
#457=FILL_AREA_STYLE('',(#481));
#458=FILL_AREA_STYLE('',(#482));
#459=FILL_AREA_STYLE_COLOUR('',#483);
#460=FILL_AREA_STYLE_COLOUR('',#483);
#461=FILL_AREA_STYLE_COLOUR('',#483);
#462=FILL_AREA_STYLE_COLOUR('',#483);
#463=FILL_AREA_STYLE_COLOUR('',#483);
#464=FILL_AREA_STYLE_COLOUR('',#483);
#465=FILL_AREA_STYLE_COLOUR('',#483);
#466=FILL_AREA_STYLE_COLOUR('',#483);
#467=FILL_AREA_STYLE_COLOUR('',#483);
#468=FILL_AREA_STYLE_COLOUR('',#483);
#469=FILL_AREA_STYLE_COLOUR('',#484);
#470=FILL_AREA_STYLE_COLOUR('',#484);
#471=FILL_AREA_STYLE_COLOUR('',#484);
#472=FILL_AREA_STYLE_COLOUR('',#484);
#473=FILL_AREA_STYLE_COLOUR('',#484);
#474=FILL_AREA_STYLE_COLOUR('',#484);
#475=FILL_AREA_STYLE_COLOUR('',#484);
#476=FILL_AREA_STYLE_COLOUR('',#483);
#477=FILL_AREA_STYLE_COLOUR('',#484);
#478=FILL_AREA_STYLE_COLOUR('',#484);
#479=FILL_AREA_STYLE_COLOUR('',#484);
#480=FILL_AREA_STYLE_COLOUR('',#484);
#481=FILL_AREA_STYLE_COLOUR('',#484);
#482=FILL_AREA_STYLE_COLOUR('',#484);
#483=COLOUR_RGB('',0.379999995231628,0.400000005960464,0.400000005960464);
#484=COLOUR_RGB('',0.75300002098083,0.75300002098083,0.75300002098083);
#485=ADVANCED_FACE('',(#261,#262),#303,.F.);
#486=ADVANCED_FACE('',(#263,#264),#66,.T.);
#487=ADVANCED_FACE('',(#265,#266),#61,.T.);
#488=ADVANCED_FACE('',(#267,#268),#67,.F.);
#489=ADVANCED_FACE('',(#269,#270),#56,.T.);
#490=ADVANCED_FACE('',(#271,#272),#57,.T.);
#491=ADVANCED_FACE('',(#273,#274),#58,.F.);
#492=ADVANCED_FACE('',(#275,#276),#304,.F.);
#493=ADVANCED_FACE('',(#277,#278),#59,.F.);
#494=ADVANCED_FACE('',(#279,#280),#62,.F.);
#495=ADVANCED_FACE('',(#281,#282),#305,.F.);
#496=ADVANCED_FACE('',(#283,#284),#306,.T.);
#497=ADVANCED_FACE('',(#285,#286),#63,.F.);
#498=ADVANCED_FACE('',(#287,#288),#64,.T.);
#499=ADVANCED_FACE('',(#289,#290),#307,.F.);
#500=ADVANCED_FACE('',(#291,#292),#60,.T.);
#501=ADVANCED_FACE('',(#293,#294),#65,.T.);
#502=ADVANCED_FACE('',(#295,#296),#308,.F.);
#503=ADVANCED_FACE('',(#297),#309,.F.);
#504=ADVANCED_FACE('',(#298),#310,.F.);
#505=ADVANCED_FACE('',(#299),#311,.F.);
#506=ADVANCED_FACE('',(#300),#312,.F.);
#507=ADVANCED_FACE('',(#301),#313,.F.);
#508=ADVANCED_FACE('',(#302),#314,.F.);
#509=CLOSED_SHELL('',(#485,#486,#487,#488,#489,#490,#491,#492,#493,#494,
#495,#496,#497,#498,#499,#500,#501,#502,#503,#504,#505,#506,#507,#508));
#510=MANIFOLD_SOLID_BREP('189353 ESS-50-EF',#509);
#511=SHAPE_DEFINITION_REPRESENTATION(#752,#512);
#512=SHAPE_REPRESENTATION('189353 ESS-50-EF',(#513),#747);
#513=AXIS2_PLACEMENT_3D('',#657,#555,#556);
#514=AXIS2_PLACEMENT_3D('',#658,#557,#558);
#515=AXIS2_PLACEMENT_3D('',#659,#559,#560);
#516=AXIS2_PLACEMENT_3D('',#661,#561,#562);
#517=AXIS2_PLACEMENT_3D('',#663,#563,#564);
#518=AXIS2_PLACEMENT_3D('',#664,#565,#566);
#519=AXIS2_PLACEMENT_3D('',#666,#567,#568);
#520=AXIS2_PLACEMENT_3D('',#667,#569,#570);
#521=AXIS2_PLACEMENT_3D('',#669,#571,#572);
#522=AXIS2_PLACEMENT_3D('',#670,#573,#574);
#523=AXIS2_PLACEMENT_3D('',#672,#575,#576);
#524=AXIS2_PLACEMENT_3D('',#673,#577,#578);
#525=AXIS2_PLACEMENT_3D('',#675,#579,#580);
#526=AXIS2_PLACEMENT_3D('',#676,#581,#582);
#527=AXIS2_PLACEMENT_3D('',#678,#583,#584);
#528=AXIS2_PLACEMENT_3D('',#679,#585,#586);
#529=AXIS2_PLACEMENT_3D('',#681,#587,#588);
#530=AXIS2_PLACEMENT_3D('',#682,#589,#590);
#531=AXIS2_PLACEMENT_3D('',#684,#591,#592);
#532=AXIS2_PLACEMENT_3D('',#685,#593,#594);
#533=AXIS2_PLACEMENT_3D('',#687,#595,#596);
#534=AXIS2_PLACEMENT_3D('',#688,#597,#598);
#535=AXIS2_PLACEMENT_3D('',#690,#599,#600);
#536=AXIS2_PLACEMENT_3D('',#703,#607,#608);
#537=AXIS2_PLACEMENT_3D('',#704,#609,#610);
#538=AXIS2_PLACEMENT_3D('',#706,#611,#612);
#539=AXIS2_PLACEMENT_3D('',#708,#613,#614);
#540=AXIS2_PLACEMENT_3D('',#709,#615,#616);
#541=AXIS2_PLACEMENT_3D('',#711,#617,#618);
#542=AXIS2_PLACEMENT_3D('',#712,#619,#620);
#543=AXIS2_PLACEMENT_3D('',#713,#621,#622);
#544=AXIS2_PLACEMENT_3D('',#727,#629,#630);
#545=AXIS2_PLACEMENT_3D('',#728,#631,#632);
#546=AXIS2_PLACEMENT_3D('',#730,#633,#634);
#547=AXIS2_PLACEMENT_3D('',#731,#635,#636);
#548=AXIS2_PLACEMENT_3D('',#733,#637,#638);
#549=AXIS2_PLACEMENT_3D('',#734,#639,#640);
#550=AXIS2_PLACEMENT_3D('',#737,#643,#644);
#551=AXIS2_PLACEMENT_3D('',#739,#646,#647);
#552=AXIS2_PLACEMENT_3D('',#741,#649,#650);
#553=AXIS2_PLACEMENT_3D('',#743,#652,#653);
#554=AXIS2_PLACEMENT_3D('',#745,#655,#656);
#555=DIRECTION('',(0.,0.,1.));
#556=DIRECTION('',(1.,0.,0.));
#557=DIRECTION('',(0.,-1.,0.));
#558=DIRECTION('',(0.,0.,-1.));
#559=DIRECTION('',(0.,-1.,0.));
#560=DIRECTION('',(0.,0.,-1.));
#561=DIRECTION('',(0.,-1.,0.));
#562=DIRECTION('',(0.,0.,-1.));
#563=DIRECTION('',(0.,-1.,0.));
#564=DIRECTION('',(0.,0.,-1.));
#565=DIRECTION('',(0.,-1.,0.));
#566=DIRECTION('',(0.,0.,-1.));
#567=DIRECTION('',(0.,-1.,0.));
#568=DIRECTION('',(0.,0.,-1.));
#569=DIRECTION('',(0.,-1.,0.));
#570=DIRECTION('',(0.,0.,-1.));
#571=DIRECTION('',(0.,-1.,0.));
#572=DIRECTION('',(0.,0.,-1.));
#573=DIRECTION('',(0.,-1.,0.));
#574=DIRECTION('',(0.,0.,-1.));
#575=DIRECTION('',(0.,-1.,0.));
#576=DIRECTION('',(0.,0.,-1.));
#577=DIRECTION('',(0.,-1.,0.));
#578=DIRECTION('',(0.,0.,-1.));
#579=DIRECTION('',(0.,1.,0.));
#580=DIRECTION('',(0.,0.,1.));
#581=DIRECTION('',(0.,-1.,0.));
#582=DIRECTION('',(0.,0.,-1.));
#583=DIRECTION('',(0.,-1.,0.));
#584=DIRECTION('',(0.,0.,-1.));
#585=DIRECTION('',(0.,-1.,0.));
#586=DIRECTION('',(0.,0.,-1.));
#587=DIRECTION('',(0.,1.,0.));
#588=DIRECTION('',(0.,0.,1.));
#589=DIRECTION('',(0.,-1.,0.));
#590=DIRECTION('',(0.,0.,-1.));
#591=DIRECTION('',(0.,-1.,0.));
#592=DIRECTION('',(0.,0.,-1.));
#593=DIRECTION('',(0.,-1.,0.));
#594=DIRECTION('',(0.,0.,-1.));
#595=DIRECTION('',(0.,-1.,0.));
#596=DIRECTION('',(0.,0.,-1.));
#597=DIRECTION('',(0.,-1.,0.));
#598=DIRECTION('',(0.,0.,-1.));
#599=DIRECTION('',(0.,1.,0.));
#600=DIRECTION('',(0.,0.,1.));
#601=DIRECTION('',(0.,0.,-1.));
#602=DIRECTION('',(-0.866025403784439,0.,-0.5));
#603=DIRECTION('',(-0.866025403784439,0.,0.5));
#604=DIRECTION('',(0.,0.,1.));
#605=DIRECTION('',(0.866025403784439,0.,0.5));
#606=DIRECTION('',(0.866025403784439,0.,-0.5));
#607=DIRECTION('',(0.,1.,0.));
#608=DIRECTION('',(0.,0.,1.));
#609=DIRECTION('',(0.,-1.,0.));
#610=DIRECTION('',(0.,0.,-1.));
#611=DIRECTION('',(0.,-1.,0.));
#612=DIRECTION('',(0.,0.,-1.));
#613=DIRECTION('',(0.,-1.,0.));
#614=DIRECTION('',(0.,0.,-1.));
#615=DIRECTION('',(0.,-1.,0.));
#616=DIRECTION('',(0.,0.,-1.));
#617=DIRECTION('',(0.,-1.,0.));
#618=DIRECTION('',(0.,0.,-1.));
#619=DIRECTION('',(0.,-1.,0.));
#620=DIRECTION('',(0.,0.,-1.));
#621=DIRECTION('',(0.,-1.,0.));
#622=DIRECTION('',(0.,0.,-1.));
#623=DIRECTION('',(0.866025403784439,0.,-0.5));
#624=DIRECTION('',(0.866025403784439,0.,0.5));
#625=DIRECTION('',(0.,0.,1.));
#626=DIRECTION('',(-0.866025403784439,0.,0.5));
#627=DIRECTION('',(-0.866025403784439,0.,-0.5));
#628=DIRECTION('',(0.,0.,1.));
#629=DIRECTION('',(0.,-1.,0.));
#630=DIRECTION('',(0.,0.,-1.));
#631=DIRECTION('',(0.,-1.,0.));
#632=DIRECTION('',(0.,0.,-1.));
#633=DIRECTION('',(0.,-1.,0.));
#634=DIRECTION('',(0.,0.,-1.));
#635=DIRECTION('',(0.,-1.,0.));
#636=DIRECTION('',(0.,0.,-1.));
#637=DIRECTION('',(0.,-1.,0.));
#638=DIRECTION('',(0.,0.,-1.));
#639=DIRECTION('',(-1.,0.,0.));
#640=DIRECTION('',(0.,0.,1.));
#641=DIRECTION('',(0.,1.,0.));
#642=DIRECTION('',(0.,1.,0.));
#643=DIRECTION('',(-0.5,0.,0.866025403784439));
#644=DIRECTION('',(0.866025403784439,0.,0.5));
#645=DIRECTION('',(0.,1.,0.));
#646=DIRECTION('',(0.5,0.,0.866025403784439));
#647=DIRECTION('',(0.866025403784439,0.,-0.5));
#648=DIRECTION('',(0.,1.,0.));
#649=DIRECTION('',(1.,0.,0.));
#650=DIRECTION('',(0.,0.,-1.));
#651=DIRECTION('',(0.,1.,0.));
#652=DIRECTION('',(0.5,0.,-0.866025403784439));
#653=DIRECTION('',(-0.866025403784439,0.,-0.5));
#654=DIRECTION('',(0.,1.,0.));
#655=DIRECTION('',(-0.5,0.,-0.866025403784439));
#656=DIRECTION('',(-0.866025403784439,0.,0.5));
#657=CARTESIAN_POINT('',(0.,0.,0.));
#658=CARTESIAN_POINT('',(3.,19.5,0.));
#659=CARTESIAN_POINT('',(0.,19.5,0.));
#660=CARTESIAN_POINT('',(0.,19.5,-13.125));
#661=CARTESIAN_POINT('',(0.,19.5,0.));
#662=CARTESIAN_POINT('',(0.,19.5,-11.));
#663=CARTESIAN_POINT('',(0.,17.625,0.));
#664=CARTESIAN_POINT('',(0.,17.625,0.));
#665=CARTESIAN_POINT('',(0.,17.625,-15.));
#666=CARTESIAN_POINT('',(0.,10.55,0.));
#667=CARTESIAN_POINT('',(0.,14.4131377582466,0.));
#668=CARTESIAN_POINT('',(0.,14.4131377582466,-15.));
#669=CARTESIAN_POINT('',(0.,14.4131377582466,0.));
#670=CARTESIAN_POINT('',(0.,3.82904563656317,0.));
#671=CARTESIAN_POINT('',(0.,3.82904563656317,-20.8496621168756));
#672=CARTESIAN_POINT('',(0.,3.82904563656317,0.));
#673=CARTESIAN_POINT('',(0.,0.750000000000001,0.));
#674=CARTESIAN_POINT('',(0.,0.750000000000001,-25.75));
#675=CARTESIAN_POINT('',(0.,0.750000000000001,0.));
#676=CARTESIAN_POINT('',(0.,0.,0.));
#677=CARTESIAN_POINT('',(0.,0.,-25.));
#678=CARTESIAN_POINT('',(0.,0.,0.));
#679=CARTESIAN_POINT('',(0.,5.81208333333333,0.));
#680=CARTESIAN_POINT('',(0.,5.81208333333333,-15.75));
#681=CARTESIAN_POINT('',(15.75,5.81208333333333,0.));
#682=CARTESIAN_POINT('',(0.,5.81208333333333,0.));
#683=CARTESIAN_POINT('',(0.,5.81208333333333,-15.));
#684=CARTESIAN_POINT('',(0.,5.81208333333333,0.));
#685=CARTESIAN_POINT('',(0.,7.01785469927339,0.));
#686=CARTESIAN_POINT('',(0.,7.01785469927339,-10.5));
#687=CARTESIAN_POINT('',(0.,10.55,0.));
#688=CARTESIAN_POINT('',(0.,10.55,0.));
#689=CARTESIAN_POINT('',(0.,10.55,-10.5));
#690=CARTESIAN_POINT('',(10.5,10.55,0.));
#691=CARTESIAN_POINT('',(1.5,10.55,0.));
#692=CARTESIAN_POINT('',(1.5,10.55,0.866025403784439));
#693=CARTESIAN_POINT('',(1.5,10.55,-0.866025403784438));
#694=CARTESIAN_POINT('',(8.625,10.55,3.24759526419164));
#695=CARTESIAN_POINT('',(0.,10.55,-1.73205080756888));
#696=CARTESIAN_POINT('',(7.125,10.55,-5.84567147554496));
#697=CARTESIAN_POINT('',(-1.5,10.55,-0.866025403784439));
#698=CARTESIAN_POINT('',(-1.5,10.55,0.));
#699=CARTESIAN_POINT('',(-1.5,10.55,0.866025403784439));
#700=CARTESIAN_POINT('',(7.125,10.55,5.84567147554496));
#701=CARTESIAN_POINT('',(0.,10.55,1.73205080756888));
#702=CARTESIAN_POINT('',(8.625,10.55,-3.24759526419164));
#703=CARTESIAN_POINT('',(11.,21.1,0.));
#704=CARTESIAN_POINT('',(0.,21.1,0.));
#705=CARTESIAN_POINT('',(0.,21.1,-5.25));
#706=CARTESIAN_POINT('',(0.,21.1,0.));
#707=CARTESIAN_POINT('',(0.,21.1,-11.));
#708=CARTESIAN_POINT('',(0.,19.5,0.));
#709=CARTESIAN_POINT('',(0.,19.5,0.));
#710=CARTESIAN_POINT('',(0.,19.5,-5.25));
#711=CARTESIAN_POINT('',(0.,19.5,0.));
#712=CARTESIAN_POINT('',(0.,24.5,0.));
#713=CARTESIAN_POINT('',(0.,24.5,0.));
#714=CARTESIAN_POINT('',(0.,24.5,-2.3865));
#715=CARTESIAN_POINT('',(0.,24.5,1.73205080756888));
#716=CARTESIAN_POINT('',(0.,24.5,1.73205080756888));
#717=CARTESIAN_POINT('',(1.5,24.5,0.866025403784439));
#718=CARTESIAN_POINT('',(-1.5,24.5,0.866025403784439));
#719=CARTESIAN_POINT('',(-1.5,24.5,0.866025403784439));
#720=CARTESIAN_POINT('',(-1.5,24.5,-0.866025403784439));
#721=CARTESIAN_POINT('',(-1.5,24.5,-0.866025403784439));
#722=CARTESIAN_POINT('',(0.,24.5,-1.73205080756888));
#723=CARTESIAN_POINT('',(1.0842021724855E-16,24.5,-1.73205080756888));
#724=CARTESIAN_POINT('',(1.5,24.5,-0.866025403784439));
#725=CARTESIAN_POINT('',(1.5,24.5,-0.866025403784438));
#726=CARTESIAN_POINT('',(1.5,24.5,0.));
#727=CARTESIAN_POINT('',(0.,24.5,0.));
#728=CARTESIAN_POINT('',(0.,23.8865,0.));
#729=CARTESIAN_POINT('',(0.,23.8865,-3.));
#730=CARTESIAN_POINT('',(0.,10.55,0.));
#731=CARTESIAN_POINT('',(0.,19.5,0.));
#732=CARTESIAN_POINT('',(0.,19.5,-3.));
#733=CARTESIAN_POINT('',(3.,19.5,0.));
#734=CARTESIAN_POINT('',(-1.5,3.4,-0.866025403784439));
#735=CARTESIAN_POINT('',(-1.5,3.4,-0.866025403784439));
#736=CARTESIAN_POINT('',(-1.5,3.4,0.866025403784439));
#737=CARTESIAN_POINT('',(-1.5,3.4,0.866025403784439));
#738=CARTESIAN_POINT('',(0.,3.4,1.73205080756888));
#739=CARTESIAN_POINT('',(0.,3.4,1.73205080756888));
#740=CARTESIAN_POINT('',(1.5,3.4,0.866025403784439));
#741=CARTESIAN_POINT('',(1.5,3.4,0.866025403784439));
#742=CARTESIAN_POINT('',(1.5,3.4,-0.866025403784438));
#743=CARTESIAN_POINT('',(1.5,3.4,-0.866025403784439));
#744=CARTESIAN_POINT('',(0.,3.4,-1.73205080756888));
#745=CARTESIAN_POINT('',(0.,3.4,-1.73205080756888));
#746=MECHANICAL_DESIGN_GEOMETRIC_PRESENTATION_REPRESENTATION('',(#315,#316,
#317,#318,#319,#320,#321,#322,#323,#324,#325,#326,#327,#328,#329,#330,#331,
#332,#333,#334,#335,#336,#337,#338),#747);
#747=(
GEOMETRIC_REPRESENTATION_CONTEXT(3)
GLOBAL_UNCERTAINTY_ASSIGNED_CONTEXT((#748))
GLOBAL_UNIT_ASSIGNED_CONTEXT((#751,#750,#749))
REPRESENTATION_CONTEXT('189353 ESS-50-EF','TOP_LEVEL_ASSEMBLY_PART')
);
#748=UNCERTAINTY_MEASURE_WITH_UNIT(LENGTH_MEASURE(0.005),#751,
'DISTANCE_ACCURACY_VALUE','Maximum Tolerance applied to model');
#749=(
NAMED_UNIT(*)
SI_UNIT($,.STERADIAN.)
SOLID_ANGLE_UNIT()
);
#750=(
NAMED_UNIT(*)
PLANE_ANGLE_UNIT()
SI_UNIT($,.RADIAN.)
);
#751=(
LENGTH_UNIT()
NAMED_UNIT(*)
SI_UNIT(.MILLI.,.METRE.)
);
#752=PRODUCT_DEFINITION_SHAPE('','',#753);
#753=PRODUCT_DEFINITION('','',#755,#754);
#754=PRODUCT_DEFINITION_CONTEXT('',#761,'design');
#755=PRODUCT_DEFINITION_FORMATION_WITH_SPECIFIED_SOURCE('','',#757,
 .NOT_KNOWN.);
#756=PRODUCT_RELATED_PRODUCT_CATEGORY('','',(#757));
#757=PRODUCT('189353 ESS-50-EF','189353 ESS-50-EF','189353 ESS-50-EF',(#759));
#758=PRODUCT_CATEGORY('','');
#759=PRODUCT_CONTEXT('',#761,'mechanical');
#760=APPLICATION_PROTOCOL_DEFINITION('international standard',
'automotive_design',2010,#761);
#761=APPLICATION_CONTEXT(
'core data for automotive mechanical design processes');
ENDSEC;
END-ISO-10303-21;
