ISO-10303-21;
HEADER;
/* Generated by software containing ST-Developer
 * from STEP Tools, Inc. (www.steptools.com) 
 */
/* OPTION: using custom renumber hook */

FILE_DESCRIPTION(
/* description */ ('STEP AP214'),
/* implementation_level */ '2;1');

FILE_NAME(
/* name */ '18940_KASI-15-Y-100',
/* time_stamp */ '2024-08-29T15:55:06+02:00',
/* author */ ('License CC BY-ND 4.0'),
/* organization */ ('CADENAS'),
/* preprocessor_version */ 'ST-DEVELOPER v19.3',
/* originating_system */ 'PARTsolutions',
/* authorisation */ '  ');

FILE_SCHEMA (('AUTOMOTIVE_DESIGN {1 0 10303 214 3 1 1}'));
ENDSEC;

DATA;
#10=PROPERTY_DEFINITION_REPRESENTATION(#14,#12);
#11=PROPERTY_DEFINITION_REPRESENTATION(#15,#13);
#12=REPRESENTATION('',(#16),#251);
#13=REPRESENTATION('',(#17),#251);
#14=PROPERTY_DEFINITION('pmi validation property','',#256);
#15=PROPERTY_DEFINITION('pmi validation property','',#256);
#16=VALUE_REPRESENTATION_ITEM('number of annotations',COUNT_MEASURE(0.));
#17=VALUE_REPRESENTATION_ITEM('number of views',COUNT_MEASURE(0.));
#18=SHAPE_REPRESENTATION_RELATIONSHIP('','',#165,#19);
#19=ADVANCED_BREP_SHAPE_REPRESENTATION('',(#163),#251);
#20=ORIENTED_EDGE('',*,*,#56,.F.);
#21=ORIENTED_EDGE('',*,*,#57,.F.);
#22=ORIENTED_EDGE('',*,*,#58,.T.);
#23=ORIENTED_EDGE('',*,*,#59,.T.);
#24=ORIENTED_EDGE('',*,*,#60,.F.);
#25=ORIENTED_EDGE('',*,*,#59,.F.);
#26=ORIENTED_EDGE('',*,*,#61,.T.);
#27=ORIENTED_EDGE('',*,*,#62,.T.);
#28=ORIENTED_EDGE('',*,*,#63,.F.);
#29=ORIENTED_EDGE('',*,*,#62,.F.);
#30=ORIENTED_EDGE('',*,*,#64,.T.);
#31=ORIENTED_EDGE('',*,*,#65,.T.);
#32=ORIENTED_EDGE('',*,*,#66,.F.);
#33=ORIENTED_EDGE('',*,*,#65,.F.);
#34=ORIENTED_EDGE('',*,*,#67,.T.);
#35=ORIENTED_EDGE('',*,*,#68,.T.);
#36=ORIENTED_EDGE('',*,*,#69,.F.);
#37=ORIENTED_EDGE('',*,*,#68,.F.);
#38=ORIENTED_EDGE('',*,*,#70,.T.);
#39=ORIENTED_EDGE('',*,*,#71,.T.);
#40=ORIENTED_EDGE('',*,*,#72,.F.);
#41=ORIENTED_EDGE('',*,*,#71,.F.);
#42=ORIENTED_EDGE('',*,*,#73,.T.);
#43=ORIENTED_EDGE('',*,*,#57,.T.);
#44=ORIENTED_EDGE('',*,*,#58,.F.);
#45=ORIENTED_EDGE('',*,*,#73,.F.);
#46=ORIENTED_EDGE('',*,*,#70,.F.);
#47=ORIENTED_EDGE('',*,*,#67,.F.);
#48=ORIENTED_EDGE('',*,*,#64,.F.);
#49=ORIENTED_EDGE('',*,*,#61,.F.);
#50=ORIENTED_EDGE('',*,*,#56,.T.);
#51=ORIENTED_EDGE('',*,*,#60,.T.);
#52=ORIENTED_EDGE('',*,*,#63,.T.);
#53=ORIENTED_EDGE('',*,*,#66,.T.);
#54=ORIENTED_EDGE('',*,*,#69,.T.);
#55=ORIENTED_EDGE('',*,*,#72,.T.);
#56=EDGE_CURVE('',#74,#75,#86,.T.);
#57=EDGE_CURVE('',#76,#74,#87,.T.);
#58=EDGE_CURVE('',#76,#77,#88,.T.);
#59=EDGE_CURVE('',#77,#75,#89,.T.);
#60=EDGE_CURVE('',#75,#78,#90,.T.);
#61=EDGE_CURVE('',#77,#79,#91,.T.);
#62=EDGE_CURVE('',#79,#78,#92,.T.);
#63=EDGE_CURVE('',#78,#80,#93,.T.);
#64=EDGE_CURVE('',#79,#81,#94,.T.);
#65=EDGE_CURVE('',#81,#80,#95,.T.);
#66=EDGE_CURVE('',#80,#82,#96,.T.);
#67=EDGE_CURVE('',#81,#83,#97,.T.);
#68=EDGE_CURVE('',#83,#82,#98,.T.);
#69=EDGE_CURVE('',#82,#84,#99,.T.);
#70=EDGE_CURVE('',#83,#85,#100,.T.);
#71=EDGE_CURVE('',#85,#84,#101,.T.);
#72=EDGE_CURVE('',#84,#74,#102,.T.);
#73=EDGE_CURVE('',#85,#76,#103,.T.);
#74=VERTEX_POINT('',#214);
#75=VERTEX_POINT('',#215);
#76=VERTEX_POINT('',#217);
#77=VERTEX_POINT('',#219);
#78=VERTEX_POINT('',#223);
#79=VERTEX_POINT('',#225);
#80=VERTEX_POINT('',#229);
#81=VERTEX_POINT('',#231);
#82=VERTEX_POINT('',#235);
#83=VERTEX_POINT('',#237);
#84=VERTEX_POINT('',#241);
#85=VERTEX_POINT('',#243);
#86=LINE('',#213,#104);
#87=LINE('',#216,#105);
#88=LINE('',#218,#106);
#89=LINE('',#220,#107);
#90=LINE('',#222,#108);
#91=LINE('',#224,#109);
#92=LINE('',#226,#110);
#93=LINE('',#228,#111);
#94=LINE('',#230,#112);
#95=LINE('',#232,#113);
#96=LINE('',#234,#114);
#97=LINE('',#236,#115);
#98=LINE('',#238,#116);
#99=LINE('',#240,#117);
#100=LINE('',#242,#118);
#101=LINE('',#244,#119);
#102=LINE('',#246,#120);
#103=LINE('',#247,#121);
#104=VECTOR('',#179,1000.);
#105=VECTOR('',#180,1000.);
#106=VECTOR('',#181,1000.);
#107=VECTOR('',#182,1000.);
#108=VECTOR('',#185,1000.);
#109=VECTOR('',#186,1000.);
#110=VECTOR('',#187,1000.);
#111=VECTOR('',#190,1000.);
#112=VECTOR('',#191,1000.);
#113=VECTOR('',#192,1000.);
#114=VECTOR('',#195,1000.);
#115=VECTOR('',#196,1000.);
#116=VECTOR('',#197,1000.);
#117=VECTOR('',#200,1000.);
#118=VECTOR('',#201,1000.);
#119=VECTOR('',#202,1000.);
#120=VECTOR('',#205,1000.);
#121=VECTOR('',#206,1000.);
#122=EDGE_LOOP('',(#20,#21,#22,#23));
#123=EDGE_LOOP('',(#24,#25,#26,#27));
#124=EDGE_LOOP('',(#28,#29,#30,#31));
#125=EDGE_LOOP('',(#32,#33,#34,#35));
#126=EDGE_LOOP('',(#36,#37,#38,#39));
#127=EDGE_LOOP('',(#40,#41,#42,#43));
#128=EDGE_LOOP('',(#44,#45,#46,#47,#48,#49));
#129=EDGE_LOOP('',(#50,#51,#52,#53,#54,#55));
#130=FACE_BOUND('',#122,.T.);
#131=FACE_BOUND('',#123,.T.);
#132=FACE_BOUND('',#124,.T.);
#133=FACE_BOUND('',#125,.T.);
#134=FACE_BOUND('',#126,.T.);
#135=FACE_BOUND('',#127,.T.);
#136=FACE_BOUND('',#128,.T.);
#137=FACE_BOUND('',#129,.T.);
#138=PLANE('',#167);
#139=PLANE('',#168);
#140=PLANE('',#169);
#141=PLANE('',#170);
#142=PLANE('',#171);
#143=PLANE('',#172);
#144=PLANE('',#173);
#145=PLANE('',#174);
#146=ADVANCED_FACE('',(#130),#138,.T.);
#147=ADVANCED_FACE('',(#131),#139,.T.);
#148=ADVANCED_FACE('',(#132),#140,.T.);
#149=ADVANCED_FACE('',(#133),#141,.T.);
#150=ADVANCED_FACE('',(#134),#142,.T.);
#151=ADVANCED_FACE('',(#135),#143,.T.);
#152=ADVANCED_FACE('',(#136),#144,.F.);
#153=ADVANCED_FACE('',(#137),#145,.T.);
#154=CLOSED_SHELL('',(#146,#147,#148,#149,#150,#151,#152,#153));
#155=STYLED_ITEM('',(#156),#163);
#156=PRESENTATION_STYLE_ASSIGNMENT((#157));
#157=SURFACE_STYLE_USAGE(.BOTH.,#158);
#158=SURFACE_SIDE_STYLE('',(#159));
#159=SURFACE_STYLE_FILL_AREA(#160);
#160=FILL_AREA_STYLE('',(#161));
#161=FILL_AREA_STYLE_COLOUR('',#162);
#162=DRAUGHTING_PRE_DEFINED_COLOUR('yellow');
#163=MANIFOLD_SOLID_BREP('18940 KASI-1.5-Y-100',#154);
#164=SHAPE_DEFINITION_REPRESENTATION(#256,#165);
#165=SHAPE_REPRESENTATION('18940 KASI-1.5-Y-100',(#166),#251);
#166=AXIS2_PLACEMENT_3D('',#211,#175,#176);
#167=AXIS2_PLACEMENT_3D('',#212,#177,#178);
#168=AXIS2_PLACEMENT_3D('',#221,#183,#184);
#169=AXIS2_PLACEMENT_3D('',#227,#188,#189);
#170=AXIS2_PLACEMENT_3D('',#233,#193,#194);
#171=AXIS2_PLACEMENT_3D('',#239,#198,#199);
#172=AXIS2_PLACEMENT_3D('',#245,#203,#204);
#173=AXIS2_PLACEMENT_3D('',#248,#207,#208);
#174=AXIS2_PLACEMENT_3D('',#249,#209,#210);
#175=DIRECTION('',(0.,0.,1.));
#176=DIRECTION('',(1.,0.,0.));
#177=DIRECTION('',(-0.970295726275996,0.241921895599668,0.));
#178=DIRECTION('',(-0.241921895599668,-0.970295726275997,0.));
#179=DIRECTION('',(-0.241921895599668,-0.970295726275997,0.));
#180=DIRECTION('',(0.,0.,1.));
#181=DIRECTION('',(-0.241921895599668,-0.970295726275997,0.));
#182=DIRECTION('',(0.,0.,1.));
#183=DIRECTION('',(0.,-1.,0.));
#184=DIRECTION('',(0.,0.,-1.));
#185=DIRECTION('',(1.,0.,0.));
#186=DIRECTION('',(1.,0.,0.));
#187=DIRECTION('',(0.,0.,1.));
#188=DIRECTION('',(0.970295726275996,0.241921895599668,0.));
#189=DIRECTION('',(-0.241921895599668,0.970295726275996,0.));
#190=DIRECTION('',(-0.241921895599668,0.970295726275997,0.));
#191=DIRECTION('',(-0.241921895599668,0.970295726275997,0.));
#192=DIRECTION('',(0.,0.,1.));
#193=DIRECTION('',(1.1523523041337E-15,1.,0.));
#194=DIRECTION('',(-1.,1.1523523041337E-15,0.));
#195=DIRECTION('',(-1.,1.1523523041337E-15,0.));
#196=DIRECTION('',(-1.,1.1523523041337E-15,0.));
#197=DIRECTION('',(0.,0.,1.));
#198=DIRECTION('',(0.970295726275996,0.241921895599668,0.));
#199=DIRECTION('',(-0.241921895599668,0.970295726275996,0.));
#200=DIRECTION('',(-0.241921895599668,0.970295726275996,0.));
#201=DIRECTION('',(-0.241921895599668,0.970295726275996,0.));
#202=DIRECTION('',(0.,0.,1.));
#203=DIRECTION('',(0.,1.,0.));
#204=DIRECTION('',(0.,0.,1.));
#205=DIRECTION('',(-1.,0.,0.));
#206=DIRECTION('',(-1.,0.,0.));
#207=DIRECTION('',(0.,0.,1.));
#208=DIRECTION('',(1.,0.,0.));
#209=DIRECTION('',(0.,0.,1.));
#210=DIRECTION('',(1.,0.,0.));
#211=CARTESIAN_POINT('',(0.,0.,0.));
#212=CARTESIAN_POINT('',(0.997312011372723,4.,-150.));
#213=CARTESIAN_POINT('',(0.997312011372723,4.,0.));
#214=CARTESIAN_POINT('',(0.997312011372723,4.,0.));
#215=CARTESIAN_POINT('',(0.,0.,0.));
#216=CARTESIAN_POINT('',(0.997312011372723,4.,-150.));
#217=CARTESIAN_POINT('',(0.997312011372723,4.,-150.));
#218=CARTESIAN_POINT('',(0.997312011372723,4.,-150.));
#219=CARTESIAN_POINT('',(0.,0.,-150.));
#220=CARTESIAN_POINT('',(0.,0.,-150.));
#221=CARTESIAN_POINT('',(0.,0.,-150.));
#222=CARTESIAN_POINT('',(0.,0.,0.));
#223=CARTESIAN_POINT('',(10.,0.,0.));
#224=CARTESIAN_POINT('',(0.,0.,-150.));
#225=CARTESIAN_POINT('',(10.,0.,-150.));
#226=CARTESIAN_POINT('',(10.,0.,-150.));
#227=CARTESIAN_POINT('',(10.,0.,-150.));
#228=CARTESIAN_POINT('',(10.,0.,0.));
#229=CARTESIAN_POINT('',(9.50134399431364,2.,0.));
#230=CARTESIAN_POINT('',(10.,0.,-150.));
#231=CARTESIAN_POINT('',(9.50134399431364,2.,-150.));
#232=CARTESIAN_POINT('',(9.50134399431364,2.,-150.));
#233=CARTESIAN_POINT('',(9.50134399431364,2.,-150.));
#234=CARTESIAN_POINT('',(9.50134399431364,2.,0.));
#235=CARTESIAN_POINT('',(7.99596801705909,2.,0.));
#236=CARTESIAN_POINT('',(9.50134399431364,2.,-150.));
#237=CARTESIAN_POINT('',(7.99596801705909,2.,-150.));
#238=CARTESIAN_POINT('',(7.99596801705909,2.,-150.));
#239=CARTESIAN_POINT('',(7.99596801705909,2.,-150.));
#240=CARTESIAN_POINT('',(7.99596801705909,2.,0.));
#241=CARTESIAN_POINT('',(7.49731201137272,4.,0.));
#242=CARTESIAN_POINT('',(7.99596801705909,2.,-150.));
#243=CARTESIAN_POINT('',(7.49731201137272,4.,-150.));
#244=CARTESIAN_POINT('',(7.49731201137272,4.,-150.));
#245=CARTESIAN_POINT('',(7.49731201137272,4.,-150.));
#246=CARTESIAN_POINT('',(7.49731201137272,4.,0.));
#247=CARTESIAN_POINT('',(7.49731201137272,4.,-150.));
#248=CARTESIAN_POINT('',(0.,0.,-150.));
#249=CARTESIAN_POINT('',(0.,0.,0.));
#250=MECHANICAL_DESIGN_GEOMETRIC_PRESENTATION_REPRESENTATION('',(#155),
#251);
#251=(
GEOMETRIC_REPRESENTATION_CONTEXT(3)
GLOBAL_UNCERTAINTY_ASSIGNED_CONTEXT((#252))
GLOBAL_UNIT_ASSIGNED_CONTEXT((#255,#254,#253))
REPRESENTATION_CONTEXT('18940 KASI-1.5-Y-100','TOP_LEVEL_ASSEMBLY_PART')
);
#252=UNCERTAINTY_MEASURE_WITH_UNIT(LENGTH_MEASURE(0.005),#255,
'DISTANCE_ACCURACY_VALUE','Maximum Tolerance applied to model');
#253=(
NAMED_UNIT(*)
SI_UNIT($,.STERADIAN.)
SOLID_ANGLE_UNIT()
);
#254=(
NAMED_UNIT(*)
PLANE_ANGLE_UNIT()
SI_UNIT($,.RADIAN.)
);
#255=(
LENGTH_UNIT()
NAMED_UNIT(*)
SI_UNIT(.MILLI.,.METRE.)
);
#256=PRODUCT_DEFINITION_SHAPE('','',#257);
#257=PRODUCT_DEFINITION('','',#259,#258);
#258=PRODUCT_DEFINITION_CONTEXT('',#265,'design');
#259=PRODUCT_DEFINITION_FORMATION_WITH_SPECIFIED_SOURCE('','',#261,
 .NOT_KNOWN.);
#260=PRODUCT_RELATED_PRODUCT_CATEGORY('','',(#261));
#261=PRODUCT('18940 KASI-1.5-Y-100','18940 KASI-1.5-Y-100',
'18940 KASI-1.5-Y-100',(#263));
#262=PRODUCT_CATEGORY('','');
#263=PRODUCT_CONTEXT('',#265,'mechanical');
#264=APPLICATION_PROTOCOL_DEFINITION('international standard',
'automotive_design',2010,#265);
#265=APPLICATION_CONTEXT(
'core data for automotive mechanical design processes');
ENDSEC;
END-ISO-10303-21;
