ISO-10303-21;
HEADER;
/* Generated by software containing ST-Developer
 * from STEP Tools, Inc. (www.steptools.com) 
 */
/* OPTION: using custom renumber hook */

FILE_DESCRIPTION(
/* description */ ('STEP AP214'),
/* implementation_level */ '2;1');

FILE_NAME(
/* name */ '190842_H-QSM-3_16-U',
/* time_stamp */ '2024-08-29T11:45:31+02:00',
/* author */ ('License CC BY-ND 4.0'),
/* organization */ ('CADENAS'),
/* preprocessor_version */ 'ST-DEVELOPER v19.3',
/* originating_system */ 'PARTsolutions',
/* authorisation */ '  ');

FILE_SCHEMA (('AUTOMOTIVE_DESIGN {1 0 10303 214 3 1 1}'));
ENDSEC;

DATA;
#10=PROPERTY_DEFINITION_REPRESENTATION(#14,#12);
#11=PROPERTY_DEFINITION_REPRESENTATION(#15,#13);
#12=REPRESENTATION('',(#16),#685);
#13=REPRESENTATION('',(#17),#685);
#14=PROPERTY_DEFINITION('pmi validation property','',#690);
#15=PROPERTY_DEFINITION('pmi validation property','',#690);
#16=VALUE_REPRESENTATION_ITEM('number of annotations',COUNT_MEASURE(0.));
#17=VALUE_REPRESENTATION_ITEM('number of views',COUNT_MEASURE(0.));
#18=SHAPE_REPRESENTATION_RELATIONSHIP('','',#386,#19);
#19=ADVANCED_BREP_SHAPE_REPRESENTATION('',(#384),#685);
#20=CYLINDRICAL_SURFACE('',#402,3.381);
#21=CYLINDRICAL_SURFACE('',#410,6.);
#22=CYLINDRICAL_SURFACE('',#416,6.);
#23=CYLINDRICAL_SURFACE('',#420,3.381);
#24=CYLINDRICAL_SURFACE('',#427,2.381);
#25=CYLINDRICAL_SURFACE('',#428,4.9);
#26=CYLINDRICAL_SURFACE('',#430,4.9);
#27=CYLINDRICAL_SURFACE('',#432,4.9);
#28=CYLINDRICAL_SURFACE('',#434,4.9);
#29=LINE('',#580,#41);
#30=LINE('',#584,#42);
#31=LINE('',#622,#43);
#32=LINE('',#627,#44);
#33=LINE('',#669,#45);
#34=LINE('',#670,#46);
#35=LINE('',#672,#47);
#36=LINE('',#674,#48);
#37=LINE('',#677,#49);
#38=LINE('',#678,#50);
#39=LINE('',#680,#51);
#40=LINE('',#682,#52);
#41=VECTOR('',#446,1000.);
#42=VECTOR('',#449,1000.);
#43=VECTOR('',#464,1000.);
#44=VECTOR('',#467,1000.);
#45=VECTOR('',#524,1000.);
#46=VECTOR('',#525,1000.);
#47=VECTOR('',#528,1000.);
#48=VECTOR('',#531,1000.);
#49=VECTOR('',#536,1000.);
#50=VECTOR('',#537,1000.);
#51=VECTOR('',#540,1000.);
#52=VECTOR('',#543,1000.);
#53=PLANE('',#390);
#54=PLANE('',#394);
#55=PLANE('',#398);
#56=PLANE('',#404);
#57=PLANE('',#418);
#58=PLANE('',#422);
#59=PLANE('',#429);
#60=PLANE('',#431);
#61=PLANE('',#433);
#62=PLANE('',#435);
#63=B_SPLINE_CURVE_WITH_KNOTS('',3,(#550,#551,#552,#553,#554,#555,#556),
 .UNSPECIFIED.,.F.,.F.,(4,1,1,1,4),(1.97317335094435E-7,0.00383058278636232,
0.00766096825538954,0.0114913537244168,0.015321739193444),.UNSPECIFIED.);
#64=B_SPLINE_CURVE_WITH_KNOTS('',3,(#559,#560,#561,#562),.UNSPECIFIED.,
 .F.,.F.,(4,4),(0.00206175281280883,0.00406175281280883),.UNSPECIFIED.);
#65=B_SPLINE_CURVE_WITH_KNOTS('',3,(#564,#565,#566,#567,#568,#569,#570),
 .UNSPECIFIED.,.F.,.F.,(4,1,1,1,4),(1.97317335094222E-7,0.00383058278636232,
0.00766096825538954,0.0114913537244168,0.015321739193444),.UNSPECIFIED.);
#66=B_SPLINE_CURVE_WITH_KNOTS('',3,(#572,#573,#574,#575),.UNSPECIFIED.,
 .F.,.F.,(4,4),(0.00206175281280883,0.00406175281280883),.UNSPECIFIED.);
#67=B_SPLINE_CURVE_WITH_KNOTS('',3,(#593,#594,#595,#596,#597,#598,#599),
 .UNSPECIFIED.,.F.,.F.,(4,1,1,1,4),(1.97317335094369E-7,0.00383058278636232,
0.00766096825538954,0.0114913537244168,0.015321739193444),.UNSPECIFIED.);
#68=B_SPLINE_CURVE_WITH_KNOTS('',3,(#602,#603,#604,#605),.UNSPECIFIED.,
 .F.,.F.,(4,4),(0.00206175281280883,0.00406175281280883),.UNSPECIFIED.);
#69=B_SPLINE_CURVE_WITH_KNOTS('',3,(#607,#608,#609,#610,#611,#612,#613),
 .UNSPECIFIED.,.F.,.F.,(4,1,1,1,4),(1.97317335094156E-7,0.00383058278636232,
0.00766096825538954,0.0114913537244168,0.015321739193444),.UNSPECIFIED.);
#70=B_SPLINE_CURVE_WITH_KNOTS('',3,(#615,#616,#617,#618),.UNSPECIFIED.,
 .F.,.F.,(4,4),(0.00206175281280883,0.00406175281280883),.UNSPECIFIED.);
#71=ORIENTED_EDGE('',*,*,#153,.F.);
#72=ORIENTED_EDGE('',*,*,#154,.F.);
#73=ORIENTED_EDGE('',*,*,#155,.F.);
#74=ORIENTED_EDGE('',*,*,#156,.F.);
#75=ORIENTED_EDGE('',*,*,#157,.F.);
#76=ORIENTED_EDGE('',*,*,#158,.F.);
#77=ORIENTED_EDGE('',*,*,#159,.F.);
#78=ORIENTED_EDGE('',*,*,#160,.F.);
#79=ORIENTED_EDGE('',*,*,#161,.F.);
#80=ORIENTED_EDGE('',*,*,#162,.T.);
#81=ORIENTED_EDGE('',*,*,#163,.F.);
#82=ORIENTED_EDGE('',*,*,#164,.T.);
#83=ORIENTED_EDGE('',*,*,#165,.T.);
#84=ORIENTED_EDGE('',*,*,#166,.T.);
#85=ORIENTED_EDGE('',*,*,#167,.T.);
#86=ORIENTED_EDGE('',*,*,#168,.T.);
#87=ORIENTED_EDGE('',*,*,#163,.T.);
#88=ORIENTED_EDGE('',*,*,#169,.F.);
#89=ORIENTED_EDGE('',*,*,#170,.T.);
#90=ORIENTED_EDGE('',*,*,#171,.T.);
#91=ORIENTED_EDGE('',*,*,#172,.T.);
#92=ORIENTED_EDGE('',*,*,#173,.T.);
#93=ORIENTED_EDGE('',*,*,#174,.F.);
#94=ORIENTED_EDGE('',*,*,#169,.T.);
#95=ORIENTED_EDGE('',*,*,#175,.F.);
#96=ORIENTED_EDGE('',*,*,#174,.T.);
#97=ORIENTED_EDGE('',*,*,#176,.F.);
#98=ORIENTED_EDGE('',*,*,#175,.T.);
#99=ORIENTED_EDGE('',*,*,#177,.F.);
#100=ORIENTED_EDGE('',*,*,#176,.T.);
#101=ORIENTED_EDGE('',*,*,#178,.F.);
#102=ORIENTED_EDGE('',*,*,#177,.T.);
#103=ORIENTED_EDGE('',*,*,#179,.F.);
#104=ORIENTED_EDGE('',*,*,#178,.T.);
#105=ORIENTED_EDGE('',*,*,#180,.F.);
#106=ORIENTED_EDGE('',*,*,#179,.T.);
#107=ORIENTED_EDGE('',*,*,#181,.F.);
#108=ORIENTED_EDGE('',*,*,#180,.T.);
#109=ORIENTED_EDGE('',*,*,#182,.F.);
#110=ORIENTED_EDGE('',*,*,#153,.T.);
#111=ORIENTED_EDGE('',*,*,#162,.F.);
#112=ORIENTED_EDGE('',*,*,#183,.T.);
#113=ORIENTED_EDGE('',*,*,#183,.F.);
#114=ORIENTED_EDGE('',*,*,#184,.T.);
#115=ORIENTED_EDGE('',*,*,#184,.F.);
#116=ORIENTED_EDGE('',*,*,#185,.T.);
#117=ORIENTED_EDGE('',*,*,#185,.F.);
#118=ORIENTED_EDGE('',*,*,#181,.T.);
#119=ORIENTED_EDGE('',*,*,#182,.T.);
#120=ORIENTED_EDGE('',*,*,#164,.F.);
#121=ORIENTED_EDGE('',*,*,#154,.T.);
#122=ORIENTED_EDGE('',*,*,#186,.F.);
#123=ORIENTED_EDGE('',*,*,#158,.T.);
#124=ORIENTED_EDGE('',*,*,#187,.T.);
#125=ORIENTED_EDGE('',*,*,#157,.T.);
#126=ORIENTED_EDGE('',*,*,#188,.F.);
#127=ORIENTED_EDGE('',*,*,#159,.T.);
#128=ORIENTED_EDGE('',*,*,#186,.T.);
#129=ORIENTED_EDGE('',*,*,#156,.T.);
#130=ORIENTED_EDGE('',*,*,#189,.F.);
#131=ORIENTED_EDGE('',*,*,#160,.T.);
#132=ORIENTED_EDGE('',*,*,#188,.T.);
#133=ORIENTED_EDGE('',*,*,#155,.T.);
#134=ORIENTED_EDGE('',*,*,#187,.F.);
#135=ORIENTED_EDGE('',*,*,#161,.T.);
#136=ORIENTED_EDGE('',*,*,#189,.T.);
#137=ORIENTED_EDGE('',*,*,#190,.F.);
#138=ORIENTED_EDGE('',*,*,#171,.F.);
#139=ORIENTED_EDGE('',*,*,#191,.T.);
#140=ORIENTED_EDGE('',*,*,#165,.F.);
#141=ORIENTED_EDGE('',*,*,#191,.F.);
#142=ORIENTED_EDGE('',*,*,#170,.F.);
#143=ORIENTED_EDGE('',*,*,#192,.T.);
#144=ORIENTED_EDGE('',*,*,#166,.F.);
#145=ORIENTED_EDGE('',*,*,#192,.F.);
#146=ORIENTED_EDGE('',*,*,#173,.F.);
#147=ORIENTED_EDGE('',*,*,#193,.T.);
#148=ORIENTED_EDGE('',*,*,#167,.F.);
#149=ORIENTED_EDGE('',*,*,#193,.F.);
#150=ORIENTED_EDGE('',*,*,#172,.F.);
#151=ORIENTED_EDGE('',*,*,#190,.T.);
#152=ORIENTED_EDGE('',*,*,#168,.F.);
#153=EDGE_CURVE('',#194,#194,#227,.T.);
#154=EDGE_CURVE('',#195,#196,#63,.T.);
#155=EDGE_CURVE('',#197,#195,#64,.T.);
#156=EDGE_CURVE('',#198,#197,#65,.T.);
#157=EDGE_CURVE('',#196,#198,#66,.T.);
#158=EDGE_CURVE('',#199,#200,#228,.T.);
#159=EDGE_CURVE('',#201,#199,#29,.T.);
#160=EDGE_CURVE('',#202,#201,#229,.T.);
#161=EDGE_CURVE('',#200,#202,#30,.T.);
#162=EDGE_CURVE('',#203,#203,#230,.T.);
#163=EDGE_CURVE('',#204,#204,#231,.T.);
#164=EDGE_CURVE('',#205,#205,#232,.T.);
#165=EDGE_CURVE('',#206,#207,#67,.T.);
#166=EDGE_CURVE('',#207,#208,#68,.T.);
#167=EDGE_CURVE('',#208,#209,#69,.T.);
#168=EDGE_CURVE('',#209,#206,#70,.T.);
#169=EDGE_CURVE('',#210,#210,#233,.T.);
#170=EDGE_CURVE('',#211,#212,#31,.T.);
#171=EDGE_CURVE('',#212,#213,#234,.F.);
#172=EDGE_CURVE('',#213,#214,#32,.T.);
#173=EDGE_CURVE('',#214,#211,#235,.F.);
#174=EDGE_CURVE('',#215,#215,#236,.T.);
#175=EDGE_CURVE('',#216,#216,#237,.T.);
#176=EDGE_CURVE('',#217,#217,#238,.T.);
#177=EDGE_CURVE('',#218,#218,#239,.T.);
#178=EDGE_CURVE('',#219,#219,#240,.T.);
#179=EDGE_CURVE('',#220,#220,#241,.T.);
#180=EDGE_CURVE('',#221,#221,#242,.T.);
#181=EDGE_CURVE('',#222,#222,#243,.T.);
#182=EDGE_CURVE('',#223,#223,#244,.T.);
#183=EDGE_CURVE('',#224,#224,#245,.T.);
#184=EDGE_CURVE('',#225,#225,#246,.T.);
#185=EDGE_CURVE('',#226,#226,#247,.T.);
#186=EDGE_CURVE('',#199,#196,#33,.T.);
#187=EDGE_CURVE('',#200,#195,#34,.T.);
#188=EDGE_CURVE('',#201,#198,#35,.T.);
#189=EDGE_CURVE('',#202,#197,#36,.T.);
#190=EDGE_CURVE('',#213,#206,#37,.T.);
#191=EDGE_CURVE('',#212,#207,#38,.T.);
#192=EDGE_CURVE('',#211,#208,#39,.T.);
#193=EDGE_CURVE('',#214,#209,#40,.T.);
#194=VERTEX_POINT('',#549);
#195=VERTEX_POINT('',#557);
#196=VERTEX_POINT('',#558);
#197=VERTEX_POINT('',#563);
#198=VERTEX_POINT('',#571);
#199=VERTEX_POINT('',#578);
#200=VERTEX_POINT('',#579);
#201=VERTEX_POINT('',#581);
#202=VERTEX_POINT('',#583);
#203=VERTEX_POINT('',#586);
#204=VERTEX_POINT('',#589);
#205=VERTEX_POINT('',#591);
#206=VERTEX_POINT('',#600);
#207=VERTEX_POINT('',#601);
#208=VERTEX_POINT('',#606);
#209=VERTEX_POINT('',#614);
#210=VERTEX_POINT('',#621);
#211=VERTEX_POINT('',#623);
#212=VERTEX_POINT('',#624);
#213=VERTEX_POINT('',#626);
#214=VERTEX_POINT('',#628);
#215=VERTEX_POINT('',#632);
#216=VERTEX_POINT('',#635);
#217=VERTEX_POINT('',#638);
#218=VERTEX_POINT('',#641);
#219=VERTEX_POINT('',#644);
#220=VERTEX_POINT('',#647);
#221=VERTEX_POINT('',#650);
#222=VERTEX_POINT('',#653);
#223=VERTEX_POINT('',#656);
#224=VERTEX_POINT('',#659);
#225=VERTEX_POINT('',#662);
#226=VERTEX_POINT('',#665);
#227=CIRCLE('',#389,3.381);
#228=CIRCLE('',#391,4.9);
#229=CIRCLE('',#392,4.9);
#230=CIRCLE('',#393,3.381);
#231=CIRCLE('',#395,3.381);
#232=CIRCLE('',#396,2.381);
#233=CIRCLE('',#399,3.381);
#234=CIRCLE('',#400,4.9);
#235=CIRCLE('',#401,4.9);
#236=CIRCLE('',#403,3.381);
#237=CIRCLE('',#405,4.6405);
#238=CIRCLE('',#407,4.8224851171331);
#239=CIRCLE('',#409,6.);
#240=CIRCLE('',#411,6.);
#241=CIRCLE('',#413,5.5);
#242=CIRCLE('',#415,6.);
#243=CIRCLE('',#417,6.);
#244=CIRCLE('',#419,2.381);
#245=CIRCLE('',#421,3.381);
#246=CIRCLE('',#423,4.6405);
#247=CIRCLE('',#425,4.8224851171331);
#248=EDGE_LOOP('',(#71));
#249=EDGE_LOOP('',(#72,#73,#74,#75));
#250=EDGE_LOOP('',(#76,#77,#78,#79));
#251=EDGE_LOOP('',(#80));
#252=EDGE_LOOP('',(#81));
#253=EDGE_LOOP('',(#82));
#254=EDGE_LOOP('',(#83,#84,#85,#86));
#255=EDGE_LOOP('',(#87));
#256=EDGE_LOOP('',(#88));
#257=EDGE_LOOP('',(#89,#90,#91,#92));
#258=EDGE_LOOP('',(#93));
#259=EDGE_LOOP('',(#94));
#260=EDGE_LOOP('',(#95));
#261=EDGE_LOOP('',(#96));
#262=EDGE_LOOP('',(#97));
#263=EDGE_LOOP('',(#98));
#264=EDGE_LOOP('',(#99));
#265=EDGE_LOOP('',(#100));
#266=EDGE_LOOP('',(#101));
#267=EDGE_LOOP('',(#102));
#268=EDGE_LOOP('',(#103));
#269=EDGE_LOOP('',(#104));
#270=EDGE_LOOP('',(#105));
#271=EDGE_LOOP('',(#106));
#272=EDGE_LOOP('',(#107));
#273=EDGE_LOOP('',(#108));
#274=EDGE_LOOP('',(#109));
#275=EDGE_LOOP('',(#110));
#276=EDGE_LOOP('',(#111));
#277=EDGE_LOOP('',(#112));
#278=EDGE_LOOP('',(#113));
#279=EDGE_LOOP('',(#114));
#280=EDGE_LOOP('',(#115));
#281=EDGE_LOOP('',(#116));
#282=EDGE_LOOP('',(#117));
#283=EDGE_LOOP('',(#118));
#284=EDGE_LOOP('',(#119));
#285=EDGE_LOOP('',(#120));
#286=EDGE_LOOP('',(#121,#122,#123,#124));
#287=EDGE_LOOP('',(#125,#126,#127,#128));
#288=EDGE_LOOP('',(#129,#130,#131,#132));
#289=EDGE_LOOP('',(#133,#134,#135,#136));
#290=EDGE_LOOP('',(#137,#138,#139,#140));
#291=EDGE_LOOP('',(#141,#142,#143,#144));
#292=EDGE_LOOP('',(#145,#146,#147,#148));
#293=EDGE_LOOP('',(#149,#150,#151,#152));
#294=FACE_BOUND('',#248,.T.);
#295=FACE_BOUND('',#249,.T.);
#296=FACE_BOUND('',#250,.T.);
#297=FACE_BOUND('',#251,.T.);
#298=FACE_BOUND('',#252,.T.);
#299=FACE_BOUND('',#253,.T.);
#300=FACE_BOUND('',#254,.T.);
#301=FACE_BOUND('',#255,.T.);
#302=FACE_BOUND('',#256,.T.);
#303=FACE_BOUND('',#257,.T.);
#304=FACE_BOUND('',#258,.T.);
#305=FACE_BOUND('',#259,.T.);
#306=FACE_BOUND('',#260,.T.);
#307=FACE_BOUND('',#261,.T.);
#308=FACE_BOUND('',#262,.T.);
#309=FACE_BOUND('',#263,.T.);
#310=FACE_BOUND('',#264,.T.);
#311=FACE_BOUND('',#265,.T.);
#312=FACE_BOUND('',#266,.T.);
#313=FACE_BOUND('',#267,.T.);
#314=FACE_BOUND('',#268,.T.);
#315=FACE_BOUND('',#269,.T.);
#316=FACE_BOUND('',#270,.T.);
#317=FACE_BOUND('',#271,.T.);
#318=FACE_BOUND('',#272,.T.);
#319=FACE_BOUND('',#273,.T.);
#320=FACE_BOUND('',#274,.T.);
#321=FACE_BOUND('',#275,.T.);
#322=FACE_BOUND('',#276,.T.);
#323=FACE_BOUND('',#277,.T.);
#324=FACE_BOUND('',#278,.T.);
#325=FACE_BOUND('',#279,.T.);
#326=FACE_BOUND('',#280,.T.);
#327=FACE_BOUND('',#281,.T.);
#328=FACE_BOUND('',#282,.T.);
#329=FACE_BOUND('',#283,.T.);
#330=FACE_BOUND('',#284,.T.);
#331=FACE_BOUND('',#285,.T.);
#332=FACE_BOUND('',#286,.T.);
#333=FACE_BOUND('',#287,.T.);
#334=FACE_BOUND('',#288,.T.);
#335=FACE_BOUND('',#289,.T.);
#336=FACE_BOUND('',#290,.T.);
#337=FACE_BOUND('',#291,.T.);
#338=FACE_BOUND('',#292,.T.);
#339=FACE_BOUND('',#293,.T.);
#340=CONICAL_SURFACE('',#388,5.9,1.37485170139839);
#341=CONICAL_SURFACE('',#397,3.381,1.37485170139839);
#342=CONICAL_SURFACE('',#406,4.6405,0.34906585039887);
#343=CONICAL_SURFACE('',#408,4.8224851171331,1.16924497464316);
#344=CONICAL_SURFACE('',#412,6.,0.785398163397448);
#345=CONICAL_SURFACE('',#414,5.5,0.785398163397448);
#346=CONICAL_SURFACE('',#424,4.8224851171331,0.349065850398867);
#347=CONICAL_SURFACE('',#426,6.,1.16924497464316);
#348=ADVANCED_FACE('',(#294,#295),#340,.T.);
#349=ADVANCED_FACE('',(#296,#297),#53,.F.);
#350=ADVANCED_FACE('',(#298,#299),#54,.F.);
#351=ADVANCED_FACE('',(#300,#301),#341,.T.);
#352=ADVANCED_FACE('',(#302,#303),#55,.F.);
#353=ADVANCED_FACE('',(#304,#305),#20,.T.);
#354=ADVANCED_FACE('',(#306,#307),#56,.F.);
#355=ADVANCED_FACE('',(#308,#309),#342,.T.);
#356=ADVANCED_FACE('',(#310,#311),#343,.T.);
#357=ADVANCED_FACE('',(#312,#313),#21,.T.);
#358=ADVANCED_FACE('',(#314,#315),#344,.T.);
#359=ADVANCED_FACE('',(#316,#317),#345,.T.);
#360=ADVANCED_FACE('',(#318,#319),#22,.T.);
#361=ADVANCED_FACE('',(#320,#321),#57,.F.);
#362=ADVANCED_FACE('',(#322,#323),#23,.T.);
#363=ADVANCED_FACE('',(#324,#325),#58,.F.);
#364=ADVANCED_FACE('',(#326,#327),#346,.T.);
#365=ADVANCED_FACE('',(#328,#329),#347,.T.);
#366=ADVANCED_FACE('',(#330,#331),#24,.F.);
#367=ADVANCED_FACE('',(#332),#25,.T.);
#368=ADVANCED_FACE('',(#333),#59,.T.);
#369=ADVANCED_FACE('',(#334),#26,.T.);
#370=ADVANCED_FACE('',(#335),#60,.T.);
#371=ADVANCED_FACE('',(#336),#27,.T.);
#372=ADVANCED_FACE('',(#337),#61,.F.);
#373=ADVANCED_FACE('',(#338),#28,.T.);
#374=ADVANCED_FACE('',(#339),#62,.F.);
#375=CLOSED_SHELL('',(#348,#349,#350,#351,#352,#353,#354,#355,#356,#357,
#358,#359,#360,#361,#362,#363,#364,#365,#366,#367,#368,#369,#370,#371,#372,
#373,#374));
#376=STYLED_ITEM('',(#377),#384);
#377=PRESENTATION_STYLE_ASSIGNMENT((#378));
#378=SURFACE_STYLE_USAGE(.BOTH.,#379);
#379=SURFACE_SIDE_STYLE('',(#380));
#380=SURFACE_STYLE_FILL_AREA(#381);
#381=FILL_AREA_STYLE('',(#382));
#382=FILL_AREA_STYLE_COLOUR('',#383);
#383=COLOUR_RGB('',0.689999997615814,0.689999997615814,0.689999997615814);
#384=MANIFOLD_SOLID_BREP('190842 H-QSM-3/16-U',#375);
#385=SHAPE_DEFINITION_REPRESENTATION(#690,#386);
#386=SHAPE_REPRESENTATION('190842 H-QSM-3/16-U',(#387),#685);
#387=AXIS2_PLACEMENT_3D('',#546,#436,#437);
#388=AXIS2_PLACEMENT_3D('',#547,#438,#439);
#389=AXIS2_PLACEMENT_3D('',#548,#440,#441);
#390=AXIS2_PLACEMENT_3D('',#576,#442,#443);
#391=AXIS2_PLACEMENT_3D('',#577,#444,#445);
#392=AXIS2_PLACEMENT_3D('',#582,#447,#448);
#393=AXIS2_PLACEMENT_3D('',#585,#450,#451);
#394=AXIS2_PLACEMENT_3D('',#587,#452,#453);
#395=AXIS2_PLACEMENT_3D('',#588,#454,#455);
#396=AXIS2_PLACEMENT_3D('',#590,#456,#457);
#397=AXIS2_PLACEMENT_3D('',#592,#458,#459);
#398=AXIS2_PLACEMENT_3D('',#619,#460,#461);
#399=AXIS2_PLACEMENT_3D('',#620,#462,#463);
#400=AXIS2_PLACEMENT_3D('',#625,#465,#466);
#401=AXIS2_PLACEMENT_3D('',#629,#468,#469);
#402=AXIS2_PLACEMENT_3D('',#630,#470,#471);
#403=AXIS2_PLACEMENT_3D('',#631,#472,#473);
#404=AXIS2_PLACEMENT_3D('',#633,#474,#475);
#405=AXIS2_PLACEMENT_3D('',#634,#476,#477);
#406=AXIS2_PLACEMENT_3D('',#636,#478,#479);
#407=AXIS2_PLACEMENT_3D('',#637,#480,#481);
#408=AXIS2_PLACEMENT_3D('',#639,#482,#483);
#409=AXIS2_PLACEMENT_3D('',#640,#484,#485);
#410=AXIS2_PLACEMENT_3D('',#642,#486,#487);
#411=AXIS2_PLACEMENT_3D('',#643,#488,#489);
#412=AXIS2_PLACEMENT_3D('',#645,#490,#491);
#413=AXIS2_PLACEMENT_3D('',#646,#492,#493);
#414=AXIS2_PLACEMENT_3D('',#648,#494,#495);
#415=AXIS2_PLACEMENT_3D('',#649,#496,#497);
#416=AXIS2_PLACEMENT_3D('',#651,#498,#499);
#417=AXIS2_PLACEMENT_3D('',#652,#500,#501);
#418=AXIS2_PLACEMENT_3D('',#654,#502,#503);
#419=AXIS2_PLACEMENT_3D('',#655,#504,#505);
#420=AXIS2_PLACEMENT_3D('',#657,#506,#507);
#421=AXIS2_PLACEMENT_3D('',#658,#508,#509);
#422=AXIS2_PLACEMENT_3D('',#660,#510,#511);
#423=AXIS2_PLACEMENT_3D('',#661,#512,#513);
#424=AXIS2_PLACEMENT_3D('',#663,#514,#515);
#425=AXIS2_PLACEMENT_3D('',#664,#516,#517);
#426=AXIS2_PLACEMENT_3D('',#666,#518,#519);
#427=AXIS2_PLACEMENT_3D('',#667,#520,#521);
#428=AXIS2_PLACEMENT_3D('',#668,#522,#523);
#429=AXIS2_PLACEMENT_3D('',#671,#526,#527);
#430=AXIS2_PLACEMENT_3D('',#673,#529,#530);
#431=AXIS2_PLACEMENT_3D('',#675,#532,#533);
#432=AXIS2_PLACEMENT_3D('',#676,#534,#535);
#433=AXIS2_PLACEMENT_3D('',#679,#538,#539);
#434=AXIS2_PLACEMENT_3D('',#681,#541,#542);
#435=AXIS2_PLACEMENT_3D('',#683,#544,#545);
#436=DIRECTION('',(0.,0.,1.));
#437=DIRECTION('',(1.,0.,0.));
#438=DIRECTION('',(-1.,0.,0.));
#439=DIRECTION('',(0.,0.,1.));
#440=DIRECTION('',(1.,0.,0.));
#441=DIRECTION('',(0.,0.,-1.));
#442=DIRECTION('',(1.,0.,0.));
#443=DIRECTION('',(0.,0.,-1.));
#444=DIRECTION('',(1.,0.,0.));
#445=DIRECTION('',(0.,0.,-1.));
#446=DIRECTION('',(0.,1.,0.));
#447=DIRECTION('',(1.,0.,0.));
#448=DIRECTION('',(0.,0.,-1.));
#449=DIRECTION('',(0.,-1.,0.));
#450=DIRECTION('',(1.,0.,0.));
#451=DIRECTION('',(0.,0.,-1.));
#452=DIRECTION('',(1.,0.,0.));
#453=DIRECTION('',(0.,0.,-1.));
#454=DIRECTION('',(1.,0.,0.));
#455=DIRECTION('',(0.,0.,-1.));
#456=DIRECTION('',(1.,0.,0.));
#457=DIRECTION('',(0.,0.,-1.));
#458=DIRECTION('',(1.,0.,0.));
#459=DIRECTION('',(0.,0.,-1.));
#460=DIRECTION('',(-1.,0.,0.));
#461=DIRECTION('',(0.,0.,1.));
#462=DIRECTION('',(1.,0.,0.));
#463=DIRECTION('',(0.,0.,-1.));
#464=DIRECTION('',(0.,1.,0.));
#465=DIRECTION('',(-1.,0.,0.));
#466=DIRECTION('',(0.,0.,1.));
#467=DIRECTION('',(0.,-1.,0.));
#468=DIRECTION('',(-1.,0.,0.));
#469=DIRECTION('',(0.,0.,1.));
#470=DIRECTION('',(1.,0.,0.));
#471=DIRECTION('',(0.,0.,-1.));
#472=DIRECTION('',(1.,0.,0.));
#473=DIRECTION('',(0.,0.,-1.));
#474=DIRECTION('',(1.,0.,0.));
#475=DIRECTION('',(0.,0.,-1.));
#476=DIRECTION('',(1.,0.,0.));
#477=DIRECTION('',(0.,0.,-1.));
#478=DIRECTION('',(1.,0.,0.));
#479=DIRECTION('',(0.,0.,-1.));
#480=DIRECTION('',(1.,0.,0.));
#481=DIRECTION('',(0.,0.,-1.));
#482=DIRECTION('',(1.,0.,0.));
#483=DIRECTION('',(0.,0.,-1.));
#484=DIRECTION('',(1.,0.,0.));
#485=DIRECTION('',(0.,0.,-1.));
#486=DIRECTION('',(1.,0.,0.));
#487=DIRECTION('',(0.,0.,-1.));
#488=DIRECTION('',(1.,0.,0.));
#489=DIRECTION('',(0.,0.,-1.));
#490=DIRECTION('',(-1.,0.,0.));
#491=DIRECTION('',(0.,0.,1.));
#492=DIRECTION('',(1.,0.,0.));
#493=DIRECTION('',(0.,0.,-1.));
#494=DIRECTION('',(1.,0.,0.));
#495=DIRECTION('',(0.,0.,-1.));
#496=DIRECTION('',(1.,0.,0.));
#497=DIRECTION('',(0.,0.,-1.));
#498=DIRECTION('',(1.,0.,0.));
#499=DIRECTION('',(0.,0.,-1.));
#500=DIRECTION('',(1.,0.,0.));
#501=DIRECTION('',(0.,0.,-1.));
#502=DIRECTION('',(-1.,0.,0.));
#503=DIRECTION('',(0.,0.,1.));
#504=DIRECTION('',(1.,0.,0.));
#505=DIRECTION('',(0.,0.,-1.));
#506=DIRECTION('',(1.,0.,0.));
#507=DIRECTION('',(0.,0.,-1.));
#508=DIRECTION('',(1.,0.,0.));
#509=DIRECTION('',(0.,0.,-1.));
#510=DIRECTION('',(-1.,0.,0.));
#511=DIRECTION('',(0.,0.,1.));
#512=DIRECTION('',(1.,0.,0.));
#513=DIRECTION('',(0.,0.,-1.));
#514=DIRECTION('',(-1.,0.,0.));
#515=DIRECTION('',(0.,0.,1.));
#516=DIRECTION('',(1.,0.,0.));
#517=DIRECTION('',(0.,0.,-1.));
#518=DIRECTION('',(-1.,0.,0.));
#519=DIRECTION('',(0.,0.,1.));
#520=DIRECTION('',(1.,0.,0.));
#521=DIRECTION('',(0.,0.,-1.));
#522=DIRECTION('',(1.,0.,0.));
#523=DIRECTION('',(0.,0.,-1.));
#524=DIRECTION('',(1.,0.,0.));
#525=DIRECTION('',(1.,0.,0.));
#526=DIRECTION('',(0.,0.,-1.));
#527=DIRECTION('',(-1.,0.,0.));
#528=DIRECTION('',(1.,0.,0.));
#529=DIRECTION('',(1.,0.,0.));
#530=DIRECTION('',(0.,0.,-1.));
#531=DIRECTION('',(1.,0.,0.));
#532=DIRECTION('',(0.,0.,1.));
#533=DIRECTION('',(1.,0.,0.));
#534=DIRECTION('',(-1.,0.,0.));
#535=DIRECTION('',(0.,0.,1.));
#536=DIRECTION('',(-1.,0.,0.));
#537=DIRECTION('',(-1.,0.,0.));
#538=DIRECTION('',(0.,0.,1.));
#539=DIRECTION('',(1.,0.,0.));
#540=DIRECTION('',(-1.,0.,0.));
#541=DIRECTION('',(-1.,0.,0.));
#542=DIRECTION('',(0.,0.,1.));
#543=DIRECTION('',(-1.,0.,0.));
#544=DIRECTION('',(0.,0.,-1.));
#545=DIRECTION('',(-1.,0.,0.));
#546=CARTESIAN_POINT('',(0.,0.,0.));
#547=CARTESIAN_POINT('',(11.6,0.,0.));
#548=CARTESIAN_POINT('',(12.1,0.,0.));
#549=CARTESIAN_POINT('',(12.1,0.,-3.381));
#550=CARTESIAN_POINT('',(11.7784438467606,1.,4.9));
#551=CARTESIAN_POINT('',(11.7270785896215,2.2941495796282,4.9));
#552=CARTESIAN_POINT('',(11.6351334610136,4.83173697319522,3.83939989290977));
#553=CARTESIAN_POINT('',(11.5824712376856,6.43305026958616,0.00462444514456072));
#554=CARTESIAN_POINT('',(11.6349818212014,4.83605502398966,-3.83771949672524));
#555=CARTESIAN_POINT('',(11.7270782903862,2.29415711887133,-4.9));
#556=CARTESIAN_POINT('',(11.7784438467606,1.,-4.9));
#557=CARTESIAN_POINT('',(11.7784438467606,1.,4.9));
#558=CARTESIAN_POINT('',(11.7784438467606,1.,-4.9));
#559=CARTESIAN_POINT('',(11.7784438467606,-1.,4.9));
#560=CARTESIAN_POINT('',(11.8049040838912,-0.333333333333333,4.9));
#561=CARTESIAN_POINT('',(11.8049040838912,0.333333333333334,4.9));
#562=CARTESIAN_POINT('',(11.7784438467606,1.,4.9));
#563=CARTESIAN_POINT('',(11.7784438467606,-1.,4.9));
#564=CARTESIAN_POINT('',(11.7784438467606,-1.,-4.9));
#565=CARTESIAN_POINT('',(11.7270785896215,-2.2941495796282,-4.9));
#566=CARTESIAN_POINT('',(11.6351334610136,-4.83173697319522,-3.83939989290977));
#567=CARTESIAN_POINT('',(11.5824712376856,-6.43305026958616,-0.00462444514456755));
#568=CARTESIAN_POINT('',(11.6349818212014,-4.83605502398965,3.83771949672525));
#569=CARTESIAN_POINT('',(11.7270782903862,-2.29415711887133,4.9));
#570=CARTESIAN_POINT('',(11.7784438467606,-1.,4.9));
#571=CARTESIAN_POINT('',(11.7784438467606,-1.,-4.9));
#572=CARTESIAN_POINT('',(11.7784438467606,1.,-4.9));
#573=CARTESIAN_POINT('',(11.8049040838912,0.333333333333333,-4.9));
#574=CARTESIAN_POINT('',(11.8049040838912,-0.333333333333334,-4.9));
#575=CARTESIAN_POINT('',(11.7784438467606,-1.,-4.9));
#576=CARTESIAN_POINT('',(10.6,3.381,0.));
#577=CARTESIAN_POINT('',(10.6,1.,4.33680868994202E-16));
#578=CARTESIAN_POINT('',(10.6,1.,-4.9));
#579=CARTESIAN_POINT('',(10.6,1.,4.9));
#580=CARTESIAN_POINT('',(10.6,-1.,-4.9));
#581=CARTESIAN_POINT('',(10.6,-1.,-4.9));
#582=CARTESIAN_POINT('',(10.6,-1.,0.));
#583=CARTESIAN_POINT('',(10.6,-1.,4.9));
#584=CARTESIAN_POINT('',(10.6,1.,4.9));
#585=CARTESIAN_POINT('',(10.6,0.,0.));
#586=CARTESIAN_POINT('',(10.6,0.,-3.381));
#587=CARTESIAN_POINT('',(-26.9,0.,0.));
#588=CARTESIAN_POINT('',(-26.9,0.,0.));
#589=CARTESIAN_POINT('',(-26.9,0.,-3.381));
#590=CARTESIAN_POINT('',(-26.9,0.,0.));
#591=CARTESIAN_POINT('',(-26.9,0.,-2.381));
#592=CARTESIAN_POINT('',(-26.9,0.,0.));
#593=CARTESIAN_POINT('',(-26.5784438467606,1.,4.9));
#594=CARTESIAN_POINT('',(-26.5270785896215,2.2941495796282,4.9));
#595=CARTESIAN_POINT('',(-26.4351334610135,4.83173697319522,3.83939989290977));
#596=CARTESIAN_POINT('',(-26.3824712376856,6.43305026958616,0.00462444514456299));
#597=CARTESIAN_POINT('',(-26.4349818212013,4.83605502398966,-3.83771949672524));
#598=CARTESIAN_POINT('',(-26.5270782903862,2.29415711887133,-4.9));
#599=CARTESIAN_POINT('',(-26.5784438467606,0.999999999999999,-4.9));
#600=CARTESIAN_POINT('',(-26.5784438467606,1.,4.9));
#601=CARTESIAN_POINT('',(-26.5784438467606,1.,-4.9));
#602=CARTESIAN_POINT('',(-26.5784438467606,1.,-4.9));
#603=CARTESIAN_POINT('',(-26.6049040838912,0.333333333333333,-4.9));
#604=CARTESIAN_POINT('',(-26.6049040838912,-0.333333333333334,-4.9));
#605=CARTESIAN_POINT('',(-26.5784438467606,-1.,-4.9));
#606=CARTESIAN_POINT('',(-26.5784438467606,-1.,-4.9));
#607=CARTESIAN_POINT('',(-26.5784438467606,-1.,-4.9));
#608=CARTESIAN_POINT('',(-26.5270785896215,-2.2941495796282,-4.9));
#609=CARTESIAN_POINT('',(-26.4351334610135,-4.83173697319522,-3.83939989290977));
#610=CARTESIAN_POINT('',(-26.3824712376856,-6.43305026958616,-0.00462444514456142));
#611=CARTESIAN_POINT('',(-26.4349818212013,-4.83605502398966,3.83771949672524));
#612=CARTESIAN_POINT('',(-26.5270782903862,-2.29415711887133,4.9));
#613=CARTESIAN_POINT('',(-26.5784438467606,-0.999999999999999,4.9));
#614=CARTESIAN_POINT('',(-26.5784438467606,-1.,4.9));
#615=CARTESIAN_POINT('',(-26.5784438467606,-1.,4.9));
#616=CARTESIAN_POINT('',(-26.6049040838912,-0.333333333333333,4.9));
#617=CARTESIAN_POINT('',(-26.6049040838912,0.333333333333334,4.9));
#618=CARTESIAN_POINT('',(-26.5784438467606,1.,4.9));
#619=CARTESIAN_POINT('',(-25.4,5.9,0.));
#620=CARTESIAN_POINT('',(-25.4,0.,0.));
#621=CARTESIAN_POINT('',(-25.4,0.,-3.381));
#622=CARTESIAN_POINT('',(-25.4,-1.,-4.9));
#623=CARTESIAN_POINT('',(-25.4,-1.,-4.9));
#624=CARTESIAN_POINT('',(-25.4,1.,-4.9));
#625=CARTESIAN_POINT('',(-25.4,1.,4.33680868994202E-16));
#626=CARTESIAN_POINT('',(-25.4,1.,4.9));
#627=CARTESIAN_POINT('',(-25.4,1.,4.9));
#628=CARTESIAN_POINT('',(-25.4,-1.,4.9));
#629=CARTESIAN_POINT('',(-25.4,-1.,0.));
#630=CARTESIAN_POINT('',(12.1,0.,0.));
#631=CARTESIAN_POINT('',(-24.9,0.,0.));
#632=CARTESIAN_POINT('',(-24.9,0.,-3.381));
#633=CARTESIAN_POINT('',(-24.9,3.381,0.));
#634=CARTESIAN_POINT('',(-24.9,0.,0.));
#635=CARTESIAN_POINT('',(-24.9,0.,-4.6405));
#636=CARTESIAN_POINT('',(-24.9,0.,0.));
#637=CARTESIAN_POINT('',(-24.4,0.,0.));
#638=CARTESIAN_POINT('',(-24.4,0.,-4.8224851171331));
#639=CARTESIAN_POINT('',(-24.4,0.,0.));
#640=CARTESIAN_POINT('',(-23.9,0.,0.));
#641=CARTESIAN_POINT('',(-23.9,0.,-6.));
#642=CARTESIAN_POINT('',(9.1,0.,0.));
#643=CARTESIAN_POINT('',(-1.,0.,0.));
#644=CARTESIAN_POINT('',(-1.,0.,-6.));
#645=CARTESIAN_POINT('',(-1.,0.,0.));
#646=CARTESIAN_POINT('',(-0.5,0.,0.));
#647=CARTESIAN_POINT('',(-0.5,0.,-5.5));
#648=CARTESIAN_POINT('',(-0.5,0.,0.));
#649=CARTESIAN_POINT('',(0.,0.,0.));
#650=CARTESIAN_POINT('',(0.,0.,-6.));
#651=CARTESIAN_POINT('',(9.1,0.,0.));
#652=CARTESIAN_POINT('',(9.1,0.,0.));
#653=CARTESIAN_POINT('',(9.1,0.,-6.));
#654=CARTESIAN_POINT('',(12.1,3.381,0.));
#655=CARTESIAN_POINT('',(12.1,0.,0.));
#656=CARTESIAN_POINT('',(12.1,0.,-2.381));
#657=CARTESIAN_POINT('',(12.1,0.,0.));
#658=CARTESIAN_POINT('',(10.1,0.,0.));
#659=CARTESIAN_POINT('',(10.1,0.,-3.381));
#660=CARTESIAN_POINT('',(10.1,4.6405,0.));
#661=CARTESIAN_POINT('',(10.1,0.,0.));
#662=CARTESIAN_POINT('',(10.1,0.,-4.6405));
#663=CARTESIAN_POINT('',(9.6,0.,0.));
#664=CARTESIAN_POINT('',(9.6,0.,0.));
#665=CARTESIAN_POINT('',(9.6,0.,-4.8224851171331));
#666=CARTESIAN_POINT('',(9.1,0.,0.));
#667=CARTESIAN_POINT('',(12.1,0.,0.));
#668=CARTESIAN_POINT('',(10.6,1.,4.33680868994202E-16));
#669=CARTESIAN_POINT('',(10.6,1.,-4.9));
#670=CARTESIAN_POINT('',(10.6,1.,4.9));
#671=CARTESIAN_POINT('',(10.6,-1.,-4.9));
#672=CARTESIAN_POINT('',(10.6,-1.,-4.9));
#673=CARTESIAN_POINT('',(10.6,-1.,0.));
#674=CARTESIAN_POINT('',(10.6,-1.,4.9));
#675=CARTESIAN_POINT('',(10.6,1.,4.9));
#676=CARTESIAN_POINT('',(-25.4,1.,4.33680868994202E-16));
#677=CARTESIAN_POINT('',(-25.4,1.,4.9));
#678=CARTESIAN_POINT('',(-25.4,1.,-4.9));
#679=CARTESIAN_POINT('',(-25.4,-1.,-4.9));
#680=CARTESIAN_POINT('',(-25.4,-1.,-4.9));
#681=CARTESIAN_POINT('',(-25.4,-1.,0.));
#682=CARTESIAN_POINT('',(-25.4,-1.,4.9));
#683=CARTESIAN_POINT('',(-25.4,1.,4.9));
#684=MECHANICAL_DESIGN_GEOMETRIC_PRESENTATION_REPRESENTATION('',(#376),
#685);
#685=(
GEOMETRIC_REPRESENTATION_CONTEXT(3)
GLOBAL_UNCERTAINTY_ASSIGNED_CONTEXT((#686))
GLOBAL_UNIT_ASSIGNED_CONTEXT((#689,#688,#687))
REPRESENTATION_CONTEXT('190842 H-QSM-3/16-U','TOP_LEVEL_ASSEMBLY_PART')
);
#686=UNCERTAINTY_MEASURE_WITH_UNIT(LENGTH_MEASURE(0.005),#689,
'DISTANCE_ACCURACY_VALUE','Maximum Tolerance applied to model');
#687=(
NAMED_UNIT(*)
SI_UNIT($,.STERADIAN.)
SOLID_ANGLE_UNIT()
);
#688=(
NAMED_UNIT(*)
PLANE_ANGLE_UNIT()
SI_UNIT($,.RADIAN.)
);
#689=(
LENGTH_UNIT()
NAMED_UNIT(*)
SI_UNIT(.MILLI.,.METRE.)
);
#690=PRODUCT_DEFINITION_SHAPE('','',#691);
#691=PRODUCT_DEFINITION('','',#693,#692);
#692=PRODUCT_DEFINITION_CONTEXT('',#699,'design');
#693=PRODUCT_DEFINITION_FORMATION_WITH_SPECIFIED_SOURCE('','',#695,
 .NOT_KNOWN.);
#694=PRODUCT_RELATED_PRODUCT_CATEGORY('','',(#695));
#695=PRODUCT('190842 H-QSM-3/16-U','190842 H-QSM-3/16-U',
'190842 H-QSM-3/16-U',(#697));
#696=PRODUCT_CATEGORY('','');
#697=PRODUCT_CONTEXT('',#699,'mechanical');
#698=APPLICATION_PROTOCOL_DEFINITION('international standard',
'automotive_design',2010,#699);
#699=APPLICATION_CONTEXT(
'core data for automotive mechanical design processes');
ENDSEC;
END-ISO-10303-21;
