ISO-10303-21;
HEADER;
/* Generated by software containing ST-Developer
 * from STEP Tools, Inc. (www.steptools.com) 
 */
/* OPTION: using custom renumber hook */

FILE_DESCRIPTION(
/* description */ ('STEP AP214'),
/* implementation_level */ '2;1');

FILE_NAME(
/* name */ '190846_H-QS-1_2-U',
/* time_stamp */ '2024-08-29T11:23:50+02:00',
/* author */ ('License CC BY-ND 4.0'),
/* organization */ ('CADENAS'),
/* preprocessor_version */ 'ST-DEVELOPER v19.3',
/* originating_system */ 'PARTsolutions',
/* authorisation */ '  ');

FILE_SCHEMA (('AUTOMOTIVE_DESIGN {1 0 10303 214 3 1 1}'));
ENDSEC;

DATA;
#10=PROPERTY_DEFINITION_REPRESENTATION(#14,#12);
#11=PROPERTY_DEFINITION_REPRESENTATION(#15,#13);
#12=REPRESENTATION('',(#16),#497);
#13=REPRESENTATION('',(#17),#497);
#14=PROPERTY_DEFINITION('pmi validation property','',#502);
#15=PROPERTY_DEFINITION('pmi validation property','',#502);
#16=VALUE_REPRESENTATION_ITEM('number of annotations',COUNT_MEASURE(0.));
#17=VALUE_REPRESENTATION_ITEM('number of views',COUNT_MEASURE(0.));
#18=SHAPE_REPRESENTATION_RELATIONSHIP('','',#284,#19);
#19=ADVANCED_BREP_SHAPE_REPRESENTATION('',(#282),#497);
#20=CONICAL_SURFACE('',#291,12.5,0.785398163397455);
#21=CONICAL_SURFACE('',#293,12.,0.785398163397455);
#22=CONICAL_SURFACE('',#302,9.9,1.37717433393895);
#23=CONICAL_SURFACE('',#312,8.8069851171331,0.349065850398865);
#24=CONICAL_SURFACE('',#314,9.52105912050416,0.959931088596883);
#25=CONICAL_SURFACE('',#318,7.35,1.37717433393895);
#26=CONICAL_SURFACE('',#328,8.625,0.349065850398871);
#27=CONICAL_SURFACE('',#330,8.80698511713311,0.959931088596875);
#28=CYLINDRICAL_SURFACE('',#289,12.5);
#29=CYLINDRICAL_SURFACE('',#295,12.5);
#30=CYLINDRICAL_SURFACE('',#304,9.9);
#31=CYLINDRICAL_SURFACE('',#308,7.35);
#32=CYLINDRICAL_SURFACE('',#320,9.9);
#33=CYLINDRICAL_SURFACE('',#324,7.35);
#34=CYLINDRICAL_SURFACE('',#331,6.35);
#35=ORIENTED_EDGE('',*,*,#81,.F.);
#36=ORIENTED_EDGE('',*,*,#82,.T.);
#37=ORIENTED_EDGE('',*,*,#83,.F.);
#38=ORIENTED_EDGE('',*,*,#81,.T.);
#39=ORIENTED_EDGE('',*,*,#84,.F.);
#40=ORIENTED_EDGE('',*,*,#83,.T.);
#41=ORIENTED_EDGE('',*,*,#85,.F.);
#42=ORIENTED_EDGE('',*,*,#84,.T.);
#43=ORIENTED_EDGE('',*,*,#86,.F.);
#44=ORIENTED_EDGE('',*,*,#85,.T.);
#45=ORIENTED_EDGE('',*,*,#87,.F.);
#46=ORIENTED_EDGE('',*,*,#86,.T.);
#47=ORIENTED_EDGE('',*,*,#88,.F.);
#48=ORIENTED_EDGE('',*,*,#89,.T.);
#49=ORIENTED_EDGE('',*,*,#89,.F.);
#50=ORIENTED_EDGE('',*,*,#90,.T.);
#51=ORIENTED_EDGE('',*,*,#90,.F.);
#52=ORIENTED_EDGE('',*,*,#91,.T.);
#53=ORIENTED_EDGE('',*,*,#91,.F.);
#54=ORIENTED_EDGE('',*,*,#92,.T.);
#55=ORIENTED_EDGE('',*,*,#92,.F.);
#56=ORIENTED_EDGE('',*,*,#93,.T.);
#57=ORIENTED_EDGE('',*,*,#93,.F.);
#58=ORIENTED_EDGE('',*,*,#94,.T.);
#59=ORIENTED_EDGE('',*,*,#94,.F.);
#60=ORIENTED_EDGE('',*,*,#95,.T.);
#61=ORIENTED_EDGE('',*,*,#95,.F.);
#62=ORIENTED_EDGE('',*,*,#87,.T.);
#63=ORIENTED_EDGE('',*,*,#96,.F.);
#64=ORIENTED_EDGE('',*,*,#97,.T.);
#65=ORIENTED_EDGE('',*,*,#98,.F.);
#66=ORIENTED_EDGE('',*,*,#96,.T.);
#67=ORIENTED_EDGE('',*,*,#99,.F.);
#68=ORIENTED_EDGE('',*,*,#98,.T.);
#69=ORIENTED_EDGE('',*,*,#100,.F.);
#70=ORIENTED_EDGE('',*,*,#99,.T.);
#71=ORIENTED_EDGE('',*,*,#101,.F.);
#72=ORIENTED_EDGE('',*,*,#100,.T.);
#73=ORIENTED_EDGE('',*,*,#102,.F.);
#74=ORIENTED_EDGE('',*,*,#101,.T.);
#75=ORIENTED_EDGE('',*,*,#103,.F.);
#76=ORIENTED_EDGE('',*,*,#102,.T.);
#77=ORIENTED_EDGE('',*,*,#82,.F.);
#78=ORIENTED_EDGE('',*,*,#103,.T.);
#79=ORIENTED_EDGE('',*,*,#88,.T.);
#80=ORIENTED_EDGE('',*,*,#97,.F.);
#81=EDGE_CURVE('',#104,#104,#127,.T.);
#82=EDGE_CURVE('',#105,#105,#128,.T.);
#83=EDGE_CURVE('',#106,#106,#129,.T.);
#84=EDGE_CURVE('',#107,#107,#130,.T.);
#85=EDGE_CURVE('',#108,#108,#131,.T.);
#86=EDGE_CURVE('',#109,#109,#132,.T.);
#87=EDGE_CURVE('',#110,#110,#133,.T.);
#88=EDGE_CURVE('',#111,#111,#134,.T.);
#89=EDGE_CURVE('',#112,#112,#135,.T.);
#90=EDGE_CURVE('',#113,#113,#136,.T.);
#91=EDGE_CURVE('',#114,#114,#137,.T.);
#92=EDGE_CURVE('',#115,#115,#138,.T.);
#93=EDGE_CURVE('',#116,#116,#139,.T.);
#94=EDGE_CURVE('',#117,#117,#140,.T.);
#95=EDGE_CURVE('',#118,#118,#141,.T.);
#96=EDGE_CURVE('',#119,#119,#142,.T.);
#97=EDGE_CURVE('',#120,#120,#143,.T.);
#98=EDGE_CURVE('',#121,#121,#144,.T.);
#99=EDGE_CURVE('',#122,#122,#145,.T.);
#100=EDGE_CURVE('',#123,#123,#146,.T.);
#101=EDGE_CURVE('',#124,#124,#147,.T.);
#102=EDGE_CURVE('',#125,#125,#148,.T.);
#103=EDGE_CURVE('',#126,#126,#149,.T.);
#104=VERTEX_POINT('',#429);
#105=VERTEX_POINT('',#431);
#106=VERTEX_POINT('',#434);
#107=VERTEX_POINT('',#437);
#108=VERTEX_POINT('',#440);
#109=VERTEX_POINT('',#443);
#110=VERTEX_POINT('',#446);
#111=VERTEX_POINT('',#449);
#112=VERTEX_POINT('',#451);
#113=VERTEX_POINT('',#454);
#114=VERTEX_POINT('',#457);
#115=VERTEX_POINT('',#460);
#116=VERTEX_POINT('',#463);
#117=VERTEX_POINT('',#466);
#118=VERTEX_POINT('',#469);
#119=VERTEX_POINT('',#473);
#120=VERTEX_POINT('',#475);
#121=VERTEX_POINT('',#478);
#122=VERTEX_POINT('',#481);
#123=VERTEX_POINT('',#484);
#124=VERTEX_POINT('',#487);
#125=VERTEX_POINT('',#490);
#126=VERTEX_POINT('',#493);
#127=CIRCLE('',#287,12.5);
#128=CIRCLE('',#288,9.52105912050415);
#129=CIRCLE('',#290,12.5);
#130=CIRCLE('',#292,12.);
#131=CIRCLE('',#294,12.5);
#132=CIRCLE('',#296,12.5);
#133=CIRCLE('',#298,9.52105912050416);
#134=CIRCLE('',#300,6.35);
#135=CIRCLE('',#301,7.35);
#136=CIRCLE('',#303,9.9);
#137=CIRCLE('',#305,9.9);
#138=CIRCLE('',#307,7.35);
#139=CIRCLE('',#309,7.35);
#140=CIRCLE('',#311,8.625);
#141=CIRCLE('',#313,8.8069851171331);
#142=CIRCLE('',#316,7.35);
#143=CIRCLE('',#317,6.35);
#144=CIRCLE('',#319,9.9);
#145=CIRCLE('',#321,9.9);
#146=CIRCLE('',#323,7.35);
#147=CIRCLE('',#325,7.35);
#148=CIRCLE('',#327,8.625);
#149=CIRCLE('',#329,8.80698511713311);
#150=EDGE_LOOP('',(#35));
#151=EDGE_LOOP('',(#36));
#152=EDGE_LOOP('',(#37));
#153=EDGE_LOOP('',(#38));
#154=EDGE_LOOP('',(#39));
#155=EDGE_LOOP('',(#40));
#156=EDGE_LOOP('',(#41));
#157=EDGE_LOOP('',(#42));
#158=EDGE_LOOP('',(#43));
#159=EDGE_LOOP('',(#44));
#160=EDGE_LOOP('',(#45));
#161=EDGE_LOOP('',(#46));
#162=EDGE_LOOP('',(#47));
#163=EDGE_LOOP('',(#48));
#164=EDGE_LOOP('',(#49));
#165=EDGE_LOOP('',(#50));
#166=EDGE_LOOP('',(#51));
#167=EDGE_LOOP('',(#52));
#168=EDGE_LOOP('',(#53));
#169=EDGE_LOOP('',(#54));
#170=EDGE_LOOP('',(#55));
#171=EDGE_LOOP('',(#56));
#172=EDGE_LOOP('',(#57));
#173=EDGE_LOOP('',(#58));
#174=EDGE_LOOP('',(#59));
#175=EDGE_LOOP('',(#60));
#176=EDGE_LOOP('',(#61));
#177=EDGE_LOOP('',(#62));
#178=EDGE_LOOP('',(#63));
#179=EDGE_LOOP('',(#64));
#180=EDGE_LOOP('',(#65));
#181=EDGE_LOOP('',(#66));
#182=EDGE_LOOP('',(#67));
#183=EDGE_LOOP('',(#68));
#184=EDGE_LOOP('',(#69));
#185=EDGE_LOOP('',(#70));
#186=EDGE_LOOP('',(#71));
#187=EDGE_LOOP('',(#72));
#188=EDGE_LOOP('',(#73));
#189=EDGE_LOOP('',(#74));
#190=EDGE_LOOP('',(#75));
#191=EDGE_LOOP('',(#76));
#192=EDGE_LOOP('',(#77));
#193=EDGE_LOOP('',(#78));
#194=EDGE_LOOP('',(#79));
#195=EDGE_LOOP('',(#80));
#196=FACE_BOUND('',#150,.T.);
#197=FACE_BOUND('',#151,.T.);
#198=FACE_BOUND('',#152,.T.);
#199=FACE_BOUND('',#153,.T.);
#200=FACE_BOUND('',#154,.T.);
#201=FACE_BOUND('',#155,.T.);
#202=FACE_BOUND('',#156,.T.);
#203=FACE_BOUND('',#157,.T.);
#204=FACE_BOUND('',#158,.T.);
#205=FACE_BOUND('',#159,.T.);
#206=FACE_BOUND('',#160,.T.);
#207=FACE_BOUND('',#161,.T.);
#208=FACE_BOUND('',#162,.T.);
#209=FACE_BOUND('',#163,.T.);
#210=FACE_BOUND('',#164,.T.);
#211=FACE_BOUND('',#165,.T.);
#212=FACE_BOUND('',#166,.T.);
#213=FACE_BOUND('',#167,.T.);
#214=FACE_BOUND('',#168,.T.);
#215=FACE_BOUND('',#169,.T.);
#216=FACE_BOUND('',#170,.T.);
#217=FACE_BOUND('',#171,.T.);
#218=FACE_BOUND('',#172,.T.);
#219=FACE_BOUND('',#173,.T.);
#220=FACE_BOUND('',#174,.T.);
#221=FACE_BOUND('',#175,.T.);
#222=FACE_BOUND('',#176,.T.);
#223=FACE_BOUND('',#177,.T.);
#224=FACE_BOUND('',#178,.T.);
#225=FACE_BOUND('',#179,.T.);
#226=FACE_BOUND('',#180,.T.);
#227=FACE_BOUND('',#181,.T.);
#228=FACE_BOUND('',#182,.T.);
#229=FACE_BOUND('',#183,.T.);
#230=FACE_BOUND('',#184,.T.);
#231=FACE_BOUND('',#185,.T.);
#232=FACE_BOUND('',#186,.T.);
#233=FACE_BOUND('',#187,.T.);
#234=FACE_BOUND('',#188,.T.);
#235=FACE_BOUND('',#189,.T.);
#236=FACE_BOUND('',#190,.T.);
#237=FACE_BOUND('',#191,.T.);
#238=FACE_BOUND('',#192,.T.);
#239=FACE_BOUND('',#193,.T.);
#240=FACE_BOUND('',#194,.T.);
#241=FACE_BOUND('',#195,.T.);
#242=PLANE('',#286);
#243=PLANE('',#297);
#244=PLANE('',#299);
#245=PLANE('',#306);
#246=PLANE('',#310);
#247=PLANE('',#315);
#248=PLANE('',#322);
#249=PLANE('',#326);
#250=ADVANCED_FACE('',(#196,#197),#242,.F.);
#251=ADVANCED_FACE('',(#198,#199),#28,.T.);
#252=ADVANCED_FACE('',(#200,#201),#20,.T.);
#253=ADVANCED_FACE('',(#202,#203),#21,.T.);
#254=ADVANCED_FACE('',(#204,#205),#29,.T.);
#255=ADVANCED_FACE('',(#206,#207),#243,.F.);
#256=ADVANCED_FACE('',(#208,#209),#244,.F.);
#257=ADVANCED_FACE('',(#210,#211),#22,.T.);
#258=ADVANCED_FACE('',(#212,#213),#30,.T.);
#259=ADVANCED_FACE('',(#214,#215),#245,.F.);
#260=ADVANCED_FACE('',(#216,#217),#31,.T.);
#261=ADVANCED_FACE('',(#218,#219),#246,.F.);
#262=ADVANCED_FACE('',(#220,#221),#23,.T.);
#263=ADVANCED_FACE('',(#222,#223),#24,.T.);
#264=ADVANCED_FACE('',(#224,#225),#247,.F.);
#265=ADVANCED_FACE('',(#226,#227),#25,.T.);
#266=ADVANCED_FACE('',(#228,#229),#32,.T.);
#267=ADVANCED_FACE('',(#230,#231),#248,.F.);
#268=ADVANCED_FACE('',(#232,#233),#33,.T.);
#269=ADVANCED_FACE('',(#234,#235),#249,.F.);
#270=ADVANCED_FACE('',(#236,#237),#26,.T.);
#271=ADVANCED_FACE('',(#238,#239),#27,.T.);
#272=ADVANCED_FACE('',(#240,#241),#34,.F.);
#273=CLOSED_SHELL('',(#250,#251,#252,#253,#254,#255,#256,#257,#258,#259,
#260,#261,#262,#263,#264,#265,#266,#267,#268,#269,#270,#271,#272));
#274=STYLED_ITEM('',(#275),#282);
#275=PRESENTATION_STYLE_ASSIGNMENT((#276));
#276=SURFACE_STYLE_USAGE(.BOTH.,#277);
#277=SURFACE_SIDE_STYLE('',(#278));
#278=SURFACE_STYLE_FILL_AREA(#279);
#279=FILL_AREA_STYLE('',(#280));
#280=FILL_AREA_STYLE_COLOUR('',#281);
#281=COLOUR_RGB('',0.689999997615814,0.689999997615814,0.689999997615814);
#282=MANIFOLD_SOLID_BREP('190846 H-QS-1/2-U',#273);
#283=SHAPE_DEFINITION_REPRESENTATION(#502,#284);
#284=SHAPE_REPRESENTATION('190846 H-QS-1/2-U',(#285),#497);
#285=AXIS2_PLACEMENT_3D('',#426,#332,#333);
#286=AXIS2_PLACEMENT_3D('',#427,#334,#335);
#287=AXIS2_PLACEMENT_3D('',#428,#336,#337);
#288=AXIS2_PLACEMENT_3D('',#430,#338,#339);
#289=AXIS2_PLACEMENT_3D('',#432,#340,#341);
#290=AXIS2_PLACEMENT_3D('',#433,#342,#343);
#291=AXIS2_PLACEMENT_3D('',#435,#344,#345);
#292=AXIS2_PLACEMENT_3D('',#436,#346,#347);
#293=AXIS2_PLACEMENT_3D('',#438,#348,#349);
#294=AXIS2_PLACEMENT_3D('',#439,#350,#351);
#295=AXIS2_PLACEMENT_3D('',#441,#352,#353);
#296=AXIS2_PLACEMENT_3D('',#442,#354,#355);
#297=AXIS2_PLACEMENT_3D('',#444,#356,#357);
#298=AXIS2_PLACEMENT_3D('',#445,#358,#359);
#299=AXIS2_PLACEMENT_3D('',#447,#360,#361);
#300=AXIS2_PLACEMENT_3D('',#448,#362,#363);
#301=AXIS2_PLACEMENT_3D('',#450,#364,#365);
#302=AXIS2_PLACEMENT_3D('',#452,#366,#367);
#303=AXIS2_PLACEMENT_3D('',#453,#368,#369);
#304=AXIS2_PLACEMENT_3D('',#455,#370,#371);
#305=AXIS2_PLACEMENT_3D('',#456,#372,#373);
#306=AXIS2_PLACEMENT_3D('',#458,#374,#375);
#307=AXIS2_PLACEMENT_3D('',#459,#376,#377);
#308=AXIS2_PLACEMENT_3D('',#461,#378,#379);
#309=AXIS2_PLACEMENT_3D('',#462,#380,#381);
#310=AXIS2_PLACEMENT_3D('',#464,#382,#383);
#311=AXIS2_PLACEMENT_3D('',#465,#384,#385);
#312=AXIS2_PLACEMENT_3D('',#467,#386,#387);
#313=AXIS2_PLACEMENT_3D('',#468,#388,#389);
#314=AXIS2_PLACEMENT_3D('',#470,#390,#391);
#315=AXIS2_PLACEMENT_3D('',#471,#392,#393);
#316=AXIS2_PLACEMENT_3D('',#472,#394,#395);
#317=AXIS2_PLACEMENT_3D('',#474,#396,#397);
#318=AXIS2_PLACEMENT_3D('',#476,#398,#399);
#319=AXIS2_PLACEMENT_3D('',#477,#400,#401);
#320=AXIS2_PLACEMENT_3D('',#479,#402,#403);
#321=AXIS2_PLACEMENT_3D('',#480,#404,#405);
#322=AXIS2_PLACEMENT_3D('',#482,#406,#407);
#323=AXIS2_PLACEMENT_3D('',#483,#408,#409);
#324=AXIS2_PLACEMENT_3D('',#485,#410,#411);
#325=AXIS2_PLACEMENT_3D('',#486,#412,#413);
#326=AXIS2_PLACEMENT_3D('',#488,#414,#415);
#327=AXIS2_PLACEMENT_3D('',#489,#416,#417);
#328=AXIS2_PLACEMENT_3D('',#491,#418,#419);
#329=AXIS2_PLACEMENT_3D('',#492,#420,#421);
#330=AXIS2_PLACEMENT_3D('',#494,#422,#423);
#331=AXIS2_PLACEMENT_3D('',#495,#424,#425);
#332=DIRECTION('',(0.,0.,1.));
#333=DIRECTION('',(1.,0.,0.));
#334=DIRECTION('',(1.,0.,0.));
#335=DIRECTION('',(0.,0.,-1.));
#336=DIRECTION('',(1.,0.,0.));
#337=DIRECTION('',(0.,0.,-1.));
#338=DIRECTION('',(1.,0.,0.));
#339=DIRECTION('',(0.,0.,-1.));
#340=DIRECTION('',(1.,0.,0.));
#341=DIRECTION('',(0.,0.,-1.));
#342=DIRECTION('',(1.,0.,0.));
#343=DIRECTION('',(0.,0.,-1.));
#344=DIRECTION('',(-1.,0.,0.));
#345=DIRECTION('',(0.,0.,1.));
#346=DIRECTION('',(1.,0.,0.));
#347=DIRECTION('',(0.,0.,-1.));
#348=DIRECTION('',(1.,0.,0.));
#349=DIRECTION('',(0.,0.,-1.));
#350=DIRECTION('',(1.,0.,0.));
#351=DIRECTION('',(0.,0.,-1.));
#352=DIRECTION('',(1.,0.,0.));
#353=DIRECTION('',(0.,0.,-1.));
#354=DIRECTION('',(1.,0.,0.));
#355=DIRECTION('',(0.,0.,-1.));
#356=DIRECTION('',(-1.,0.,0.));
#357=DIRECTION('',(0.,0.,1.));
#358=DIRECTION('',(1.,0.,0.));
#359=DIRECTION('',(0.,0.,-1.));
#360=DIRECTION('',(-1.,0.,0.));
#361=DIRECTION('',(0.,0.,1.));
#362=DIRECTION('',(1.,0.,0.));
#363=DIRECTION('',(0.,0.,-1.));
#364=DIRECTION('',(1.,0.,0.));
#365=DIRECTION('',(0.,0.,-1.));
#366=DIRECTION('',(-1.,0.,0.));
#367=DIRECTION('',(0.,0.,1.));
#368=DIRECTION('',(1.,0.,0.));
#369=DIRECTION('',(0.,0.,-1.));
#370=DIRECTION('',(1.,0.,0.));
#371=DIRECTION('',(0.,0.,-1.));
#372=DIRECTION('',(1.,0.,0.));
#373=DIRECTION('',(0.,0.,-1.));
#374=DIRECTION('',(1.,0.,0.));
#375=DIRECTION('',(0.,0.,-1.));
#376=DIRECTION('',(1.,0.,0.));
#377=DIRECTION('',(0.,0.,-1.));
#378=DIRECTION('',(1.,0.,0.));
#379=DIRECTION('',(0.,0.,-1.));
#380=DIRECTION('',(1.,0.,0.));
#381=DIRECTION('',(0.,0.,-1.));
#382=DIRECTION('',(-1.,0.,0.));
#383=DIRECTION('',(0.,0.,1.));
#384=DIRECTION('',(1.,0.,0.));
#385=DIRECTION('',(0.,0.,-1.));
#386=DIRECTION('',(-1.,0.,0.));
#387=DIRECTION('',(0.,0.,1.));
#388=DIRECTION('',(1.,0.,0.));
#389=DIRECTION('',(0.,0.,-1.));
#390=DIRECTION('',(-1.,0.,0.));
#391=DIRECTION('',(0.,0.,1.));
#392=DIRECTION('',(1.,0.,0.));
#393=DIRECTION('',(0.,0.,-1.));
#394=DIRECTION('',(1.,0.,0.));
#395=DIRECTION('',(0.,0.,-1.));
#396=DIRECTION('',(1.,0.,0.));
#397=DIRECTION('',(0.,0.,-1.));
#398=DIRECTION('',(1.,0.,0.));
#399=DIRECTION('',(0.,0.,-1.));
#400=DIRECTION('',(1.,0.,0.));
#401=DIRECTION('',(0.,0.,-1.));
#402=DIRECTION('',(1.,0.,0.));
#403=DIRECTION('',(0.,0.,-1.));
#404=DIRECTION('',(1.,0.,0.));
#405=DIRECTION('',(0.,0.,-1.));
#406=DIRECTION('',(-1.,0.,0.));
#407=DIRECTION('',(0.,0.,1.));
#408=DIRECTION('',(1.,0.,0.));
#409=DIRECTION('',(0.,0.,-1.));
#410=DIRECTION('',(1.,0.,0.));
#411=DIRECTION('',(0.,0.,-1.));
#412=DIRECTION('',(1.,0.,0.));
#413=DIRECTION('',(0.,0.,-1.));
#414=DIRECTION('',(1.,0.,0.));
#415=DIRECTION('',(0.,0.,-1.));
#416=DIRECTION('',(1.,0.,0.));
#417=DIRECTION('',(0.,0.,-1.));
#418=DIRECTION('',(1.,0.,0.));
#419=DIRECTION('',(0.,0.,-1.));
#420=DIRECTION('',(1.,0.,0.));
#421=DIRECTION('',(0.,0.,-1.));
#422=DIRECTION('',(1.,0.,0.));
#423=DIRECTION('',(0.,0.,-1.));
#424=DIRECTION('',(1.,0.,0.));
#425=DIRECTION('',(0.,0.,-1.));
#426=CARTESIAN_POINT('',(0.,0.,0.));
#427=CARTESIAN_POINT('',(-52.1,0.,0.));
#428=CARTESIAN_POINT('',(-52.1,0.,0.));
#429=CARTESIAN_POINT('',(-52.1,0.,-12.5));
#430=CARTESIAN_POINT('',(-52.1,0.,0.));
#431=CARTESIAN_POINT('',(-52.1,0.,-9.52105912050415));
#432=CARTESIAN_POINT('',(20.1,0.,0.));
#433=CARTESIAN_POINT('',(-0.999999999999987,0.,0.));
#434=CARTESIAN_POINT('',(-0.999999999999987,0.,-12.5));
#435=CARTESIAN_POINT('',(-0.999999999999987,0.,0.));
#436=CARTESIAN_POINT('',(-0.499999999999994,0.,0.));
#437=CARTESIAN_POINT('',(-0.499999999999994,0.,-12.));
#438=CARTESIAN_POINT('',(-0.499999999999994,0.,0.));
#439=CARTESIAN_POINT('',(0.,0.,0.));
#440=CARTESIAN_POINT('',(0.,0.,-12.5));
#441=CARTESIAN_POINT('',(20.1,0.,0.));
#442=CARTESIAN_POINT('',(20.1,0.,0.));
#443=CARTESIAN_POINT('',(20.1,0.,-12.5));
#444=CARTESIAN_POINT('',(20.1,12.5,0.));
#445=CARTESIAN_POINT('',(20.1,0.,0.));
#446=CARTESIAN_POINT('',(20.1,0.,-9.52105912050416));
#447=CARTESIAN_POINT('',(23.1,7.35,0.));
#448=CARTESIAN_POINT('',(23.1,0.,0.));
#449=CARTESIAN_POINT('',(23.1,0.,-6.35));
#450=CARTESIAN_POINT('',(23.1,0.,0.));
#451=CARTESIAN_POINT('',(23.1,0.,-7.35));
#452=CARTESIAN_POINT('',(22.6,0.,0.));
#453=CARTESIAN_POINT('',(22.6,0.,0.));
#454=CARTESIAN_POINT('',(22.6,0.,-9.9));
#455=CARTESIAN_POINT('',(23.1,0.,0.));
#456=CARTESIAN_POINT('',(21.6,0.,0.));
#457=CARTESIAN_POINT('',(21.6,0.,-9.9));
#458=CARTESIAN_POINT('',(21.6,7.35,0.));
#459=CARTESIAN_POINT('',(21.6,0.,0.));
#460=CARTESIAN_POINT('',(21.6,0.,-7.35));
#461=CARTESIAN_POINT('',(23.1,0.,0.));
#462=CARTESIAN_POINT('',(21.1,0.,0.));
#463=CARTESIAN_POINT('',(21.1,0.,-7.35));
#464=CARTESIAN_POINT('',(21.1,8.625,0.));
#465=CARTESIAN_POINT('',(21.1,0.,0.));
#466=CARTESIAN_POINT('',(21.1,0.,-8.625));
#467=CARTESIAN_POINT('',(20.6,0.,0.));
#468=CARTESIAN_POINT('',(20.6,0.,0.));
#469=CARTESIAN_POINT('',(20.6,0.,-8.8069851171331));
#470=CARTESIAN_POINT('',(20.1,0.,0.));
#471=CARTESIAN_POINT('',(-55.1,0.,0.));
#472=CARTESIAN_POINT('',(-55.1,0.,0.));
#473=CARTESIAN_POINT('',(-55.1,0.,-7.35));
#474=CARTESIAN_POINT('',(-55.1,0.,0.));
#475=CARTESIAN_POINT('',(-55.1,0.,-6.35));
#476=CARTESIAN_POINT('',(-55.1,0.,0.));
#477=CARTESIAN_POINT('',(-54.6,0.,0.));
#478=CARTESIAN_POINT('',(-54.6,0.,-9.9));
#479=CARTESIAN_POINT('',(23.1,0.,0.));
#480=CARTESIAN_POINT('',(-53.6,0.,0.));
#481=CARTESIAN_POINT('',(-53.6,0.,-9.9));
#482=CARTESIAN_POINT('',(-53.6,9.9,0.));
#483=CARTESIAN_POINT('',(-53.6,0.,0.));
#484=CARTESIAN_POINT('',(-53.6,0.,-7.35));
#485=CARTESIAN_POINT('',(23.1,0.,0.));
#486=CARTESIAN_POINT('',(-53.1,0.,0.));
#487=CARTESIAN_POINT('',(-53.1,0.,-7.35));
#488=CARTESIAN_POINT('',(-53.1,7.35,0.));
#489=CARTESIAN_POINT('',(-53.1,0.,0.));
#490=CARTESIAN_POINT('',(-53.1,0.,-8.625));
#491=CARTESIAN_POINT('',(-53.1,0.,0.));
#492=CARTESIAN_POINT('',(-52.6,0.,0.));
#493=CARTESIAN_POINT('',(-52.6,0.,-8.80698511713311));
#494=CARTESIAN_POINT('',(-52.6,0.,0.));
#495=CARTESIAN_POINT('',(23.1,0.,0.));
#496=MECHANICAL_DESIGN_GEOMETRIC_PRESENTATION_REPRESENTATION('',(#274),
#497);
#497=(
GEOMETRIC_REPRESENTATION_CONTEXT(3)
GLOBAL_UNCERTAINTY_ASSIGNED_CONTEXT((#498))
GLOBAL_UNIT_ASSIGNED_CONTEXT((#501,#500,#499))
REPRESENTATION_CONTEXT('190846 H-QS-1/2-U','TOP_LEVEL_ASSEMBLY_PART')
);
#498=UNCERTAINTY_MEASURE_WITH_UNIT(LENGTH_MEASURE(0.005),#501,
'DISTANCE_ACCURACY_VALUE','Maximum Tolerance applied to model');
#499=(
NAMED_UNIT(*)
SI_UNIT($,.STERADIAN.)
SOLID_ANGLE_UNIT()
);
#500=(
NAMED_UNIT(*)
PLANE_ANGLE_UNIT()
SI_UNIT($,.RADIAN.)
);
#501=(
LENGTH_UNIT()
NAMED_UNIT(*)
SI_UNIT(.MILLI.,.METRE.)
);
#502=PRODUCT_DEFINITION_SHAPE('','',#503);
#503=PRODUCT_DEFINITION('','',#505,#504);
#504=PRODUCT_DEFINITION_CONTEXT('',#511,'design');
#505=PRODUCT_DEFINITION_FORMATION_WITH_SPECIFIED_SOURCE('','',#507,
 .NOT_KNOWN.);
#506=PRODUCT_RELATED_PRODUCT_CATEGORY('','',(#507));
#507=PRODUCT('190846 H-QS-1/2-U','190846 H-QS-1/2-U',
'190846 H-QS-1/2-U',(#509));
#508=PRODUCT_CATEGORY('','');
#509=PRODUCT_CONTEXT('',#511,'mechanical');
#510=APPLICATION_PROTOCOL_DEFINITION('international standard',
'automotive_design',2010,#511);
#511=APPLICATION_CONTEXT(
'core data for automotive mechanical design processes');
ENDSEC;
END-ISO-10303-21;
