ISO-10303-21;
HEADER;
/* Generated by software containing ST-Developer
 * from STEP Tools, Inc. (www.steptools.com) 
 */
/* OPTION: using custom renumber hook */

FILE_DESCRIPTION(
/* description */ ('STEP AP214'),
/* implementation_level */ '2;1');

FILE_NAME(
/* name */ '190854_HA-1_4-QS-5_16-U',
/* time_stamp */ '2024-08-28T23:15:22+02:00',
/* author */ ('License CC BY-ND 4.0'),
/* organization */ ('CADENAS'),
/* preprocessor_version */ 'ST-DEVELOPER v19.3',
/* originating_system */ 'PARTsolutions',
/* authorisation */ '  ');

FILE_SCHEMA (('AUTOMOTIVE_DESIGN {1 0 10303 214 3 1 1}'));
ENDSEC;

DATA;
#10=PROPERTY_DEFINITION_REPRESENTATION(#14,#12);
#11=PROPERTY_DEFINITION_REPRESENTATION(#15,#13);
#12=REPRESENTATION('',(#16),#545);
#13=REPRESENTATION('',(#17),#545);
#14=PROPERTY_DEFINITION('pmi validation property','',#550);
#15=PROPERTY_DEFINITION('pmi validation property','',#550);
#16=VALUE_REPRESENTATION_ITEM('number of annotations',COUNT_MEASURE(0.));
#17=VALUE_REPRESENTATION_ITEM('number of views',COUNT_MEASURE(0.));
#18=SHAPE_REPRESENTATION_RELATIONSHIP('','',#328,#19);
#19=ADVANCED_BREP_SHAPE_REPRESENTATION('',(#326),#545);
#20=LINE('',#492,#38);
#21=LINE('',#495,#39);
#22=LINE('',#497,#40);
#23=LINE('',#499,#41);
#24=LINE('',#501,#42);
#25=LINE('',#503,#43);
#26=LINE('',#505,#44);
#27=LINE('',#508,#45);
#28=LINE('',#509,#46);
#29=LINE('',#511,#47);
#30=LINE('',#513,#48);
#31=LINE('',#515,#49);
#32=LINE('',#517,#50);
#33=LINE('',#519,#51);
#34=LINE('',#521,#52);
#35=LINE('',#523,#53);
#36=LINE('',#525,#54);
#37=LINE('',#527,#55);
#38=VECTOR('',#409,1000.);
#39=VECTOR('',#410,1000.);
#40=VECTOR('',#411,1000.);
#41=VECTOR('',#412,1000.);
#42=VECTOR('',#413,1000.);
#43=VECTOR('',#414,1000.);
#44=VECTOR('',#417,1000.);
#45=VECTOR('',#418,1000.);
#46=VECTOR('',#419,1000.);
#47=VECTOR('',#422,1000.);
#48=VECTOR('',#423,1000.);
#49=VECTOR('',#426,1000.);
#50=VECTOR('',#427,1000.);
#51=VECTOR('',#430,1000.);
#52=VECTOR('',#431,1000.);
#53=VECTOR('',#434,1000.);
#54=VECTOR('',#435,1000.);
#55=VECTOR('',#438,1000.);
#56=CONICAL_SURFACE('',#335,5.91519224698779,1.39626340159546);
#57=CONICAL_SURFACE('',#345,6.39644660940673,0.785398163397445);
#58=CONICAL_SURFACE('',#360,6.72991121478733,0.0312094049979788);
#59=CONICAL_SURFACE('',#362,6.40109154380068,1.0471975511966);
#60=PLANE('',#333);
#61=PLANE('',#339);
#62=PLANE('',#343);
#63=PLANE('',#349);
#64=PLANE('',#350);
#65=PLANE('',#351);
#66=PLANE('',#352);
#67=PLANE('',#353);
#68=PLANE('',#354);
#69=PLANE('',#355);
#70=PLANE('',#356);
#71=PLANE('',#358);
#72=PLANE('',#364);
#73=ORIENTED_EDGE('',*,*,#139,.F.);
#74=ORIENTED_EDGE('',*,*,#140,.F.);
#75=ORIENTED_EDGE('',*,*,#141,.F.);
#76=ORIENTED_EDGE('',*,*,#139,.T.);
#77=ORIENTED_EDGE('',*,*,#142,.F.);
#78=ORIENTED_EDGE('',*,*,#141,.T.);
#79=ORIENTED_EDGE('',*,*,#143,.F.);
#80=ORIENTED_EDGE('',*,*,#142,.T.);
#81=ORIENTED_EDGE('',*,*,#144,.F.);
#82=ORIENTED_EDGE('',*,*,#143,.T.);
#83=ORIENTED_EDGE('',*,*,#145,.F.);
#84=ORIENTED_EDGE('',*,*,#144,.T.);
#85=ORIENTED_EDGE('',*,*,#146,.F.);
#86=ORIENTED_EDGE('',*,*,#145,.T.);
#87=ORIENTED_EDGE('',*,*,#147,.F.);
#88=ORIENTED_EDGE('',*,*,#146,.T.);
#89=ORIENTED_EDGE('',*,*,#148,.F.);
#90=ORIENTED_EDGE('',*,*,#147,.T.);
#91=ORIENTED_EDGE('',*,*,#148,.T.);
#92=ORIENTED_EDGE('',*,*,#149,.F.);
#93=ORIENTED_EDGE('',*,*,#150,.F.);
#94=ORIENTED_EDGE('',*,*,#151,.F.);
#95=ORIENTED_EDGE('',*,*,#152,.F.);
#96=ORIENTED_EDGE('',*,*,#153,.F.);
#97=ORIENTED_EDGE('',*,*,#154,.F.);
#98=ORIENTED_EDGE('',*,*,#155,.F.);
#99=ORIENTED_EDGE('',*,*,#156,.F.);
#100=ORIENTED_EDGE('',*,*,#150,.T.);
#101=ORIENTED_EDGE('',*,*,#157,.T.);
#102=ORIENTED_EDGE('',*,*,#158,.F.);
#103=ORIENTED_EDGE('',*,*,#159,.F.);
#104=ORIENTED_EDGE('',*,*,#151,.T.);
#105=ORIENTED_EDGE('',*,*,#156,.T.);
#106=ORIENTED_EDGE('',*,*,#160,.F.);
#107=ORIENTED_EDGE('',*,*,#161,.F.);
#108=ORIENTED_EDGE('',*,*,#152,.T.);
#109=ORIENTED_EDGE('',*,*,#159,.T.);
#110=ORIENTED_EDGE('',*,*,#162,.F.);
#111=ORIENTED_EDGE('',*,*,#163,.F.);
#112=ORIENTED_EDGE('',*,*,#153,.T.);
#113=ORIENTED_EDGE('',*,*,#161,.T.);
#114=ORIENTED_EDGE('',*,*,#164,.F.);
#115=ORIENTED_EDGE('',*,*,#165,.F.);
#116=ORIENTED_EDGE('',*,*,#154,.T.);
#117=ORIENTED_EDGE('',*,*,#163,.T.);
#118=ORIENTED_EDGE('',*,*,#166,.F.);
#119=ORIENTED_EDGE('',*,*,#157,.F.);
#120=ORIENTED_EDGE('',*,*,#149,.T.);
#121=ORIENTED_EDGE('',*,*,#165,.T.);
#122=ORIENTED_EDGE('',*,*,#167,.F.);
#123=ORIENTED_EDGE('',*,*,#140,.T.);
#124=ORIENTED_EDGE('',*,*,#168,.F.);
#125=ORIENTED_EDGE('',*,*,#166,.T.);
#126=ORIENTED_EDGE('',*,*,#164,.T.);
#127=ORIENTED_EDGE('',*,*,#162,.T.);
#128=ORIENTED_EDGE('',*,*,#160,.T.);
#129=ORIENTED_EDGE('',*,*,#158,.T.);
#130=ORIENTED_EDGE('',*,*,#155,.T.);
#131=ORIENTED_EDGE('',*,*,#169,.F.);
#132=ORIENTED_EDGE('',*,*,#168,.T.);
#133=ORIENTED_EDGE('',*,*,#170,.F.);
#134=ORIENTED_EDGE('',*,*,#169,.T.);
#135=ORIENTED_EDGE('',*,*,#171,.F.);
#136=ORIENTED_EDGE('',*,*,#170,.T.);
#137=ORIENTED_EDGE('',*,*,#171,.T.);
#138=ORIENTED_EDGE('',*,*,#167,.T.);
#139=EDGE_CURVE('',#172,#172,#199,.T.);
#140=EDGE_CURVE('',#173,#173,#200,.F.);
#141=EDGE_CURVE('',#174,#174,#201,.T.);
#142=EDGE_CURVE('',#175,#175,#202,.T.);
#143=EDGE_CURVE('',#176,#176,#203,.T.);
#144=EDGE_CURVE('',#177,#177,#204,.T.);
#145=EDGE_CURVE('',#178,#178,#205,.T.);
#146=EDGE_CURVE('',#179,#179,#206,.T.);
#147=EDGE_CURVE('',#180,#180,#207,.T.);
#148=EDGE_CURVE('',#181,#181,#208,.T.);
#149=EDGE_CURVE('',#182,#183,#20,.T.);
#150=EDGE_CURVE('',#184,#182,#21,.T.);
#151=EDGE_CURVE('',#185,#184,#22,.T.);
#152=EDGE_CURVE('',#186,#185,#23,.T.);
#153=EDGE_CURVE('',#187,#186,#24,.T.);
#154=EDGE_CURVE('',#183,#187,#25,.T.);
#155=EDGE_CURVE('',#188,#189,#26,.T.);
#156=EDGE_CURVE('',#184,#188,#27,.T.);
#157=EDGE_CURVE('',#182,#189,#28,.T.);
#158=EDGE_CURVE('',#190,#188,#29,.T.);
#159=EDGE_CURVE('',#185,#190,#30,.T.);
#160=EDGE_CURVE('',#191,#190,#31,.T.);
#161=EDGE_CURVE('',#186,#191,#32,.T.);
#162=EDGE_CURVE('',#192,#191,#33,.T.);
#163=EDGE_CURVE('',#187,#192,#34,.T.);
#164=EDGE_CURVE('',#193,#192,#35,.T.);
#165=EDGE_CURVE('',#183,#193,#36,.T.);
#166=EDGE_CURVE('',#189,#193,#37,.T.);
#167=EDGE_CURVE('',#194,#194,#209,.F.);
#168=EDGE_CURVE('',#195,#195,#210,.F.);
#169=EDGE_CURVE('',#196,#196,#211,.T.);
#170=EDGE_CURVE('',#197,#197,#212,.T.);
#171=EDGE_CURVE('',#198,#198,#213,.T.);
#172=VERTEX_POINT('',#464);
#173=VERTEX_POINT('',#466);
#174=VERTEX_POINT('',#469);
#175=VERTEX_POINT('',#472);
#176=VERTEX_POINT('',#475);
#177=VERTEX_POINT('',#478);
#178=VERTEX_POINT('',#481);
#179=VERTEX_POINT('',#484);
#180=VERTEX_POINT('',#487);
#181=VERTEX_POINT('',#490);
#182=VERTEX_POINT('',#493);
#183=VERTEX_POINT('',#494);
#184=VERTEX_POINT('',#496);
#185=VERTEX_POINT('',#498);
#186=VERTEX_POINT('',#500);
#187=VERTEX_POINT('',#502);
#188=VERTEX_POINT('',#506);
#189=VERTEX_POINT('',#507);
#190=VERTEX_POINT('',#512);
#191=VERTEX_POINT('',#516);
#192=VERTEX_POINT('',#520);
#193=VERTEX_POINT('',#524);
#194=VERTEX_POINT('',#530);
#195=VERTEX_POINT('',#533);
#196=VERTEX_POINT('',#536);
#197=VERTEX_POINT('',#539);
#198=VERTEX_POINT('',#542);
#199=CIRCLE('',#331,3.969);
#200=CIRCLE('',#332,3.969);
#201=CIRCLE('',#334,5.91519224698779);
#202=CIRCLE('',#336,6.9);
#203=CIRCLE('',#338,6.9);
#204=CIRCLE('',#340,4.969);
#205=CIRCLE('',#342,4.969);
#206=CIRCLE('',#344,6.39644660940673);
#207=CIRCLE('',#346,6.75);
#208=CIRCLE('',#348,6.75);
#209=CIRCLE('',#357,3.);
#210=CIRCLE('',#359,6.72991121478733);
#211=CIRCLE('',#361,6.40109154380068);
#212=CIRCLE('',#363,5.59134925409194);
#213=CIRCLE('',#365,3.);
#214=EDGE_LOOP('',(#73));
#215=EDGE_LOOP('',(#74));
#216=EDGE_LOOP('',(#75));
#217=EDGE_LOOP('',(#76));
#218=EDGE_LOOP('',(#77));
#219=EDGE_LOOP('',(#78));
#220=EDGE_LOOP('',(#79));
#221=EDGE_LOOP('',(#80));
#222=EDGE_LOOP('',(#81));
#223=EDGE_LOOP('',(#82));
#224=EDGE_LOOP('',(#83));
#225=EDGE_LOOP('',(#84));
#226=EDGE_LOOP('',(#85));
#227=EDGE_LOOP('',(#86));
#228=EDGE_LOOP('',(#87));
#229=EDGE_LOOP('',(#88));
#230=EDGE_LOOP('',(#89));
#231=EDGE_LOOP('',(#90));
#232=EDGE_LOOP('',(#91));
#233=EDGE_LOOP('',(#92,#93,#94,#95,#96,#97));
#234=EDGE_LOOP('',(#98,#99,#100,#101));
#235=EDGE_LOOP('',(#102,#103,#104,#105));
#236=EDGE_LOOP('',(#106,#107,#108,#109));
#237=EDGE_LOOP('',(#110,#111,#112,#113));
#238=EDGE_LOOP('',(#114,#115,#116,#117));
#239=EDGE_LOOP('',(#118,#119,#120,#121));
#240=EDGE_LOOP('',(#122));
#241=EDGE_LOOP('',(#123));
#242=EDGE_LOOP('',(#124));
#243=EDGE_LOOP('',(#125,#126,#127,#128,#129,#130));
#244=EDGE_LOOP('',(#131));
#245=EDGE_LOOP('',(#132));
#246=EDGE_LOOP('',(#133));
#247=EDGE_LOOP('',(#134));
#248=EDGE_LOOP('',(#135));
#249=EDGE_LOOP('',(#136));
#250=EDGE_LOOP('',(#137));
#251=EDGE_LOOP('',(#138));
#252=FACE_BOUND('',#214,.T.);
#253=FACE_BOUND('',#215,.T.);
#254=FACE_BOUND('',#216,.T.);
#255=FACE_BOUND('',#217,.T.);
#256=FACE_BOUND('',#218,.T.);
#257=FACE_BOUND('',#219,.T.);
#258=FACE_BOUND('',#220,.T.);
#259=FACE_BOUND('',#221,.T.);
#260=FACE_BOUND('',#222,.T.);
#261=FACE_BOUND('',#223,.T.);
#262=FACE_BOUND('',#224,.T.);
#263=FACE_BOUND('',#225,.T.);
#264=FACE_BOUND('',#226,.T.);
#265=FACE_BOUND('',#227,.T.);
#266=FACE_BOUND('',#228,.T.);
#267=FACE_BOUND('',#229,.T.);
#268=FACE_BOUND('',#230,.T.);
#269=FACE_BOUND('',#231,.T.);
#270=FACE_BOUND('',#232,.T.);
#271=FACE_BOUND('',#233,.T.);
#272=FACE_BOUND('',#234,.T.);
#273=FACE_BOUND('',#235,.T.);
#274=FACE_BOUND('',#236,.T.);
#275=FACE_BOUND('',#237,.T.);
#276=FACE_BOUND('',#238,.T.);
#277=FACE_BOUND('',#239,.T.);
#278=FACE_BOUND('',#240,.T.);
#279=FACE_BOUND('',#241,.T.);
#280=FACE_BOUND('',#242,.T.);
#281=FACE_BOUND('',#243,.T.);
#282=FACE_BOUND('',#244,.T.);
#283=FACE_BOUND('',#245,.T.);
#284=FACE_BOUND('',#246,.T.);
#285=FACE_BOUND('',#247,.T.);
#286=FACE_BOUND('',#248,.T.);
#287=FACE_BOUND('',#249,.T.);
#288=FACE_BOUND('',#250,.T.);
#289=FACE_BOUND('',#251,.T.);
#290=CYLINDRICAL_SURFACE('',#330,3.969);
#291=CYLINDRICAL_SURFACE('',#337,6.9);
#292=CYLINDRICAL_SURFACE('',#341,4.969);
#293=CYLINDRICAL_SURFACE('',#347,6.75);
#294=CYLINDRICAL_SURFACE('',#366,3.);
#295=ADVANCED_FACE('',(#252,#253),#290,.F.);
#296=ADVANCED_FACE('',(#254,#255),#60,.F.);
#297=ADVANCED_FACE('',(#256,#257),#56,.T.);
#298=ADVANCED_FACE('',(#258,#259),#291,.T.);
#299=ADVANCED_FACE('',(#260,#261),#61,.F.);
#300=ADVANCED_FACE('',(#262,#263),#292,.T.);
#301=ADVANCED_FACE('',(#264,#265),#62,.F.);
#302=ADVANCED_FACE('',(#266,#267),#57,.T.);
#303=ADVANCED_FACE('',(#268,#269),#293,.T.);
#304=ADVANCED_FACE('',(#270,#271),#63,.F.);
#305=ADVANCED_FACE('',(#272),#64,.T.);
#306=ADVANCED_FACE('',(#273),#65,.T.);
#307=ADVANCED_FACE('',(#274),#66,.T.);
#308=ADVANCED_FACE('',(#275),#67,.T.);
#309=ADVANCED_FACE('',(#276),#68,.T.);
#310=ADVANCED_FACE('',(#277),#69,.T.);
#311=ADVANCED_FACE('',(#278,#279),#70,.F.);
#312=ADVANCED_FACE('',(#280,#281),#71,.F.);
#313=ADVANCED_FACE('',(#282,#283),#58,.T.);
#314=ADVANCED_FACE('',(#284,#285),#59,.T.);
#315=ADVANCED_FACE('',(#286,#287),#72,.F.);
#316=ADVANCED_FACE('',(#288,#289),#294,.F.);
#317=CLOSED_SHELL('',(#295,#296,#297,#298,#299,#300,#301,#302,#303,#304,
#305,#306,#307,#308,#309,#310,#311,#312,#313,#314,#315,#316));
#318=STYLED_ITEM('',(#319),#326);
#319=PRESENTATION_STYLE_ASSIGNMENT((#320));
#320=SURFACE_STYLE_USAGE(.BOTH.,#321);
#321=SURFACE_SIDE_STYLE('',(#322));
#322=SURFACE_STYLE_FILL_AREA(#323);
#323=FILL_AREA_STYLE('',(#324));
#324=FILL_AREA_STYLE_COLOUR('',#325);
#325=COLOUR_RGB('',0.689999997615814,0.689999997615814,0.689999997615814);
#326=MANIFOLD_SOLID_BREP('190854 HA-1/4-QS-5/16-U',#317);
#327=SHAPE_DEFINITION_REPRESENTATION(#550,#328);
#328=SHAPE_REPRESENTATION('190854 HA-1/4-QS-5/16-U',(#329),#545);
#329=AXIS2_PLACEMENT_3D('',#461,#367,#368);
#330=AXIS2_PLACEMENT_3D('',#462,#369,#370);
#331=AXIS2_PLACEMENT_3D('',#463,#371,#372);
#332=AXIS2_PLACEMENT_3D('',#465,#373,#374);
#333=AXIS2_PLACEMENT_3D('',#467,#375,#376);
#334=AXIS2_PLACEMENT_3D('',#468,#377,#378);
#335=AXIS2_PLACEMENT_3D('',#470,#379,#380);
#336=AXIS2_PLACEMENT_3D('',#471,#381,#382);
#337=AXIS2_PLACEMENT_3D('',#473,#383,#384);
#338=AXIS2_PLACEMENT_3D('',#474,#385,#386);
#339=AXIS2_PLACEMENT_3D('',#476,#387,#388);
#340=AXIS2_PLACEMENT_3D('',#477,#389,#390);
#341=AXIS2_PLACEMENT_3D('',#479,#391,#392);
#342=AXIS2_PLACEMENT_3D('',#480,#393,#394);
#343=AXIS2_PLACEMENT_3D('',#482,#395,#396);
#344=AXIS2_PLACEMENT_3D('',#483,#397,#398);
#345=AXIS2_PLACEMENT_3D('',#485,#399,#400);
#346=AXIS2_PLACEMENT_3D('',#486,#401,#402);
#347=AXIS2_PLACEMENT_3D('',#488,#403,#404);
#348=AXIS2_PLACEMENT_3D('',#489,#405,#406);
#349=AXIS2_PLACEMENT_3D('',#491,#407,#408);
#350=AXIS2_PLACEMENT_3D('',#504,#415,#416);
#351=AXIS2_PLACEMENT_3D('',#510,#420,#421);
#352=AXIS2_PLACEMENT_3D('',#514,#424,#425);
#353=AXIS2_PLACEMENT_3D('',#518,#428,#429);
#354=AXIS2_PLACEMENT_3D('',#522,#432,#433);
#355=AXIS2_PLACEMENT_3D('',#526,#436,#437);
#356=AXIS2_PLACEMENT_3D('',#528,#439,#440);
#357=AXIS2_PLACEMENT_3D('',#529,#441,#442);
#358=AXIS2_PLACEMENT_3D('',#531,#443,#444);
#359=AXIS2_PLACEMENT_3D('',#532,#445,#446);
#360=AXIS2_PLACEMENT_3D('',#534,#447,#448);
#361=AXIS2_PLACEMENT_3D('',#535,#449,#450);
#362=AXIS2_PLACEMENT_3D('',#537,#451,#452);
#363=AXIS2_PLACEMENT_3D('',#538,#453,#454);
#364=AXIS2_PLACEMENT_3D('',#540,#455,#456);
#365=AXIS2_PLACEMENT_3D('',#541,#457,#458);
#366=AXIS2_PLACEMENT_3D('',#543,#459,#460);
#367=DIRECTION('',(0.,0.,1.));
#368=DIRECTION('',(1.,0.,0.));
#369=DIRECTION('',(1.,0.,0.));
#370=DIRECTION('',(0.,0.,-1.));
#371=DIRECTION('',(1.,0.,0.));
#372=DIRECTION('',(0.,0.,-1.));
#373=DIRECTION('',(1.,0.,0.));
#374=DIRECTION('',(0.,0.,-1.));
#375=DIRECTION('',(1.,0.,0.));
#376=DIRECTION('',(0.,0.,-1.));
#377=DIRECTION('',(1.,0.,0.));
#378=DIRECTION('',(0.,0.,-1.));
#379=DIRECTION('',(1.,0.,0.));
#380=DIRECTION('',(0.,0.,-1.));
#381=DIRECTION('',(1.,0.,0.));
#382=DIRECTION('',(0.,0.,-1.));
#383=DIRECTION('',(1.,0.,0.));
#384=DIRECTION('',(0.,0.,-1.));
#385=DIRECTION('',(1.,0.,0.));
#386=DIRECTION('',(0.,0.,-1.));
#387=DIRECTION('',(-1.,0.,0.));
#388=DIRECTION('',(0.,0.,1.));
#389=DIRECTION('',(1.,0.,0.));
#390=DIRECTION('',(0.,0.,-1.));
#391=DIRECTION('',(1.,0.,0.));
#392=DIRECTION('',(0.,0.,-1.));
#393=DIRECTION('',(1.,0.,0.));
#394=DIRECTION('',(0.,0.,-1.));
#395=DIRECTION('',(1.,0.,0.));
#396=DIRECTION('',(0.,0.,-1.));
#397=DIRECTION('',(1.,0.,0.));
#398=DIRECTION('',(0.,0.,-1.));
#399=DIRECTION('',(1.,0.,0.));
#400=DIRECTION('',(0.,0.,-1.));
#401=DIRECTION('',(1.,0.,0.));
#402=DIRECTION('',(0.,0.,-1.));
#403=DIRECTION('',(1.,0.,0.));
#404=DIRECTION('',(0.,0.,-1.));
#405=DIRECTION('',(1.,0.,0.));
#406=DIRECTION('',(0.,0.,-1.));
#407=DIRECTION('',(1.,0.,0.));
#408=DIRECTION('',(0.,0.,-1.));
#409=DIRECTION('',(0.,-1.,0.));
#410=DIRECTION('',(0.,-0.5,0.866025403784439));
#411=DIRECTION('',(0.,0.5,0.866025403784439));
#412=DIRECTION('',(0.,1.,0.));
#413=DIRECTION('',(0.,0.5,-0.866025403784439));
#414=DIRECTION('',(0.,-0.5,-0.866025403784439));
#415=DIRECTION('',(0.,0.866025403784439,0.5));
#416=DIRECTION('',(0.,-0.5,0.866025403784439));
#417=DIRECTION('',(0.,-0.5,0.866025403784439));
#418=DIRECTION('',(1.,0.,0.));
#419=DIRECTION('',(1.,0.,0.));
#420=DIRECTION('',(0.,0.866025403784439,-0.5));
#421=DIRECTION('',(0.,0.5,0.866025403784439));
#422=DIRECTION('',(0.,0.5,0.866025403784439));
#423=DIRECTION('',(1.,0.,0.));
#424=DIRECTION('',(0.,0.,-1.));
#425=DIRECTION('',(-1.,0.,0.));
#426=DIRECTION('',(0.,1.,0.));
#427=DIRECTION('',(1.,0.,0.));
#428=DIRECTION('',(0.,-0.866025403784439,-0.5));
#429=DIRECTION('',(0.,0.5,-0.866025403784439));
#430=DIRECTION('',(0.,0.5,-0.866025403784439));
#431=DIRECTION('',(1.,0.,0.));
#432=DIRECTION('',(0.,-0.866025403784439,0.5));
#433=DIRECTION('',(0.,-0.5,-0.866025403784439));
#434=DIRECTION('',(0.,-0.5,-0.866025403784439));
#435=DIRECTION('',(1.,0.,0.));
#436=DIRECTION('',(0.,0.,1.));
#437=DIRECTION('',(1.,0.,0.));
#438=DIRECTION('',(0.,-1.,0.));
#439=DIRECTION('',(1.,0.,0.));
#440=DIRECTION('',(0.,0.,-1.));
#441=DIRECTION('',(1.,0.,0.));
#442=DIRECTION('',(0.,0.,-1.));
#443=DIRECTION('',(-1.,0.,0.));
#444=DIRECTION('',(0.,0.,1.));
#445=DIRECTION('',(-1.,0.,0.));
#446=DIRECTION('',(0.,0.,1.));
#447=DIRECTION('',(-1.,0.,0.));
#448=DIRECTION('',(0.,0.,1.));
#449=DIRECTION('',(1.,0.,0.));
#450=DIRECTION('',(0.,0.,-1.));
#451=DIRECTION('',(-1.,0.,0.));
#452=DIRECTION('',(0.,0.,1.));
#453=DIRECTION('',(1.,0.,0.));
#454=DIRECTION('',(0.,0.,-1.));
#455=DIRECTION('',(-1.,0.,0.));
#456=DIRECTION('',(0.,0.,1.));
#457=DIRECTION('',(1.,0.,0.));
#458=DIRECTION('',(0.,0.,-1.));
#459=DIRECTION('',(-1.,0.,0.));
#460=DIRECTION('',(0.,0.,1.));
#461=CARTESIAN_POINT('',(0.,0.,0.));
#462=CARTESIAN_POINT('',(28.,0.,0.));
#463=CARTESIAN_POINT('',(0.,0.,0.));
#464=CARTESIAN_POINT('',(0.,0.,-3.969));
#465=CARTESIAN_POINT('',(17.284,0.,0.));
#466=CARTESIAN_POINT('',(17.284,0.,-3.969));
#467=CARTESIAN_POINT('',(0.,3.969,0.));
#468=CARTESIAN_POINT('',(0.,0.,0.));
#469=CARTESIAN_POINT('',(0.,0.,-5.91519224698779));
#470=CARTESIAN_POINT('',(0.,0.,0.));
#471=CARTESIAN_POINT('',(0.173648177666932,0.,0.));
#472=CARTESIAN_POINT('',(0.173648177666932,0.,-6.9));
#473=CARTESIAN_POINT('',(28.,0.,0.));
#474=CARTESIAN_POINT('',(1.5,0.,0.));
#475=CARTESIAN_POINT('',(1.5,0.,-6.9));
#476=CARTESIAN_POINT('',(1.5,6.9,0.));
#477=CARTESIAN_POINT('',(1.5,0.,0.));
#478=CARTESIAN_POINT('',(1.5,0.,-4.969));
#479=CARTESIAN_POINT('',(28.,0.,0.));
#480=CARTESIAN_POINT('',(2.5,0.,0.));
#481=CARTESIAN_POINT('',(2.5,0.,-4.969));
#482=CARTESIAN_POINT('',(2.5,4.969,0.));
#483=CARTESIAN_POINT('',(2.5,0.,0.));
#484=CARTESIAN_POINT('',(2.5,0.,-6.39644660940673));
#485=CARTESIAN_POINT('',(2.5,0.,0.));
#486=CARTESIAN_POINT('',(2.85355339059327,0.,0.));
#487=CARTESIAN_POINT('',(2.85355339059327,0.,-6.75));
#488=CARTESIAN_POINT('',(28.,0.,0.));
#489=CARTESIAN_POINT('',(17.284,0.,0.));
#490=CARTESIAN_POINT('',(17.284,0.,-6.75));
#491=CARTESIAN_POINT('',(17.284,0.,0.));
#492=CARTESIAN_POINT('',(17.284,4.12459032309069,7.144));
#493=CARTESIAN_POINT('',(17.284,4.12459032309069,7.144));
#494=CARTESIAN_POINT('',(17.284,-4.12459032309069,7.144));
#495=CARTESIAN_POINT('',(17.284,8.24918064618137,0.));
#496=CARTESIAN_POINT('',(17.284,8.24918064618137,0.));
#497=CARTESIAN_POINT('',(17.284,4.12459032309069,-7.144));
#498=CARTESIAN_POINT('',(17.284,4.12459032309069,-7.144));
#499=CARTESIAN_POINT('',(17.284,-4.12459032309069,-7.144));
#500=CARTESIAN_POINT('',(17.284,-4.12459032309069,-7.144));
#501=CARTESIAN_POINT('',(17.284,-8.24918064618137,0.));
#502=CARTESIAN_POINT('',(17.284,-8.24918064618137,0.));
#503=CARTESIAN_POINT('',(17.284,-4.12459032309069,7.144));
#504=CARTESIAN_POINT('',(17.284,8.24918064618137,0.));
#505=CARTESIAN_POINT('',(28.,8.24918064618137,0.));
#506=CARTESIAN_POINT('',(28.,8.24918064618137,0.));
#507=CARTESIAN_POINT('',(28.,4.12459032309069,7.144));
#508=CARTESIAN_POINT('',(17.284,8.24918064618137,0.));
#509=CARTESIAN_POINT('',(17.284,4.12459032309069,7.144));
#510=CARTESIAN_POINT('',(17.284,4.12459032309069,-7.144));
#511=CARTESIAN_POINT('',(28.,4.12459032309069,-7.144));
#512=CARTESIAN_POINT('',(28.,4.12459032309069,-7.144));
#513=CARTESIAN_POINT('',(17.284,4.12459032309069,-7.144));
#514=CARTESIAN_POINT('',(17.284,-4.12459032309069,-7.144));
#515=CARTESIAN_POINT('',(28.,-4.12459032309069,-7.144));
#516=CARTESIAN_POINT('',(28.,-4.12459032309069,-7.144));
#517=CARTESIAN_POINT('',(17.284,-4.12459032309069,-7.144));
#518=CARTESIAN_POINT('',(17.284,-8.24918064618137,0.));
#519=CARTESIAN_POINT('',(28.,-8.24918064618137,0.));
#520=CARTESIAN_POINT('',(28.,-8.24918064618137,0.));
#521=CARTESIAN_POINT('',(17.284,-8.24918064618137,0.));
#522=CARTESIAN_POINT('',(17.284,-4.12459032309069,7.144));
#523=CARTESIAN_POINT('',(28.,-4.12459032309069,7.144));
#524=CARTESIAN_POINT('',(28.,-4.12459032309069,7.144));
#525=CARTESIAN_POINT('',(17.284,-4.12459032309069,7.144));
#526=CARTESIAN_POINT('',(17.284,4.12459032309069,7.144));
#527=CARTESIAN_POINT('',(28.,4.12459032309069,7.144));
#528=CARTESIAN_POINT('',(17.284,0.,0.));
#529=CARTESIAN_POINT('',(17.284,0.,0.));
#530=CARTESIAN_POINT('',(17.284,0.,-3.));
#531=CARTESIAN_POINT('',(28.,4.45,0.));
#532=CARTESIAN_POINT('',(28.,0.,0.));
#533=CARTESIAN_POINT('',(28.,0.,6.72991121478733));
#534=CARTESIAN_POINT('',(28.,0.,0.));
#535=CARTESIAN_POINT('',(38.5324950710624,0.,0.));
#536=CARTESIAN_POINT('',(38.5324950710624,0.,-6.40109154380068));
#537=CARTESIAN_POINT('',(38.5324950710624,0.,0.));
#538=CARTESIAN_POINT('',(39.,0.,0.));
#539=CARTESIAN_POINT('',(39.,0.,-5.59134925409194));
#540=CARTESIAN_POINT('',(39.,5.59134925409194,0.));
#541=CARTESIAN_POINT('',(39.,0.,0.));
#542=CARTESIAN_POINT('',(39.,0.,-3.));
#543=CARTESIAN_POINT('',(39.,0.,0.));
#544=MECHANICAL_DESIGN_GEOMETRIC_PRESENTATION_REPRESENTATION('',(#318),
#545);
#545=(
GEOMETRIC_REPRESENTATION_CONTEXT(3)
GLOBAL_UNCERTAINTY_ASSIGNED_CONTEXT((#546))
GLOBAL_UNIT_ASSIGNED_CONTEXT((#549,#548,#547))
REPRESENTATION_CONTEXT('190854 HA-1/4-QS-5/16-U',
'TOP_LEVEL_ASSEMBLY_PART')
);
#546=UNCERTAINTY_MEASURE_WITH_UNIT(LENGTH_MEASURE(0.005),#549,
'DISTANCE_ACCURACY_VALUE','Maximum Tolerance applied to model');
#547=(
NAMED_UNIT(*)
SI_UNIT($,.STERADIAN.)
SOLID_ANGLE_UNIT()
);
#548=(
NAMED_UNIT(*)
PLANE_ANGLE_UNIT()
SI_UNIT($,.RADIAN.)
);
#549=(
LENGTH_UNIT()
NAMED_UNIT(*)
SI_UNIT(.MILLI.,.METRE.)
);
#550=PRODUCT_DEFINITION_SHAPE('','',#551);
#551=PRODUCT_DEFINITION('','',#553,#552);
#552=PRODUCT_DEFINITION_CONTEXT('',#559,'design');
#553=PRODUCT_DEFINITION_FORMATION_WITH_SPECIFIED_SOURCE('','',#555,
 .NOT_KNOWN.);
#554=PRODUCT_RELATED_PRODUCT_CATEGORY('','',(#555));
#555=PRODUCT('190854 HA-1/4-QS-5/16-U','190854 HA-1/4-QS-5/16-U',
'190854 HA-1/4-QS-5/16-U',(#557));
#556=PRODUCT_CATEGORY('','');
#557=PRODUCT_CONTEXT('',#559,'mechanical');
#558=APPLICATION_PROTOCOL_DEFINITION('international standard',
'automotive_design',2010,#559);
#559=APPLICATION_CONTEXT(
'core data for automotive mechanical design processes');
ENDSEC;
END-ISO-10303-21;
