ISO-10303-21;
HEADER;
/* Generated by software containing ST-Developer
 * from STEP Tools, Inc. (www.steptools.com) 
 */
/* OPTION: using custom renumber hook */

FILE_DESCRIPTION(
/* description */ ('STEP AP214'),
/* implementation_level */ '2;1');

FILE_NAME(
/* name */ '190855_HA-3_8-QS-3_8-U',
/* time_stamp */ '2024-08-28T23:18:50+02:00',
/* author */ ('License CC BY-ND 4.0'),
/* organization */ ('CADENAS'),
/* preprocessor_version */ 'ST-DEVELOPER v19.3',
/* originating_system */ 'PARTsolutions',
/* authorisation */ '  ');

FILE_SCHEMA (('AUTOMOTIVE_DESIGN {1 0 10303 214 3 1 1}'));
ENDSEC;

DATA;
#10=PROPERTY_DEFINITION_REPRESENTATION(#14,#12);
#11=PROPERTY_DEFINITION_REPRESENTATION(#15,#13);
#12=REPRESENTATION('',(#16),#545);
#13=REPRESENTATION('',(#17),#545);
#14=PROPERTY_DEFINITION('pmi validation property','',#550);
#15=PROPERTY_DEFINITION('pmi validation property','',#550);
#16=VALUE_REPRESENTATION_ITEM('number of annotations',COUNT_MEASURE(0.));
#17=VALUE_REPRESENTATION_ITEM('number of views',COUNT_MEASURE(0.));
#18=SHAPE_REPRESENTATION_RELATIONSHIP('','',#328,#19);
#19=ADVANCED_BREP_SHAPE_REPRESENTATION('',(#326),#545);
#20=LINE('',#495,#38);
#21=LINE('',#498,#39);
#22=LINE('',#500,#40);
#23=LINE('',#502,#41);
#24=LINE('',#504,#42);
#25=LINE('',#506,#43);
#26=LINE('',#508,#44);
#27=LINE('',#510,#45);
#28=LINE('',#512,#46);
#29=LINE('',#514,#47);
#30=LINE('',#516,#48);
#31=LINE('',#518,#49);
#32=LINE('',#520,#50);
#33=LINE('',#522,#51);
#34=LINE('',#524,#52);
#35=LINE('',#526,#53);
#36=LINE('',#528,#54);
#37=LINE('',#529,#55);
#38=VECTOR('',#413,1000.);
#39=VECTOR('',#414,1000.);
#40=VECTOR('',#415,1000.);
#41=VECTOR('',#416,1000.);
#42=VECTOR('',#419,1000.);
#43=VECTOR('',#420,1000.);
#44=VECTOR('',#421,1000.);
#45=VECTOR('',#424,1000.);
#46=VECTOR('',#425,1000.);
#47=VECTOR('',#426,1000.);
#48=VECTOR('',#429,1000.);
#49=VECTOR('',#430,1000.);
#50=VECTOR('',#431,1000.);
#51=VECTOR('',#434,1000.);
#52=VECTOR('',#435,1000.);
#53=VECTOR('',#436,1000.);
#54=VECTOR('',#439,1000.);
#55=VECTOR('',#440,1000.);
#56=CONICAL_SURFACE('',#337,7.41519224698779,1.39626340159547);
#57=CONICAL_SURFACE('',#347,12.1464466094067,0.785398163397451);
#58=CONICAL_SURFACE('',#360,8.470872898486,0.0312094049979788);
#59=CONICAL_SURFACE('',#362,8.11092226907251,1.0471975511966);
#60=CYLINDRICAL_SURFACE('',#333,4.7625);
#61=CYLINDRICAL_SURFACE('',#339,8.4);
#62=CYLINDRICAL_SURFACE('',#343,5.7625);
#63=CYLINDRICAL_SURFACE('',#349,12.5);
#64=CYLINDRICAL_SURFACE('',#366,4.);
#65=ORIENTED_EDGE('',*,*,#131,.F.);
#66=ORIENTED_EDGE('',*,*,#132,.F.);
#67=ORIENTED_EDGE('',*,*,#133,.F.);
#68=ORIENTED_EDGE('',*,*,#131,.T.);
#69=ORIENTED_EDGE('',*,*,#134,.F.);
#70=ORIENTED_EDGE('',*,*,#133,.T.);
#71=ORIENTED_EDGE('',*,*,#135,.F.);
#72=ORIENTED_EDGE('',*,*,#134,.T.);
#73=ORIENTED_EDGE('',*,*,#136,.F.);
#74=ORIENTED_EDGE('',*,*,#135,.T.);
#75=ORIENTED_EDGE('',*,*,#137,.F.);
#76=ORIENTED_EDGE('',*,*,#136,.T.);
#77=ORIENTED_EDGE('',*,*,#138,.F.);
#78=ORIENTED_EDGE('',*,*,#137,.T.);
#79=ORIENTED_EDGE('',*,*,#139,.F.);
#80=ORIENTED_EDGE('',*,*,#138,.T.);
#81=ORIENTED_EDGE('',*,*,#140,.F.);
#82=ORIENTED_EDGE('',*,*,#139,.T.);
#83=ORIENTED_EDGE('',*,*,#141,.F.);
#84=ORIENTED_EDGE('',*,*,#140,.T.);
#85=ORIENTED_EDGE('',*,*,#142,.F.);
#86=ORIENTED_EDGE('',*,*,#143,.F.);
#87=ORIENTED_EDGE('',*,*,#144,.T.);
#88=ORIENTED_EDGE('',*,*,#145,.T.);
#89=ORIENTED_EDGE('',*,*,#146,.F.);
#90=ORIENTED_EDGE('',*,*,#145,.F.);
#91=ORIENTED_EDGE('',*,*,#147,.T.);
#92=ORIENTED_EDGE('',*,*,#148,.T.);
#93=ORIENTED_EDGE('',*,*,#149,.F.);
#94=ORIENTED_EDGE('',*,*,#148,.F.);
#95=ORIENTED_EDGE('',*,*,#150,.T.);
#96=ORIENTED_EDGE('',*,*,#151,.T.);
#97=ORIENTED_EDGE('',*,*,#152,.F.);
#98=ORIENTED_EDGE('',*,*,#151,.F.);
#99=ORIENTED_EDGE('',*,*,#153,.T.);
#100=ORIENTED_EDGE('',*,*,#154,.T.);
#101=ORIENTED_EDGE('',*,*,#155,.F.);
#102=ORIENTED_EDGE('',*,*,#154,.F.);
#103=ORIENTED_EDGE('',*,*,#156,.T.);
#104=ORIENTED_EDGE('',*,*,#157,.T.);
#105=ORIENTED_EDGE('',*,*,#158,.F.);
#106=ORIENTED_EDGE('',*,*,#157,.F.);
#107=ORIENTED_EDGE('',*,*,#159,.T.);
#108=ORIENTED_EDGE('',*,*,#143,.T.);
#109=ORIENTED_EDGE('',*,*,#141,.T.);
#110=ORIENTED_EDGE('',*,*,#144,.F.);
#111=ORIENTED_EDGE('',*,*,#159,.F.);
#112=ORIENTED_EDGE('',*,*,#156,.F.);
#113=ORIENTED_EDGE('',*,*,#153,.F.);
#114=ORIENTED_EDGE('',*,*,#150,.F.);
#115=ORIENTED_EDGE('',*,*,#147,.F.);
#116=ORIENTED_EDGE('',*,*,#160,.F.);
#117=ORIENTED_EDGE('',*,*,#142,.T.);
#118=ORIENTED_EDGE('',*,*,#146,.T.);
#119=ORIENTED_EDGE('',*,*,#149,.T.);
#120=ORIENTED_EDGE('',*,*,#152,.T.);
#121=ORIENTED_EDGE('',*,*,#155,.T.);
#122=ORIENTED_EDGE('',*,*,#158,.T.);
#123=ORIENTED_EDGE('',*,*,#161,.F.);
#124=ORIENTED_EDGE('',*,*,#160,.T.);
#125=ORIENTED_EDGE('',*,*,#162,.F.);
#126=ORIENTED_EDGE('',*,*,#161,.T.);
#127=ORIENTED_EDGE('',*,*,#163,.F.);
#128=ORIENTED_EDGE('',*,*,#162,.T.);
#129=ORIENTED_EDGE('',*,*,#163,.T.);
#130=ORIENTED_EDGE('',*,*,#132,.T.);
#131=EDGE_CURVE('',#164,#164,#191,.T.);
#132=EDGE_CURVE('',#165,#165,#192,.F.);
#133=EDGE_CURVE('',#166,#166,#193,.T.);
#134=EDGE_CURVE('',#167,#167,#194,.T.);
#135=EDGE_CURVE('',#168,#168,#195,.T.);
#136=EDGE_CURVE('',#169,#169,#196,.T.);
#137=EDGE_CURVE('',#170,#170,#197,.T.);
#138=EDGE_CURVE('',#171,#171,#198,.T.);
#139=EDGE_CURVE('',#172,#172,#199,.T.);
#140=EDGE_CURVE('',#173,#173,#200,.T.);
#141=EDGE_CURVE('',#174,#174,#201,.T.);
#142=EDGE_CURVE('',#175,#176,#20,.T.);
#143=EDGE_CURVE('',#177,#175,#21,.T.);
#144=EDGE_CURVE('',#177,#178,#22,.T.);
#145=EDGE_CURVE('',#178,#176,#23,.T.);
#146=EDGE_CURVE('',#176,#179,#24,.T.);
#147=EDGE_CURVE('',#178,#180,#25,.T.);
#148=EDGE_CURVE('',#180,#179,#26,.T.);
#149=EDGE_CURVE('',#179,#181,#27,.T.);
#150=EDGE_CURVE('',#180,#182,#28,.T.);
#151=EDGE_CURVE('',#182,#181,#29,.T.);
#152=EDGE_CURVE('',#181,#183,#30,.T.);
#153=EDGE_CURVE('',#182,#184,#31,.T.);
#154=EDGE_CURVE('',#184,#183,#32,.T.);
#155=EDGE_CURVE('',#183,#185,#33,.T.);
#156=EDGE_CURVE('',#184,#186,#34,.T.);
#157=EDGE_CURVE('',#186,#185,#35,.T.);
#158=EDGE_CURVE('',#185,#175,#36,.T.);
#159=EDGE_CURVE('',#186,#177,#37,.T.);
#160=EDGE_CURVE('',#187,#187,#202,.T.);
#161=EDGE_CURVE('',#188,#188,#203,.T.);
#162=EDGE_CURVE('',#189,#189,#204,.T.);
#163=EDGE_CURVE('',#190,#190,#205,.T.);
#164=VERTEX_POINT('',#464);
#165=VERTEX_POINT('',#466);
#166=VERTEX_POINT('',#469);
#167=VERTEX_POINT('',#472);
#168=VERTEX_POINT('',#475);
#169=VERTEX_POINT('',#478);
#170=VERTEX_POINT('',#481);
#171=VERTEX_POINT('',#484);
#172=VERTEX_POINT('',#487);
#173=VERTEX_POINT('',#490);
#174=VERTEX_POINT('',#493);
#175=VERTEX_POINT('',#496);
#176=VERTEX_POINT('',#497);
#177=VERTEX_POINT('',#499);
#178=VERTEX_POINT('',#501);
#179=VERTEX_POINT('',#505);
#180=VERTEX_POINT('',#507);
#181=VERTEX_POINT('',#511);
#182=VERTEX_POINT('',#513);
#183=VERTEX_POINT('',#517);
#184=VERTEX_POINT('',#519);
#185=VERTEX_POINT('',#523);
#186=VERTEX_POINT('',#525);
#187=VERTEX_POINT('',#533);
#188=VERTEX_POINT('',#536);
#189=VERTEX_POINT('',#539);
#190=VERTEX_POINT('',#542);
#191=CIRCLE('',#331,4.7625);
#192=CIRCLE('',#332,4.);
#193=CIRCLE('',#334,4.7625);
#194=CIRCLE('',#336,7.41519224698779);
#195=CIRCLE('',#338,8.4);
#196=CIRCLE('',#340,8.4);
#197=CIRCLE('',#342,5.7625);
#198=CIRCLE('',#344,5.7625);
#199=CIRCLE('',#346,12.1464466094067);
#200=CIRCLE('',#348,12.5);
#201=CIRCLE('',#350,12.5);
#202=CIRCLE('',#359,8.470872898486);
#203=CIRCLE('',#361,8.11092226907251);
#204=CIRCLE('',#363,7.29626539590924);
#205=CIRCLE('',#365,4.);
#206=EDGE_LOOP('',(#65));
#207=EDGE_LOOP('',(#66));
#208=EDGE_LOOP('',(#67));
#209=EDGE_LOOP('',(#68));
#210=EDGE_LOOP('',(#69));
#211=EDGE_LOOP('',(#70));
#212=EDGE_LOOP('',(#71));
#213=EDGE_LOOP('',(#72));
#214=EDGE_LOOP('',(#73));
#215=EDGE_LOOP('',(#74));
#216=EDGE_LOOP('',(#75));
#217=EDGE_LOOP('',(#76));
#218=EDGE_LOOP('',(#77));
#219=EDGE_LOOP('',(#78));
#220=EDGE_LOOP('',(#79));
#221=EDGE_LOOP('',(#80));
#222=EDGE_LOOP('',(#81));
#223=EDGE_LOOP('',(#82));
#224=EDGE_LOOP('',(#83));
#225=EDGE_LOOP('',(#84));
#226=EDGE_LOOP('',(#85,#86,#87,#88));
#227=EDGE_LOOP('',(#89,#90,#91,#92));
#228=EDGE_LOOP('',(#93,#94,#95,#96));
#229=EDGE_LOOP('',(#97,#98,#99,#100));
#230=EDGE_LOOP('',(#101,#102,#103,#104));
#231=EDGE_LOOP('',(#105,#106,#107,#108));
#232=EDGE_LOOP('',(#109));
#233=EDGE_LOOP('',(#110,#111,#112,#113,#114,#115));
#234=EDGE_LOOP('',(#116));
#235=EDGE_LOOP('',(#117,#118,#119,#120,#121,#122));
#236=EDGE_LOOP('',(#123));
#237=EDGE_LOOP('',(#124));
#238=EDGE_LOOP('',(#125));
#239=EDGE_LOOP('',(#126));
#240=EDGE_LOOP('',(#127));
#241=EDGE_LOOP('',(#128));
#242=EDGE_LOOP('',(#129));
#243=EDGE_LOOP('',(#130));
#244=FACE_BOUND('',#206,.T.);
#245=FACE_BOUND('',#207,.T.);
#246=FACE_BOUND('',#208,.T.);
#247=FACE_BOUND('',#209,.T.);
#248=FACE_BOUND('',#210,.T.);
#249=FACE_BOUND('',#211,.T.);
#250=FACE_BOUND('',#212,.T.);
#251=FACE_BOUND('',#213,.T.);
#252=FACE_BOUND('',#214,.T.);
#253=FACE_BOUND('',#215,.T.);
#254=FACE_BOUND('',#216,.T.);
#255=FACE_BOUND('',#217,.T.);
#256=FACE_BOUND('',#218,.T.);
#257=FACE_BOUND('',#219,.T.);
#258=FACE_BOUND('',#220,.T.);
#259=FACE_BOUND('',#221,.T.);
#260=FACE_BOUND('',#222,.T.);
#261=FACE_BOUND('',#223,.T.);
#262=FACE_BOUND('',#224,.T.);
#263=FACE_BOUND('',#225,.T.);
#264=FACE_BOUND('',#226,.T.);
#265=FACE_BOUND('',#227,.T.);
#266=FACE_BOUND('',#228,.T.);
#267=FACE_BOUND('',#229,.T.);
#268=FACE_BOUND('',#230,.T.);
#269=FACE_BOUND('',#231,.T.);
#270=FACE_BOUND('',#232,.T.);
#271=FACE_BOUND('',#233,.T.);
#272=FACE_BOUND('',#234,.T.);
#273=FACE_BOUND('',#235,.T.);
#274=FACE_BOUND('',#236,.T.);
#275=FACE_BOUND('',#237,.T.);
#276=FACE_BOUND('',#238,.T.);
#277=FACE_BOUND('',#239,.T.);
#278=FACE_BOUND('',#240,.T.);
#279=FACE_BOUND('',#241,.T.);
#280=FACE_BOUND('',#242,.T.);
#281=FACE_BOUND('',#243,.T.);
#282=PLANE('',#330);
#283=PLANE('',#335);
#284=PLANE('',#341);
#285=PLANE('',#345);
#286=PLANE('',#351);
#287=PLANE('',#352);
#288=PLANE('',#353);
#289=PLANE('',#354);
#290=PLANE('',#355);
#291=PLANE('',#356);
#292=PLANE('',#357);
#293=PLANE('',#358);
#294=PLANE('',#364);
#295=ADVANCED_FACE('',(#244,#245),#282,.F.);
#296=ADVANCED_FACE('',(#246,#247),#60,.F.);
#297=ADVANCED_FACE('',(#248,#249),#283,.F.);
#298=ADVANCED_FACE('',(#250,#251),#56,.T.);
#299=ADVANCED_FACE('',(#252,#253),#61,.T.);
#300=ADVANCED_FACE('',(#254,#255),#284,.F.);
#301=ADVANCED_FACE('',(#256,#257),#62,.T.);
#302=ADVANCED_FACE('',(#258,#259),#285,.F.);
#303=ADVANCED_FACE('',(#260,#261),#57,.T.);
#304=ADVANCED_FACE('',(#262,#263),#63,.T.);
#305=ADVANCED_FACE('',(#264),#286,.T.);
#306=ADVANCED_FACE('',(#265),#287,.T.);
#307=ADVANCED_FACE('',(#266),#288,.T.);
#308=ADVANCED_FACE('',(#267),#289,.T.);
#309=ADVANCED_FACE('',(#268),#290,.T.);
#310=ADVANCED_FACE('',(#269),#291,.T.);
#311=ADVANCED_FACE('',(#270,#271),#292,.F.);
#312=ADVANCED_FACE('',(#272,#273),#293,.F.);
#313=ADVANCED_FACE('',(#274,#275),#58,.T.);
#314=ADVANCED_FACE('',(#276,#277),#59,.T.);
#315=ADVANCED_FACE('',(#278,#279),#294,.F.);
#316=ADVANCED_FACE('',(#280,#281),#64,.F.);
#317=CLOSED_SHELL('',(#295,#296,#297,#298,#299,#300,#301,#302,#303,#304,
#305,#306,#307,#308,#309,#310,#311,#312,#313,#314,#315,#316));
#318=STYLED_ITEM('',(#319),#326);
#319=PRESENTATION_STYLE_ASSIGNMENT((#320));
#320=SURFACE_STYLE_USAGE(.BOTH.,#321);
#321=SURFACE_SIDE_STYLE('',(#322));
#322=SURFACE_STYLE_FILL_AREA(#323);
#323=FILL_AREA_STYLE('',(#324));
#324=FILL_AREA_STYLE_COLOUR('',#325);
#325=COLOUR_RGB('',0.689999997615814,0.689999997615814,0.689999997615814);
#326=MANIFOLD_SOLID_BREP('190855 HA-3/8-QS-3/8-U',#317);
#327=SHAPE_DEFINITION_REPRESENTATION(#550,#328);
#328=SHAPE_REPRESENTATION('190855 HA-3/8-QS-3/8-U',(#329),#545);
#329=AXIS2_PLACEMENT_3D('',#461,#367,#368);
#330=AXIS2_PLACEMENT_3D('',#462,#369,#370);
#331=AXIS2_PLACEMENT_3D('',#463,#371,#372);
#332=AXIS2_PLACEMENT_3D('',#465,#373,#374);
#333=AXIS2_PLACEMENT_3D('',#467,#375,#376);
#334=AXIS2_PLACEMENT_3D('',#468,#377,#378);
#335=AXIS2_PLACEMENT_3D('',#470,#379,#380);
#336=AXIS2_PLACEMENT_3D('',#471,#381,#382);
#337=AXIS2_PLACEMENT_3D('',#473,#383,#384);
#338=AXIS2_PLACEMENT_3D('',#474,#385,#386);
#339=AXIS2_PLACEMENT_3D('',#476,#387,#388);
#340=AXIS2_PLACEMENT_3D('',#477,#389,#390);
#341=AXIS2_PLACEMENT_3D('',#479,#391,#392);
#342=AXIS2_PLACEMENT_3D('',#480,#393,#394);
#343=AXIS2_PLACEMENT_3D('',#482,#395,#396);
#344=AXIS2_PLACEMENT_3D('',#483,#397,#398);
#345=AXIS2_PLACEMENT_3D('',#485,#399,#400);
#346=AXIS2_PLACEMENT_3D('',#486,#401,#402);
#347=AXIS2_PLACEMENT_3D('',#488,#403,#404);
#348=AXIS2_PLACEMENT_3D('',#489,#405,#406);
#349=AXIS2_PLACEMENT_3D('',#491,#407,#408);
#350=AXIS2_PLACEMENT_3D('',#492,#409,#410);
#351=AXIS2_PLACEMENT_3D('',#494,#411,#412);
#352=AXIS2_PLACEMENT_3D('',#503,#417,#418);
#353=AXIS2_PLACEMENT_3D('',#509,#422,#423);
#354=AXIS2_PLACEMENT_3D('',#515,#427,#428);
#355=AXIS2_PLACEMENT_3D('',#521,#432,#433);
#356=AXIS2_PLACEMENT_3D('',#527,#437,#438);
#357=AXIS2_PLACEMENT_3D('',#530,#441,#442);
#358=AXIS2_PLACEMENT_3D('',#531,#443,#444);
#359=AXIS2_PLACEMENT_3D('',#532,#445,#446);
#360=AXIS2_PLACEMENT_3D('',#534,#447,#448);
#361=AXIS2_PLACEMENT_3D('',#535,#449,#450);
#362=AXIS2_PLACEMENT_3D('',#537,#451,#452);
#363=AXIS2_PLACEMENT_3D('',#538,#453,#454);
#364=AXIS2_PLACEMENT_3D('',#540,#455,#456);
#365=AXIS2_PLACEMENT_3D('',#541,#457,#458);
#366=AXIS2_PLACEMENT_3D('',#543,#459,#460);
#367=DIRECTION('',(0.,0.,1.));
#368=DIRECTION('',(1.,0.,0.));
#369=DIRECTION('',(1.,0.,0.));
#370=DIRECTION('',(0.,0.,-1.));
#371=DIRECTION('',(1.,0.,0.));
#372=DIRECTION('',(0.,0.,-1.));
#373=DIRECTION('',(1.,0.,0.));
#374=DIRECTION('',(0.,0.,-1.));
#375=DIRECTION('',(1.,0.,0.));
#376=DIRECTION('',(0.,0.,-1.));
#377=DIRECTION('',(1.,0.,0.));
#378=DIRECTION('',(0.,0.,-1.));
#379=DIRECTION('',(1.,0.,0.));
#380=DIRECTION('',(0.,0.,-1.));
#381=DIRECTION('',(1.,0.,0.));
#382=DIRECTION('',(0.,0.,-1.));
#383=DIRECTION('',(1.,0.,0.));
#384=DIRECTION('',(0.,0.,-1.));
#385=DIRECTION('',(1.,0.,0.));
#386=DIRECTION('',(0.,0.,-1.));
#387=DIRECTION('',(1.,0.,0.));
#388=DIRECTION('',(0.,0.,-1.));
#389=DIRECTION('',(1.,0.,0.));
#390=DIRECTION('',(0.,0.,-1.));
#391=DIRECTION('',(-1.,0.,0.));
#392=DIRECTION('',(0.,0.,1.));
#393=DIRECTION('',(1.,0.,0.));
#394=DIRECTION('',(0.,0.,-1.));
#395=DIRECTION('',(1.,0.,0.));
#396=DIRECTION('',(0.,0.,-1.));
#397=DIRECTION('',(1.,0.,0.));
#398=DIRECTION('',(0.,0.,-1.));
#399=DIRECTION('',(1.,0.,0.));
#400=DIRECTION('',(0.,0.,-1.));
#401=DIRECTION('',(1.,0.,0.));
#402=DIRECTION('',(0.,0.,-1.));
#403=DIRECTION('',(1.,0.,0.));
#404=DIRECTION('',(0.,0.,-1.));
#405=DIRECTION('',(1.,0.,0.));
#406=DIRECTION('',(0.,0.,-1.));
#407=DIRECTION('',(1.,0.,0.));
#408=DIRECTION('',(0.,0.,-1.));
#409=DIRECTION('',(1.,0.,0.));
#410=DIRECTION('',(0.,0.,-1.));
#411=DIRECTION('',(0.,0.,1.));
#412=DIRECTION('',(1.,0.,0.));
#413=DIRECTION('',(0.,-1.,0.));
#414=DIRECTION('',(1.,0.,0.));
#415=DIRECTION('',(0.,-1.,0.));
#416=DIRECTION('',(1.,0.,0.));
#417=DIRECTION('',(0.,-0.866025403784439,0.5));
#418=DIRECTION('',(0.,-0.5,-0.866025403784439));
#419=DIRECTION('',(0.,-0.5,-0.866025403784439));
#420=DIRECTION('',(0.,-0.5,-0.866025403784439));
#421=DIRECTION('',(1.,0.,0.));
#422=DIRECTION('',(0.,-0.866025403784439,-0.5));
#423=DIRECTION('',(0.,0.5,-0.866025403784439));
#424=DIRECTION('',(0.,0.5,-0.866025403784439));
#425=DIRECTION('',(0.,0.5,-0.866025403784439));
#426=DIRECTION('',(1.,0.,0.));
#427=DIRECTION('',(0.,0.,-1.));
#428=DIRECTION('',(-1.,0.,0.));
#429=DIRECTION('',(0.,1.,0.));
#430=DIRECTION('',(0.,1.,0.));
#431=DIRECTION('',(1.,0.,0.));
#432=DIRECTION('',(0.,0.866025403784439,-0.5));
#433=DIRECTION('',(0.,0.5,0.866025403784439));
#434=DIRECTION('',(0.,0.5,0.866025403784439));
#435=DIRECTION('',(0.,0.5,0.866025403784439));
#436=DIRECTION('',(1.,0.,0.));
#437=DIRECTION('',(0.,0.866025403784439,0.5));
#438=DIRECTION('',(0.,-0.5,0.866025403784439));
#439=DIRECTION('',(0.,-0.5,0.866025403784439));
#440=DIRECTION('',(0.,-0.5,0.866025403784439));
#441=DIRECTION('',(1.,0.,0.));
#442=DIRECTION('',(0.,0.,-1.));
#443=DIRECTION('',(-1.,0.,0.));
#444=DIRECTION('',(0.,0.,1.));
#445=DIRECTION('',(1.,1.48029736616688E-16,0.));
#446=DIRECTION('',(-1.48029736616688E-16,1.,0.));
#447=DIRECTION('',(-1.,-1.48029736616688E-16,0.));
#448=DIRECTION('',(1.48029736616688E-16,-1.,0.));
#449=DIRECTION('',(1.,1.48029736616688E-16,0.));
#450=DIRECTION('',(-1.48029736616688E-16,1.,0.));
#451=DIRECTION('',(-1.,-1.48029736616688E-16,0.));
#452=DIRECTION('',(1.48029736616688E-16,-1.,0.));
#453=DIRECTION('',(1.,1.48029736616688E-16,0.));
#454=DIRECTION('',(-1.48029736616688E-16,1.,0.));
#455=DIRECTION('',(-1.,-1.48029736616688E-16,0.));
#456=DIRECTION('',(1.48029736616688E-16,-1.,0.));
#457=DIRECTION('',(1.,0.,0.));
#458=DIRECTION('',(0.,0.,-1.));
#459=DIRECTION('',(-1.,0.,0.));
#460=DIRECTION('',(0.,0.,1.));
#461=CARTESIAN_POINT('',(0.,0.,0.));
#462=CARTESIAN_POINT('',(20.3,0.,0.));
#463=CARTESIAN_POINT('',(20.3,0.,0.));
#464=CARTESIAN_POINT('',(20.3,0.,-4.7625));
#465=CARTESIAN_POINT('',(20.3,0.,0.));
#466=CARTESIAN_POINT('',(20.3,0.,-4.));
#467=CARTESIAN_POINT('',(49.7,0.,0.));
#468=CARTESIAN_POINT('',(0.,0.,0.));
#469=CARTESIAN_POINT('',(0.,0.,-4.7625));
#470=CARTESIAN_POINT('',(0.,4.7625,0.));
#471=CARTESIAN_POINT('',(0.,0.,0.));
#472=CARTESIAN_POINT('',(0.,0.,-7.41519224698779));
#473=CARTESIAN_POINT('',(0.,0.,0.));
#474=CARTESIAN_POINT('',(0.173648177666928,0.,0.));
#475=CARTESIAN_POINT('',(0.173648177666928,0.,-8.4));
#476=CARTESIAN_POINT('',(49.7,0.,0.));
#477=CARTESIAN_POINT('',(1.5,0.,0.));
#478=CARTESIAN_POINT('',(1.5,0.,-8.4));
#479=CARTESIAN_POINT('',(1.5,8.4,0.));
#480=CARTESIAN_POINT('',(1.5,0.,0.));
#481=CARTESIAN_POINT('',(1.5,0.,-5.7625));
#482=CARTESIAN_POINT('',(49.7,0.,0.));
#483=CARTESIAN_POINT('',(2.5,0.,0.));
#484=CARTESIAN_POINT('',(2.5,0.,-5.7625));
#485=CARTESIAN_POINT('',(2.5,5.7625,0.));
#486=CARTESIAN_POINT('',(2.5,0.,0.));
#487=CARTESIAN_POINT('',(2.5,0.,-12.1464466094067));
#488=CARTESIAN_POINT('',(2.5,0.,0.));
#489=CARTESIAN_POINT('',(2.85355339059327,0.,0.));
#490=CARTESIAN_POINT('',(2.85355339059327,0.,-12.5));
#491=CARTESIAN_POINT('',(49.7,0.,0.));
#492=CARTESIAN_POINT('',(30.65,0.,0.));
#493=CARTESIAN_POINT('',(30.65,0.,-12.5));
#494=CARTESIAN_POINT('',(30.65,7.33234841870825,12.7));
#495=CARTESIAN_POINT('',(49.7,7.33234841870825,12.7));
#496=CARTESIAN_POINT('',(49.7,7.33234841870825,12.7));
#497=CARTESIAN_POINT('',(49.7,-7.33234841870825,12.7));
#498=CARTESIAN_POINT('',(30.65,7.33234841870825,12.7));
#499=CARTESIAN_POINT('',(30.65,7.33234841870825,12.7));
#500=CARTESIAN_POINT('',(30.65,7.33234841870825,12.7));
#501=CARTESIAN_POINT('',(30.65,-7.33234841870825,12.7));
#502=CARTESIAN_POINT('',(30.65,-7.33234841870825,12.7));
#503=CARTESIAN_POINT('',(30.65,-7.33234841870825,12.7));
#504=CARTESIAN_POINT('',(49.7,-7.33234841870825,12.7));
#505=CARTESIAN_POINT('',(49.7,-14.6646968374165,1.73472347597681E-15));
#506=CARTESIAN_POINT('',(30.65,-7.33234841870825,12.7));
#507=CARTESIAN_POINT('',(30.65,-14.6646968374165,1.73472347597681E-15));
#508=CARTESIAN_POINT('',(30.65,-14.6646968374165,1.73472347597681E-15));
#509=CARTESIAN_POINT('',(30.65,-14.6646968374165,0.));
#510=CARTESIAN_POINT('',(49.7,-14.6646968374165,0.));
#511=CARTESIAN_POINT('',(49.7,-7.33234841870825,-12.7));
#512=CARTESIAN_POINT('',(30.65,-14.6646968374165,0.));
#513=CARTESIAN_POINT('',(30.65,-7.33234841870825,-12.7));
#514=CARTESIAN_POINT('',(30.65,-7.33234841870825,-12.7));
#515=CARTESIAN_POINT('',(30.65,-7.33234841870825,-12.7));
#516=CARTESIAN_POINT('',(49.7,-7.33234841870825,-12.7));
#517=CARTESIAN_POINT('',(49.7,7.33234841870825,-12.7));
#518=CARTESIAN_POINT('',(30.65,-7.33234841870825,-12.7));
#519=CARTESIAN_POINT('',(30.65,7.33234841870825,-12.7));
#520=CARTESIAN_POINT('',(30.65,7.33234841870825,-12.7));
#521=CARTESIAN_POINT('',(30.65,7.33234841870825,-12.7));
#522=CARTESIAN_POINT('',(49.7,7.33234841870825,-12.7));
#523=CARTESIAN_POINT('',(49.7,14.6646968374165,-1.73472347597681E-15));
#524=CARTESIAN_POINT('',(30.65,7.33234841870825,-12.7));
#525=CARTESIAN_POINT('',(30.65,14.6646968374165,-1.73472347597681E-15));
#526=CARTESIAN_POINT('',(30.65,14.6646968374165,-1.73472347597681E-15));
#527=CARTESIAN_POINT('',(30.65,14.6646968374165,0.));
#528=CARTESIAN_POINT('',(49.7,14.6646968374165,0.));
#529=CARTESIAN_POINT('',(30.65,14.6646968374165,0.));
#530=CARTESIAN_POINT('',(30.65,0.,0.));
#531=CARTESIAN_POINT('',(49.7,10.2,0.));
#532=CARTESIAN_POINT('',(49.7,-1.77635683940025E-15,0.));
#533=CARTESIAN_POINT('',(49.7,8.470872898486,0.));
#534=CARTESIAN_POINT('',(49.7,-1.77635683940025E-15,0.));
#535=CARTESIAN_POINT('',(61.229657634982,-6.96246564132833E-17,0.));
#536=CARTESIAN_POINT('',(61.229657634982,8.11092226907251,0.));
#537=CARTESIAN_POINT('',(61.229657634982,-6.96246564132833E-17,0.));
#538=CARTESIAN_POINT('',(61.7,1.59881625693047E-31,0.));
#539=CARTESIAN_POINT('',(61.7,7.29626539590924,0.));
#540=CARTESIAN_POINT('',(61.7,7.29626539590924,0.));
#541=CARTESIAN_POINT('',(61.7,0.,0.));
#542=CARTESIAN_POINT('',(61.7,0.,-4.));
#543=CARTESIAN_POINT('',(61.7,0.,0.));
#544=MECHANICAL_DESIGN_GEOMETRIC_PRESENTATION_REPRESENTATION('',(#318),
#545);
#545=(
GEOMETRIC_REPRESENTATION_CONTEXT(3)
GLOBAL_UNCERTAINTY_ASSIGNED_CONTEXT((#546))
GLOBAL_UNIT_ASSIGNED_CONTEXT((#549,#548,#547))
REPRESENTATION_CONTEXT('190855 HA-3/8-QS-3/8-U',
'TOP_LEVEL_ASSEMBLY_PART')
);
#546=UNCERTAINTY_MEASURE_WITH_UNIT(LENGTH_MEASURE(0.005),#549,
'DISTANCE_ACCURACY_VALUE','Maximum Tolerance applied to model');
#547=(
NAMED_UNIT(*)
SI_UNIT($,.STERADIAN.)
SOLID_ANGLE_UNIT()
);
#548=(
NAMED_UNIT(*)
PLANE_ANGLE_UNIT()
SI_UNIT($,.RADIAN.)
);
#549=(
LENGTH_UNIT()
NAMED_UNIT(*)
SI_UNIT(.MILLI.,.METRE.)
);
#550=PRODUCT_DEFINITION_SHAPE('','',#551);
#551=PRODUCT_DEFINITION('','',#553,#552);
#552=PRODUCT_DEFINITION_CONTEXT('',#559,'design');
#553=PRODUCT_DEFINITION_FORMATION_WITH_SPECIFIED_SOURCE('','',#555,
 .NOT_KNOWN.);
#554=PRODUCT_RELATED_PRODUCT_CATEGORY('','',(#555));
#555=PRODUCT('190855 HA-3/8-QS-3/8-U','190855 HA-3/8-QS-3/8-U',
'190855 HA-3/8-QS-3/8-U',(#557));
#556=PRODUCT_CATEGORY('','');
#557=PRODUCT_CONTEXT('',#559,'mechanical');
#558=APPLICATION_PROTOCOL_DEFINITION('international standard',
'automotive_design',2010,#559);
#559=APPLICATION_CONTEXT(
'core data for automotive mechanical design processes');
ENDSEC;
END-ISO-10303-21;
