ISO-10303-21;
HEADER;
/* Generated by software containing ST-Developer
 * from STEP Tools, Inc. (www.steptools.com) 
 */
/* OPTION: using custom renumber hook */

FILE_DESCRIPTION(
/* description */ ('STEP AP214'),
/* implementation_level */ '2;1');

FILE_NAME(
/* name */ '190858_HB-1_8-QSM-5_32-U',
/* time_stamp */ '2024-08-29T01:45:23+02:00',
/* author */ ('License CC BY-ND 4.0'),
/* organization */ ('CADENAS'),
/* preprocessor_version */ 'ST-DEVELOPER v19.3',
/* originating_system */ 'PARTsolutions',
/* authorisation */ '  ');

FILE_SCHEMA (('AUTOMOTIVE_DESIGN {1 0 10303 214 3 1 1}'));
ENDSEC;

DATA;
#10=PROPERTY_DEFINITION_REPRESENTATION(#14,#12);
#11=PROPERTY_DEFINITION_REPRESENTATION(#15,#13);
#12=REPRESENTATION('',(#16),#709);
#13=REPRESENTATION('',(#17),#709);
#14=PROPERTY_DEFINITION('pmi validation property','',#714);
#15=PROPERTY_DEFINITION('pmi validation property','',#714);
#16=VALUE_REPRESENTATION_ITEM('number of annotations',COUNT_MEASURE(0.));
#17=VALUE_REPRESENTATION_ITEM('number of views',COUNT_MEASURE(0.));
#18=SHAPE_REPRESENTATION_RELATIONSHIP('','',#417,#19);
#19=ADVANCED_BREP_SHAPE_REPRESENTATION('',(#415),#709);
#20=B_SPLINE_CURVE_WITH_KNOTS('',3,(#642,#643,#644,#645),.UNSPECIFIED.,
 .F.,.F.,(4,4),(0.00134527267865187,0.0020007),.UNSPECIFIED.);
#21=B_SPLINE_CURVE_WITH_KNOTS('',3,(#649,#650,#651,#652),.UNSPECIFIED.,
 .F.,.F.,(4,4),(6.99999999999963E-7,0.000656127321348132),.UNSPECIFIED.);
#22=B_SPLINE_CURVE_WITH_KNOTS('',3,(#656,#657,#658,#659,#660,#661,#662),
 .UNSPECIFIED.,.F.,.F.,(4,1,1,1,4),(1.97351321012183E-7,0.00304905470832364,
0.00609791206532627,0.00914676942232889,0.0121956267793315),
 .UNSPECIFIED.);
#23=B_SPLINE_CURVE_WITH_KNOTS('',3,(#666,#667,#668,#669),.UNSPECIFIED.,
 .F.,.F.,(4,4),(0.00134527267865187,0.0020007),.UNSPECIFIED.);
#24=B_SPLINE_CURVE_WITH_KNOTS('',3,(#673,#674,#675,#676),.UNSPECIFIED.,
 .F.,.F.,(4,4),(6.99999999999963E-7,0.000656127321348131),.UNSPECIFIED.);
#25=B_SPLINE_CURVE_WITH_KNOTS('',3,(#678,#679,#680,#681,#682,#683,#684),
 .UNSPECIFIED.,.F.,.F.,(4,1,1,1,4),(1.97351321011541E-7,0.00304905470832364,
0.00609791206532626,0.00914676942232889,0.0121956267793315),
 .UNSPECIFIED.);
#26=CONICAL_SURFACE('',#427,4.14644660940673,0.785398163397448);
#27=CONICAL_SURFACE('',#449,3.91519224698779,1.39626340159546);
#28=CONICAL_SURFACE('',#451,3.91519224698779,1.39626340159546);
#29=CONICAL_SURFACE('',#454,5.08209240990097,0.0312094049979788);
#30=CONICAL_SURFACE('',#456,4.84200798940042,1.0471975511966);
#31=CYLINDRICAL_SURFACE('',#423,2.981);
#32=CYLINDRICAL_SURFACE('',#429,4.5);
#33=CYLINDRICAL_SURFACE('',#441,3.9);
#34=CYLINDRICAL_SURFACE('',#443,3.9);
#35=CYLINDRICAL_SURFACE('',#447,1.981);
#36=CYLINDRICAL_SURFACE('',#460,1.5);
#37=LINE('',#580,#63);
#38=LINE('',#584,#64);
#39=LINE('',#598,#65);
#40=LINE('',#601,#66);
#41=LINE('',#603,#67);
#42=LINE('',#605,#68);
#43=LINE('',#607,#69);
#44=LINE('',#609,#70);
#45=LINE('',#611,#71);
#46=LINE('',#614,#72);
#47=LINE('',#615,#73);
#48=LINE('',#617,#74);
#49=LINE('',#619,#75);
#50=LINE('',#621,#76);
#51=LINE('',#623,#77);
#52=LINE('',#625,#78);
#53=LINE('',#627,#79);
#54=LINE('',#629,#80);
#55=LINE('',#631,#81);
#56=LINE('',#633,#82);
#57=LINE('',#638,#83);
#58=LINE('',#640,#84);
#59=LINE('',#647,#85);
#60=LINE('',#654,#86);
#61=LINE('',#664,#87);
#62=LINE('',#671,#88);
#63=VECTOR('',#469,1000.);
#64=VECTOR('',#472,1000.);
#65=VECTOR('',#491,1000.);
#66=VECTOR('',#492,1000.);
#67=VECTOR('',#493,1000.);
#68=VECTOR('',#494,1000.);
#69=VECTOR('',#495,1000.);
#70=VECTOR('',#496,1000.);
#71=VECTOR('',#499,1000.);
#72=VECTOR('',#500,1000.);
#73=VECTOR('',#501,1000.);
#74=VECTOR('',#504,1000.);
#75=VECTOR('',#505,1000.);
#76=VECTOR('',#508,1000.);
#77=VECTOR('',#509,1000.);
#78=VECTOR('',#512,1000.);
#79=VECTOR('',#513,1000.);
#80=VECTOR('',#516,1000.);
#81=VECTOR('',#517,1000.);
#82=VECTOR('',#520,1000.);
#83=VECTOR('',#527,1000.);
#84=VECTOR('',#528,1000.);
#85=VECTOR('',#529,1000.);
#86=VECTOR('',#532,1000.);
#87=VECTOR('',#535,1000.);
#88=VECTOR('',#536,1000.);
#89=ORIENTED_EDGE('',*,*,#185,.F.);
#90=ORIENTED_EDGE('',*,*,#186,.T.);
#91=ORIENTED_EDGE('',*,*,#187,.T.);
#92=ORIENTED_EDGE('',*,*,#188,.T.);
#93=ORIENTED_EDGE('',*,*,#189,.T.);
#94=ORIENTED_EDGE('',*,*,#190,.F.);
#95=ORIENTED_EDGE('',*,*,#185,.T.);
#96=ORIENTED_EDGE('',*,*,#191,.F.);
#97=ORIENTED_EDGE('',*,*,#190,.T.);
#98=ORIENTED_EDGE('',*,*,#192,.F.);
#99=ORIENTED_EDGE('',*,*,#191,.T.);
#100=ORIENTED_EDGE('',*,*,#193,.F.);
#101=ORIENTED_EDGE('',*,*,#192,.T.);
#102=ORIENTED_EDGE('',*,*,#193,.T.);
#103=ORIENTED_EDGE('',*,*,#194,.F.);
#104=ORIENTED_EDGE('',*,*,#195,.F.);
#105=ORIENTED_EDGE('',*,*,#196,.F.);
#106=ORIENTED_EDGE('',*,*,#197,.F.);
#107=ORIENTED_EDGE('',*,*,#198,.F.);
#108=ORIENTED_EDGE('',*,*,#199,.F.);
#109=ORIENTED_EDGE('',*,*,#200,.F.);
#110=ORIENTED_EDGE('',*,*,#201,.F.);
#111=ORIENTED_EDGE('',*,*,#195,.T.);
#112=ORIENTED_EDGE('',*,*,#202,.T.);
#113=ORIENTED_EDGE('',*,*,#203,.F.);
#114=ORIENTED_EDGE('',*,*,#204,.F.);
#115=ORIENTED_EDGE('',*,*,#196,.T.);
#116=ORIENTED_EDGE('',*,*,#201,.T.);
#117=ORIENTED_EDGE('',*,*,#205,.F.);
#118=ORIENTED_EDGE('',*,*,#206,.F.);
#119=ORIENTED_EDGE('',*,*,#197,.T.);
#120=ORIENTED_EDGE('',*,*,#204,.T.);
#121=ORIENTED_EDGE('',*,*,#207,.F.);
#122=ORIENTED_EDGE('',*,*,#208,.F.);
#123=ORIENTED_EDGE('',*,*,#198,.T.);
#124=ORIENTED_EDGE('',*,*,#206,.T.);
#125=ORIENTED_EDGE('',*,*,#209,.F.);
#126=ORIENTED_EDGE('',*,*,#210,.F.);
#127=ORIENTED_EDGE('',*,*,#199,.T.);
#128=ORIENTED_EDGE('',*,*,#208,.T.);
#129=ORIENTED_EDGE('',*,*,#211,.F.);
#130=ORIENTED_EDGE('',*,*,#202,.F.);
#131=ORIENTED_EDGE('',*,*,#194,.T.);
#132=ORIENTED_EDGE('',*,*,#210,.T.);
#133=ORIENTED_EDGE('',*,*,#212,.F.);
#134=ORIENTED_EDGE('',*,*,#211,.T.);
#135=ORIENTED_EDGE('',*,*,#209,.T.);
#136=ORIENTED_EDGE('',*,*,#207,.T.);
#137=ORIENTED_EDGE('',*,*,#205,.T.);
#138=ORIENTED_EDGE('',*,*,#203,.T.);
#139=ORIENTED_EDGE('',*,*,#200,.T.);
#140=ORIENTED_EDGE('',*,*,#213,.F.);
#141=ORIENTED_EDGE('',*,*,#187,.F.);
#142=ORIENTED_EDGE('',*,*,#214,.T.);
#143=ORIENTED_EDGE('',*,*,#215,.F.);
#144=ORIENTED_EDGE('',*,*,#216,.T.);
#145=ORIENTED_EDGE('',*,*,#217,.F.);
#146=ORIENTED_EDGE('',*,*,#214,.F.);
#147=ORIENTED_EDGE('',*,*,#186,.F.);
#148=ORIENTED_EDGE('',*,*,#218,.T.);
#149=ORIENTED_EDGE('',*,*,#219,.F.);
#150=ORIENTED_EDGE('',*,*,#218,.F.);
#151=ORIENTED_EDGE('',*,*,#189,.F.);
#152=ORIENTED_EDGE('',*,*,#220,.T.);
#153=ORIENTED_EDGE('',*,*,#221,.F.);
#154=ORIENTED_EDGE('',*,*,#222,.T.);
#155=ORIENTED_EDGE('',*,*,#223,.F.);
#156=ORIENTED_EDGE('',*,*,#220,.F.);
#157=ORIENTED_EDGE('',*,*,#188,.F.);
#158=ORIENTED_EDGE('',*,*,#213,.T.);
#159=ORIENTED_EDGE('',*,*,#224,.F.);
#160=ORIENTED_EDGE('',*,*,#225,.F.);
#161=ORIENTED_EDGE('',*,*,#226,.T.);
#162=ORIENTED_EDGE('',*,*,#227,.F.);
#163=ORIENTED_EDGE('',*,*,#226,.F.);
#164=ORIENTED_EDGE('',*,*,#223,.T.);
#165=ORIENTED_EDGE('',*,*,#228,.T.);
#166=ORIENTED_EDGE('',*,*,#215,.T.);
#167=ORIENTED_EDGE('',*,*,#219,.T.);
#168=ORIENTED_EDGE('',*,*,#224,.T.);
#169=ORIENTED_EDGE('',*,*,#217,.T.);
#170=ORIENTED_EDGE('',*,*,#229,.T.);
#171=ORIENTED_EDGE('',*,*,#221,.T.);
#172=ORIENTED_EDGE('',*,*,#228,.F.);
#173=ORIENTED_EDGE('',*,*,#222,.F.);
#174=ORIENTED_EDGE('',*,*,#229,.F.);
#175=ORIENTED_EDGE('',*,*,#216,.F.);
#176=ORIENTED_EDGE('',*,*,#227,.T.);
#177=ORIENTED_EDGE('',*,*,#230,.F.);
#178=ORIENTED_EDGE('',*,*,#212,.T.);
#179=ORIENTED_EDGE('',*,*,#231,.F.);
#180=ORIENTED_EDGE('',*,*,#230,.T.);
#181=ORIENTED_EDGE('',*,*,#232,.F.);
#182=ORIENTED_EDGE('',*,*,#231,.T.);
#183=ORIENTED_EDGE('',*,*,#232,.T.);
#184=ORIENTED_EDGE('',*,*,#225,.T.);
#185=EDGE_CURVE('',#233,#233,#269,.T.);
#186=EDGE_CURVE('',#234,#235,#270,.F.);
#187=EDGE_CURVE('',#235,#236,#37,.T.);
#188=EDGE_CURVE('',#236,#237,#271,.F.);
#189=EDGE_CURVE('',#237,#234,#38,.T.);
#190=EDGE_CURVE('',#238,#238,#272,.T.);
#191=EDGE_CURVE('',#239,#239,#273,.T.);
#192=EDGE_CURVE('',#240,#240,#274,.T.);
#193=EDGE_CURVE('',#241,#241,#275,.T.);
#194=EDGE_CURVE('',#242,#243,#39,.T.);
#195=EDGE_CURVE('',#244,#242,#40,.T.);
#196=EDGE_CURVE('',#245,#244,#41,.T.);
#197=EDGE_CURVE('',#246,#245,#42,.T.);
#198=EDGE_CURVE('',#247,#246,#43,.T.);
#199=EDGE_CURVE('',#243,#247,#44,.T.);
#200=EDGE_CURVE('',#248,#249,#45,.T.);
#201=EDGE_CURVE('',#244,#248,#46,.T.);
#202=EDGE_CURVE('',#242,#249,#47,.T.);
#203=EDGE_CURVE('',#250,#248,#48,.T.);
#204=EDGE_CURVE('',#245,#250,#49,.T.);
#205=EDGE_CURVE('',#251,#250,#50,.T.);
#206=EDGE_CURVE('',#246,#251,#51,.T.);
#207=EDGE_CURVE('',#252,#251,#52,.T.);
#208=EDGE_CURVE('',#247,#252,#53,.T.);
#209=EDGE_CURVE('',#253,#252,#54,.T.);
#210=EDGE_CURVE('',#243,#253,#55,.T.);
#211=EDGE_CURVE('',#249,#253,#56,.T.);
#212=EDGE_CURVE('',#254,#254,#276,.F.);
#213=EDGE_CURVE('',#236,#255,#57,.T.);
#214=EDGE_CURVE('',#235,#256,#58,.T.);
#215=EDGE_CURVE('',#257,#256,#20,.T.);
#216=EDGE_CURVE('',#257,#258,#59,.T.);
#217=EDGE_CURVE('',#255,#258,#21,.T.);
#218=EDGE_CURVE('',#234,#259,#60,.T.);
#219=EDGE_CURVE('',#256,#259,#22,.T.);
#220=EDGE_CURVE('',#237,#260,#61,.T.);
#221=EDGE_CURVE('',#261,#260,#23,.T.);
#222=EDGE_CURVE('',#261,#262,#62,.T.);
#223=EDGE_CURVE('',#259,#262,#24,.T.);
#224=EDGE_CURVE('',#260,#255,#25,.T.);
#225=EDGE_CURVE('',#263,#263,#277,.F.);
#226=EDGE_CURVE('',#264,#264,#278,.F.);
#227=EDGE_CURVE('',#265,#265,#279,.T.);
#228=EDGE_CURVE('',#262,#257,#280,.T.);
#229=EDGE_CURVE('',#258,#261,#281,.T.);
#230=EDGE_CURVE('',#266,#266,#282,.T.);
#231=EDGE_CURVE('',#267,#267,#283,.T.);
#232=EDGE_CURVE('',#268,#268,#284,.T.);
#233=VERTEX_POINT('',#576);
#234=VERTEX_POINT('',#578);
#235=VERTEX_POINT('',#579);
#236=VERTEX_POINT('',#581);
#237=VERTEX_POINT('',#583);
#238=VERTEX_POINT('',#587);
#239=VERTEX_POINT('',#590);
#240=VERTEX_POINT('',#593);
#241=VERTEX_POINT('',#596);
#242=VERTEX_POINT('',#599);
#243=VERTEX_POINT('',#600);
#244=VERTEX_POINT('',#602);
#245=VERTEX_POINT('',#604);
#246=VERTEX_POINT('',#606);
#247=VERTEX_POINT('',#608);
#248=VERTEX_POINT('',#612);
#249=VERTEX_POINT('',#613);
#250=VERTEX_POINT('',#618);
#251=VERTEX_POINT('',#622);
#252=VERTEX_POINT('',#626);
#253=VERTEX_POINT('',#630);
#254=VERTEX_POINT('',#636);
#255=VERTEX_POINT('',#639);
#256=VERTEX_POINT('',#641);
#257=VERTEX_POINT('',#646);
#258=VERTEX_POINT('',#648);
#259=VERTEX_POINT('',#655);
#260=VERTEX_POINT('',#665);
#261=VERTEX_POINT('',#670);
#262=VERTEX_POINT('',#672);
#263=VERTEX_POINT('',#687);
#264=VERTEX_POINT('',#689);
#265=VERTEX_POINT('',#692);
#266=VERTEX_POINT('',#700);
#267=VERTEX_POINT('',#703);
#268=VERTEX_POINT('',#706);
#269=CIRCLE('',#420,2.981);
#270=CIRCLE('',#421,3.9);
#271=CIRCLE('',#422,3.9);
#272=CIRCLE('',#424,2.981);
#273=CIRCLE('',#426,4.14644660940673);
#274=CIRCLE('',#428,4.5);
#275=CIRCLE('',#430,4.5);
#276=CIRCLE('',#439,5.08209240990097);
#277=CIRCLE('',#445,1.5);
#278=CIRCLE('',#446,1.981);
#279=CIRCLE('',#448,1.981);
#280=CIRCLE('',#450,3.91519224698779);
#281=CIRCLE('',#452,3.91519224698779);
#282=CIRCLE('',#455,4.84200798940042);
#283=CIRCLE('',#457,4.30541307484979);
#284=CIRCLE('',#459,1.5);
#285=EDGE_LOOP('',(#89));
#286=EDGE_LOOP('',(#90,#91,#92,#93));
#287=EDGE_LOOP('',(#94));
#288=EDGE_LOOP('',(#95));
#289=EDGE_LOOP('',(#96));
#290=EDGE_LOOP('',(#97));
#291=EDGE_LOOP('',(#98));
#292=EDGE_LOOP('',(#99));
#293=EDGE_LOOP('',(#100));
#294=EDGE_LOOP('',(#101));
#295=EDGE_LOOP('',(#102));
#296=EDGE_LOOP('',(#103,#104,#105,#106,#107,#108));
#297=EDGE_LOOP('',(#109,#110,#111,#112));
#298=EDGE_LOOP('',(#113,#114,#115,#116));
#299=EDGE_LOOP('',(#117,#118,#119,#120));
#300=EDGE_LOOP('',(#121,#122,#123,#124));
#301=EDGE_LOOP('',(#125,#126,#127,#128));
#302=EDGE_LOOP('',(#129,#130,#131,#132));
#303=EDGE_LOOP('',(#133));
#304=EDGE_LOOP('',(#134,#135,#136,#137,#138,#139));
#305=EDGE_LOOP('',(#140,#141,#142,#143,#144,#145));
#306=EDGE_LOOP('',(#146,#147,#148,#149));
#307=EDGE_LOOP('',(#150,#151,#152,#153,#154,#155));
#308=EDGE_LOOP('',(#156,#157,#158,#159));
#309=EDGE_LOOP('',(#160));
#310=EDGE_LOOP('',(#161));
#311=EDGE_LOOP('',(#162));
#312=EDGE_LOOP('',(#163));
#313=EDGE_LOOP('',(#164,#165,#166,#167));
#314=EDGE_LOOP('',(#168,#169,#170,#171));
#315=EDGE_LOOP('',(#172,#173,#174,#175));
#316=EDGE_LOOP('',(#176));
#317=EDGE_LOOP('',(#177));
#318=EDGE_LOOP('',(#178));
#319=EDGE_LOOP('',(#179));
#320=EDGE_LOOP('',(#180));
#321=EDGE_LOOP('',(#181));
#322=EDGE_LOOP('',(#182));
#323=EDGE_LOOP('',(#183));
#324=EDGE_LOOP('',(#184));
#325=FACE_BOUND('',#285,.T.);
#326=FACE_BOUND('',#286,.T.);
#327=FACE_BOUND('',#287,.T.);
#328=FACE_BOUND('',#288,.T.);
#329=FACE_BOUND('',#289,.T.);
#330=FACE_BOUND('',#290,.T.);
#331=FACE_BOUND('',#291,.T.);
#332=FACE_BOUND('',#292,.T.);
#333=FACE_BOUND('',#293,.T.);
#334=FACE_BOUND('',#294,.T.);
#335=FACE_BOUND('',#295,.T.);
#336=FACE_BOUND('',#296,.T.);
#337=FACE_BOUND('',#297,.T.);
#338=FACE_BOUND('',#298,.T.);
#339=FACE_BOUND('',#299,.T.);
#340=FACE_BOUND('',#300,.T.);
#341=FACE_BOUND('',#301,.T.);
#342=FACE_BOUND('',#302,.T.);
#343=FACE_BOUND('',#303,.T.);
#344=FACE_BOUND('',#304,.T.);
#345=FACE_BOUND('',#305,.T.);
#346=FACE_BOUND('',#306,.T.);
#347=FACE_BOUND('',#307,.T.);
#348=FACE_BOUND('',#308,.T.);
#349=FACE_BOUND('',#309,.T.);
#350=FACE_BOUND('',#310,.T.);
#351=FACE_BOUND('',#311,.T.);
#352=FACE_BOUND('',#312,.T.);
#353=FACE_BOUND('',#313,.T.);
#354=FACE_BOUND('',#314,.T.);
#355=FACE_BOUND('',#315,.T.);
#356=FACE_BOUND('',#316,.T.);
#357=FACE_BOUND('',#317,.T.);
#358=FACE_BOUND('',#318,.T.);
#359=FACE_BOUND('',#319,.T.);
#360=FACE_BOUND('',#320,.T.);
#361=FACE_BOUND('',#321,.T.);
#362=FACE_BOUND('',#322,.T.);
#363=FACE_BOUND('',#323,.T.);
#364=FACE_BOUND('',#324,.T.);
#365=PLANE('',#419);
#366=PLANE('',#425);
#367=PLANE('',#431);
#368=PLANE('',#432);
#369=PLANE('',#433);
#370=PLANE('',#434);
#371=PLANE('',#435);
#372=PLANE('',#436);
#373=PLANE('',#437);
#374=PLANE('',#438);
#375=PLANE('',#440);
#376=PLANE('',#442);
#377=PLANE('',#444);
#378=PLANE('',#453);
#379=PLANE('',#458);
#380=ADVANCED_FACE('',(#325,#326),#365,.F.);
#381=ADVANCED_FACE('',(#327,#328),#31,.T.);
#382=ADVANCED_FACE('',(#329,#330),#366,.F.);
#383=ADVANCED_FACE('',(#331,#332),#26,.T.);
#384=ADVANCED_FACE('',(#333,#334),#32,.T.);
#385=ADVANCED_FACE('',(#335,#336),#367,.F.);
#386=ADVANCED_FACE('',(#337),#368,.T.);
#387=ADVANCED_FACE('',(#338),#369,.T.);
#388=ADVANCED_FACE('',(#339),#370,.T.);
#389=ADVANCED_FACE('',(#340),#371,.T.);
#390=ADVANCED_FACE('',(#341),#372,.T.);
#391=ADVANCED_FACE('',(#342),#373,.T.);
#392=ADVANCED_FACE('',(#343,#344),#374,.F.);
#393=ADVANCED_FACE('',(#345),#375,.F.);
#394=ADVANCED_FACE('',(#346),#33,.T.);
#395=ADVANCED_FACE('',(#347),#376,.F.);
#396=ADVANCED_FACE('',(#348),#34,.T.);
#397=ADVANCED_FACE('',(#349,#350),#377,.F.);
#398=ADVANCED_FACE('',(#351,#352),#35,.F.);
#399=ADVANCED_FACE('',(#353),#27,.T.);
#400=ADVANCED_FACE('',(#354),#28,.T.);
#401=ADVANCED_FACE('',(#355,#356),#378,.F.);
#402=ADVANCED_FACE('',(#357,#358),#29,.T.);
#403=ADVANCED_FACE('',(#359,#360),#30,.T.);
#404=ADVANCED_FACE('',(#361,#362),#379,.F.);
#405=ADVANCED_FACE('',(#363,#364),#36,.F.);
#406=CLOSED_SHELL('',(#380,#381,#382,#383,#384,#385,#386,#387,#388,#389,
#390,#391,#392,#393,#394,#395,#396,#397,#398,#399,#400,#401,#402,#403,#404,
#405));
#407=STYLED_ITEM('',(#408),#415);
#408=PRESENTATION_STYLE_ASSIGNMENT((#409));
#409=SURFACE_STYLE_USAGE(.BOTH.,#410);
#410=SURFACE_SIDE_STYLE('',(#411));
#411=SURFACE_STYLE_FILL_AREA(#412);
#412=FILL_AREA_STYLE('',(#413));
#413=FILL_AREA_STYLE_COLOUR('',#414);
#414=COLOUR_RGB('',0.689999997615814,0.689999997615814,0.689999997615814);
#415=MANIFOLD_SOLID_BREP('190858 HB-1/8-QSM-5/32-U',#406);
#416=SHAPE_DEFINITION_REPRESENTATION(#714,#417);
#417=SHAPE_REPRESENTATION('190858 HB-1/8-QSM-5/32-U',(#418),#709);
#418=AXIS2_PLACEMENT_3D('',#573,#461,#462);
#419=AXIS2_PLACEMENT_3D('',#574,#463,#464);
#420=AXIS2_PLACEMENT_3D('',#575,#465,#466);
#421=AXIS2_PLACEMENT_3D('',#577,#467,#468);
#422=AXIS2_PLACEMENT_3D('',#582,#470,#471);
#423=AXIS2_PLACEMENT_3D('',#585,#473,#474);
#424=AXIS2_PLACEMENT_3D('',#586,#475,#476);
#425=AXIS2_PLACEMENT_3D('',#588,#477,#478);
#426=AXIS2_PLACEMENT_3D('',#589,#479,#480);
#427=AXIS2_PLACEMENT_3D('',#591,#481,#482);
#428=AXIS2_PLACEMENT_3D('',#592,#483,#484);
#429=AXIS2_PLACEMENT_3D('',#594,#485,#486);
#430=AXIS2_PLACEMENT_3D('',#595,#487,#488);
#431=AXIS2_PLACEMENT_3D('',#597,#489,#490);
#432=AXIS2_PLACEMENT_3D('',#610,#497,#498);
#433=AXIS2_PLACEMENT_3D('',#616,#502,#503);
#434=AXIS2_PLACEMENT_3D('',#620,#506,#507);
#435=AXIS2_PLACEMENT_3D('',#624,#510,#511);
#436=AXIS2_PLACEMENT_3D('',#628,#514,#515);
#437=AXIS2_PLACEMENT_3D('',#632,#518,#519);
#438=AXIS2_PLACEMENT_3D('',#634,#521,#522);
#439=AXIS2_PLACEMENT_3D('',#635,#523,#524);
#440=AXIS2_PLACEMENT_3D('',#637,#525,#526);
#441=AXIS2_PLACEMENT_3D('',#653,#530,#531);
#442=AXIS2_PLACEMENT_3D('',#663,#533,#534);
#443=AXIS2_PLACEMENT_3D('',#677,#537,#538);
#444=AXIS2_PLACEMENT_3D('',#685,#539,#540);
#445=AXIS2_PLACEMENT_3D('',#686,#541,#542);
#446=AXIS2_PLACEMENT_3D('',#688,#543,#544);
#447=AXIS2_PLACEMENT_3D('',#690,#545,#546);
#448=AXIS2_PLACEMENT_3D('',#691,#547,#548);
#449=AXIS2_PLACEMENT_3D('',#693,#549,#550);
#450=AXIS2_PLACEMENT_3D('',#694,#551,#552);
#451=AXIS2_PLACEMENT_3D('',#695,#553,#554);
#452=AXIS2_PLACEMENT_3D('',#696,#555,#556);
#453=AXIS2_PLACEMENT_3D('',#697,#557,#558);
#454=AXIS2_PLACEMENT_3D('',#698,#559,#560);
#455=AXIS2_PLACEMENT_3D('',#699,#561,#562);
#456=AXIS2_PLACEMENT_3D('',#701,#563,#564);
#457=AXIS2_PLACEMENT_3D('',#702,#565,#566);
#458=AXIS2_PLACEMENT_3D('',#704,#567,#568);
#459=AXIS2_PLACEMENT_3D('',#705,#569,#570);
#460=AXIS2_PLACEMENT_3D('',#707,#571,#572);
#461=DIRECTION('',(0.,0.,1.));
#462=DIRECTION('',(1.,0.,0.));
#463=DIRECTION('',(-1.,0.,0.));
#464=DIRECTION('',(0.,0.,1.));
#465=DIRECTION('',(1.,0.,0.));
#466=DIRECTION('',(0.,0.,-1.));
#467=DIRECTION('',(-1.,0.,0.));
#468=DIRECTION('',(0.,0.,1.));
#469=DIRECTION('',(0.,-1.,0.));
#470=DIRECTION('',(-1.,0.,0.));
#471=DIRECTION('',(0.,0.,1.));
#472=DIRECTION('',(0.,1.,0.));
#473=DIRECTION('',(1.,0.,0.));
#474=DIRECTION('',(0.,0.,-1.));
#475=DIRECTION('',(1.,0.,0.));
#476=DIRECTION('',(0.,0.,-1.));
#477=DIRECTION('',(1.,0.,0.));
#478=DIRECTION('',(0.,0.,-1.));
#479=DIRECTION('',(1.,0.,0.));
#480=DIRECTION('',(0.,0.,-1.));
#481=DIRECTION('',(1.,0.,0.));
#482=DIRECTION('',(0.,0.,-1.));
#483=DIRECTION('',(1.,0.,0.));
#484=DIRECTION('',(0.,0.,-1.));
#485=DIRECTION('',(1.,0.,0.));
#486=DIRECTION('',(0.,0.,-1.));
#487=DIRECTION('',(1.,0.,0.));
#488=DIRECTION('',(0.,0.,-1.));
#489=DIRECTION('',(1.,0.,0.));
#490=DIRECTION('',(0.,0.,-1.));
#491=DIRECTION('',(0.,-1.,0.));
#492=DIRECTION('',(0.,-0.5,0.866025403784439));
#493=DIRECTION('',(0.,0.5,0.866025403784439));
#494=DIRECTION('',(0.,1.,0.));
#495=DIRECTION('',(0.,0.5,-0.866025403784439));
#496=DIRECTION('',(0.,-0.5,-0.866025403784439));
#497=DIRECTION('',(0.,0.866025403784439,0.5));
#498=DIRECTION('',(0.,-0.5,0.866025403784439));
#499=DIRECTION('',(0.,-0.5,0.866025403784439));
#500=DIRECTION('',(1.,0.,0.));
#501=DIRECTION('',(1.,0.,0.));
#502=DIRECTION('',(0.,0.866025403784439,-0.5));
#503=DIRECTION('',(0.,0.5,0.866025403784439));
#504=DIRECTION('',(0.,0.5,0.866025403784439));
#505=DIRECTION('',(1.,0.,0.));
#506=DIRECTION('',(0.,0.,-1.));
#507=DIRECTION('',(-1.,0.,0.));
#508=DIRECTION('',(0.,1.,0.));
#509=DIRECTION('',(1.,0.,0.));
#510=DIRECTION('',(0.,-0.866025403784439,-0.5));
#511=DIRECTION('',(0.,0.5,-0.866025403784439));
#512=DIRECTION('',(0.,0.5,-0.866025403784439));
#513=DIRECTION('',(1.,0.,0.));
#514=DIRECTION('',(0.,-0.866025403784439,0.5));
#515=DIRECTION('',(0.,-0.5,-0.866025403784439));
#516=DIRECTION('',(0.,-0.5,-0.866025403784439));
#517=DIRECTION('',(1.,0.,0.));
#518=DIRECTION('',(0.,0.,1.));
#519=DIRECTION('',(1.,0.,0.));
#520=DIRECTION('',(0.,-1.,0.));
#521=DIRECTION('',(-1.,0.,0.));
#522=DIRECTION('',(0.,0.,1.));
#523=DIRECTION('',(-1.,0.,0.));
#524=DIRECTION('',(0.,0.,1.));
#525=DIRECTION('',(0.,0.,-1.));
#526=DIRECTION('',(-1.,0.,0.));
#527=DIRECTION('',(-1.,0.,0.));
#528=DIRECTION('',(-1.,0.,0.));
#529=DIRECTION('',(0.,-1.,0.));
#530=DIRECTION('',(-1.,0.,0.));
#531=DIRECTION('',(0.,0.,1.));
#532=DIRECTION('',(-1.,0.,0.));
#533=DIRECTION('',(0.,0.,1.));
#534=DIRECTION('',(1.,0.,0.));
#535=DIRECTION('',(-1.,0.,0.));
#536=DIRECTION('',(0.,1.,0.));
#537=DIRECTION('',(-1.,0.,0.));
#538=DIRECTION('',(0.,0.,1.));
#539=DIRECTION('',(1.,0.,0.));
#540=DIRECTION('',(0.,0.,-1.));
#541=DIRECTION('',(1.,0.,0.));
#542=DIRECTION('',(0.,0.,-1.));
#543=DIRECTION('',(1.,0.,0.));
#544=DIRECTION('',(0.,0.,-1.));
#545=DIRECTION('',(1.,0.,0.));
#546=DIRECTION('',(0.,0.,-1.));
#547=DIRECTION('',(1.,0.,0.));
#548=DIRECTION('',(0.,0.,-1.));
#549=DIRECTION('',(1.,0.,0.));
#550=DIRECTION('',(0.,0.,-1.));
#551=DIRECTION('',(1.,0.,0.));
#552=DIRECTION('',(0.,0.,-1.));
#553=DIRECTION('',(1.,0.,0.));
#554=DIRECTION('',(0.,0.,-1.));
#555=DIRECTION('',(1.,0.,0.));
#556=DIRECTION('',(0.,0.,-1.));
#557=DIRECTION('',(1.,0.,0.));
#558=DIRECTION('',(0.,0.,-1.));
#559=DIRECTION('',(-1.,0.,0.));
#560=DIRECTION('',(0.,0.,1.));
#561=DIRECTION('',(1.,0.,0.));
#562=DIRECTION('',(0.,0.,-1.));
#563=DIRECTION('',(-1.,0.,0.));
#564=DIRECTION('',(0.,0.,1.));
#565=DIRECTION('',(1.,0.,0.));
#566=DIRECTION('',(0.,0.,-1.));
#567=DIRECTION('',(-1.,0.,0.));
#568=DIRECTION('',(0.,0.,1.));
#569=DIRECTION('',(1.,0.,0.));
#570=DIRECTION('',(0.,0.,-1.));
#571=DIRECTION('',(-1.,0.,0.));
#572=DIRECTION('',(0.,0.,1.));
#573=CARTESIAN_POINT('',(0.,0.,0.));
#574=CARTESIAN_POINT('',(1.5,4.9,0.));
#575=CARTESIAN_POINT('',(1.5,0.,0.));
#576=CARTESIAN_POINT('',(1.5,0.,-2.981));
#577=CARTESIAN_POINT('',(1.5,1.,2.16840434497101E-16));
#578=CARTESIAN_POINT('',(1.5,1.,-3.9));
#579=CARTESIAN_POINT('',(1.5,1.,3.9));
#580=CARTESIAN_POINT('',(1.5,4.9,3.9));
#581=CARTESIAN_POINT('',(1.5,-1.,3.9));
#582=CARTESIAN_POINT('',(1.5,-1.,0.));
#583=CARTESIAN_POINT('',(1.5,-1.,-3.9));
#584=CARTESIAN_POINT('',(1.5,4.9,-3.9));
#585=CARTESIAN_POINT('',(16.5,0.,0.));
#586=CARTESIAN_POINT('',(2.5,0.,0.));
#587=CARTESIAN_POINT('',(2.5,0.,-2.981));
#588=CARTESIAN_POINT('',(2.5,2.981,0.));
#589=CARTESIAN_POINT('',(2.5,0.,0.));
#590=CARTESIAN_POINT('',(2.5,0.,-4.14644660940673));
#591=CARTESIAN_POINT('',(2.5,0.,0.));
#592=CARTESIAN_POINT('',(2.85355339059327,0.,0.));
#593=CARTESIAN_POINT('',(2.85355339059327,0.,-4.5));
#594=CARTESIAN_POINT('',(16.5,0.,0.));
#595=CARTESIAN_POINT('',(8.166,0.,0.));
#596=CARTESIAN_POINT('',(8.166,0.,-4.5));
#597=CARTESIAN_POINT('',(8.166,0.,0.));
#598=CARTESIAN_POINT('',(8.166,3.20775809561756,5.556));
#599=CARTESIAN_POINT('',(8.166,3.20775809561756,5.556));
#600=CARTESIAN_POINT('',(8.166,-3.20775809561756,5.556));
#601=CARTESIAN_POINT('',(8.166,6.41551619123512,0.));
#602=CARTESIAN_POINT('',(8.166,6.41551619123512,0.));
#603=CARTESIAN_POINT('',(8.166,3.20775809561756,-5.556));
#604=CARTESIAN_POINT('',(8.166,3.20775809561756,-5.556));
#605=CARTESIAN_POINT('',(8.166,-3.20775809561756,-5.556));
#606=CARTESIAN_POINT('',(8.166,-3.20775809561756,-5.556));
#607=CARTESIAN_POINT('',(8.166,-6.41551619123512,0.));
#608=CARTESIAN_POINT('',(8.166,-6.41551619123512,0.));
#609=CARTESIAN_POINT('',(8.166,-3.20775809561756,5.556));
#610=CARTESIAN_POINT('',(8.166,6.41551619123512,0.));
#611=CARTESIAN_POINT('',(16.5,6.41551619123512,0.));
#612=CARTESIAN_POINT('',(16.5,6.41551619123512,0.));
#613=CARTESIAN_POINT('',(16.5,3.20775809561756,5.556));
#614=CARTESIAN_POINT('',(8.166,6.41551619123512,0.));
#615=CARTESIAN_POINT('',(8.166,3.20775809561756,5.556));
#616=CARTESIAN_POINT('',(8.166,3.20775809561756,-5.556));
#617=CARTESIAN_POINT('',(16.5,3.20775809561756,-5.556));
#618=CARTESIAN_POINT('',(16.5,3.20775809561756,-5.556));
#619=CARTESIAN_POINT('',(8.166,3.20775809561756,-5.556));
#620=CARTESIAN_POINT('',(8.166,-3.20775809561756,-5.556));
#621=CARTESIAN_POINT('',(16.5,-3.20775809561756,-5.556));
#622=CARTESIAN_POINT('',(16.5,-3.20775809561756,-5.556));
#623=CARTESIAN_POINT('',(8.166,-3.20775809561756,-5.556));
#624=CARTESIAN_POINT('',(8.166,-6.41551619123512,0.));
#625=CARTESIAN_POINT('',(16.5,-6.41551619123512,0.));
#626=CARTESIAN_POINT('',(16.5,-6.41551619123512,0.));
#627=CARTESIAN_POINT('',(8.166,-6.41551619123512,0.));
#628=CARTESIAN_POINT('',(8.166,-3.20775809561756,5.556));
#629=CARTESIAN_POINT('',(16.5,-3.20775809561756,5.556));
#630=CARTESIAN_POINT('',(16.5,-3.20775809561756,5.556));
#631=CARTESIAN_POINT('',(8.166,-3.20775809561756,5.556));
#632=CARTESIAN_POINT('',(8.166,3.20775809561756,5.556));
#633=CARTESIAN_POINT('',(16.5,3.20775809561756,5.556));
#634=CARTESIAN_POINT('',(16.5,2.2,0.));
#635=CARTESIAN_POINT('',(16.5,0.,0.));
#636=CARTESIAN_POINT('',(16.5,0.,5.08209240990097));
#637=CARTESIAN_POINT('',(2.2,1.,3.9));
#638=CARTESIAN_POINT('',(2.2,-1.,3.9));
#639=CARTESIAN_POINT('',(0.0195673895922117,-1.,3.9));
#640=CARTESIAN_POINT('',(2.2,1.,3.9));
#641=CARTESIAN_POINT('',(0.0195673895922118,1.,3.9));
#642=CARTESIAN_POINT('',(-2.21400060828646E-20,0.344572678651869,3.9));
#643=CARTESIAN_POINT('',(0.00339039113856542,0.56304845243458,3.9));
#644=CARTESIAN_POINT('',(0.00999918286850562,0.78152422621729,3.9));
#645=CARTESIAN_POINT('',(0.0195673895921748,1.,3.9));
#646=CARTESIAN_POINT('',(0.,0.344572678651869,3.9));
#647=CARTESIAN_POINT('',(0.,1.,3.9));
#648=CARTESIAN_POINT('',(0.,-0.344572678651869,3.9));
#649=CARTESIAN_POINT('',(0.0195673895921748,-1.,3.9));
#650=CARTESIAN_POINT('',(0.00999918286850564,-0.78152422621729,3.9));
#651=CARTESIAN_POINT('',(0.00339039113856541,-0.563048452434579,3.9));
#652=CARTESIAN_POINT('',(0.,-0.344572678651869,3.9));
#653=CARTESIAN_POINT('',(2.2,1.,2.16840434497101E-16));
#654=CARTESIAN_POINT('',(2.2,1.,-3.9));
#655=CARTESIAN_POINT('',(0.0195673895922117,1.,-3.9));
#656=CARTESIAN_POINT('',(0.0195673895922119,1.,3.9));
#657=CARTESIAN_POINT('',(0.064673064333891,2.02992101610872,3.9));
#658=CARTESIAN_POINT('',(0.143837898429171,4.04960268042459,3.05602291242784));
#659=CARTESIAN_POINT('',(0.188520663031579,5.32433525783242,0.00369027393895581));
#660=CARTESIAN_POINT('',(0.143968316017527,4.05305074626913,-3.05467921155179));
#661=CARTESIAN_POINT('',(0.0646734006630797,2.02992869568566,-3.9));
#662=CARTESIAN_POINT('',(0.0195673895922118,1.,-3.9));
#663=CARTESIAN_POINT('',(2.2,-1.,-3.9));
#664=CARTESIAN_POINT('',(2.2,-1.,-3.9));
#665=CARTESIAN_POINT('',(0.0195673895922117,-1.,-3.9));
#666=CARTESIAN_POINT('',(1.53803895146579E-21,-0.344572678651869,-3.9));
#667=CARTESIAN_POINT('',(0.00339039113856542,-0.56304845243458,-3.9));
#668=CARTESIAN_POINT('',(0.00999918286850564,-0.78152422621729,-3.9));
#669=CARTESIAN_POINT('',(0.0195673895921748,-1.,-3.9));
#670=CARTESIAN_POINT('',(0.,-0.344572678651869,-3.9));
#671=CARTESIAN_POINT('',(0.,-1.,-3.9));
#672=CARTESIAN_POINT('',(0.,0.344572678651869,-3.9));
#673=CARTESIAN_POINT('',(0.0195673895921748,1.,-3.9));
#674=CARTESIAN_POINT('',(0.00999918286850565,0.78152422621729,-3.9));
#675=CARTESIAN_POINT('',(0.00339039113856541,0.563048452434579,-3.9));
#676=CARTESIAN_POINT('',(0.,0.344572678651869,-3.9));
#677=CARTESIAN_POINT('',(2.2,-1.,0.));
#678=CARTESIAN_POINT('',(0.0195673895922118,-1.,-3.9));
#679=CARTESIAN_POINT('',(0.064673064333891,-2.02992101610872,-3.9));
#680=CARTESIAN_POINT('',(0.143837898429171,-4.04960268042459,-3.05602291242784));
#681=CARTESIAN_POINT('',(0.188520663031579,-5.32433525783242,-0.00369027393895528));
#682=CARTESIAN_POINT('',(0.143968316017527,-4.05305074626913,3.05467921155179));
#683=CARTESIAN_POINT('',(0.0646734006630796,-2.02992869568566,3.9));
#684=CARTESIAN_POINT('',(0.0195673895922117,-0.999999999999999,3.9));
#685=CARTESIAN_POINT('',(8.166,0.,0.));
#686=CARTESIAN_POINT('',(8.166,0.,0.));
#687=CARTESIAN_POINT('',(8.166,0.,-1.5));
#688=CARTESIAN_POINT('',(8.166,0.,0.));
#689=CARTESIAN_POINT('',(8.166,0.,-1.981));
#690=CARTESIAN_POINT('',(16.5,0.,0.));
#691=CARTESIAN_POINT('',(0.,0.,0.));
#692=CARTESIAN_POINT('',(0.,0.,-1.981));
#693=CARTESIAN_POINT('',(0.,0.,0.));
#694=CARTESIAN_POINT('',(0.,0.,0.));
#695=CARTESIAN_POINT('',(0.,0.,0.));
#696=CARTESIAN_POINT('',(0.,0.,0.));
#697=CARTESIAN_POINT('',(0.,1.981,0.));
#698=CARTESIAN_POINT('',(16.5,0.,0.));
#699=CARTESIAN_POINT('',(24.1901967816384,0.,0.));
#700=CARTESIAN_POINT('',(24.1901967816384,0.,-4.84200798940042));
#701=CARTESIAN_POINT('',(24.1901967816384,0.,0.));
#702=CARTESIAN_POINT('',(24.5,0.,0.));
#703=CARTESIAN_POINT('',(24.5,0.,-4.30541307484979));
#704=CARTESIAN_POINT('',(24.5,4.30541307484979,0.));
#705=CARTESIAN_POINT('',(24.5,0.,0.));
#706=CARTESIAN_POINT('',(24.5,0.,-1.5));
#707=CARTESIAN_POINT('',(24.5,0.,0.));
#708=MECHANICAL_DESIGN_GEOMETRIC_PRESENTATION_REPRESENTATION('',(#407),
#709);
#709=(
GEOMETRIC_REPRESENTATION_CONTEXT(3)
GLOBAL_UNCERTAINTY_ASSIGNED_CONTEXT((#710))
GLOBAL_UNIT_ASSIGNED_CONTEXT((#713,#712,#711))
REPRESENTATION_CONTEXT('190858 HB-1/8-QSM-5/32-U',
'TOP_LEVEL_ASSEMBLY_PART')
);
#710=UNCERTAINTY_MEASURE_WITH_UNIT(LENGTH_MEASURE(0.005),#713,
'DISTANCE_ACCURACY_VALUE','Maximum Tolerance applied to model');
#711=(
NAMED_UNIT(*)
SI_UNIT($,.STERADIAN.)
SOLID_ANGLE_UNIT()
);
#712=(
NAMED_UNIT(*)
PLANE_ANGLE_UNIT()
SI_UNIT($,.RADIAN.)
);
#713=(
LENGTH_UNIT()
NAMED_UNIT(*)
SI_UNIT(.MILLI.,.METRE.)
);
#714=PRODUCT_DEFINITION_SHAPE('','',#715);
#715=PRODUCT_DEFINITION('','',#717,#716);
#716=PRODUCT_DEFINITION_CONTEXT('',#723,'design');
#717=PRODUCT_DEFINITION_FORMATION_WITH_SPECIFIED_SOURCE('','',#719,
 .NOT_KNOWN.);
#718=PRODUCT_RELATED_PRODUCT_CATEGORY('','',(#719));
#719=PRODUCT('190858 HB-1/8-QSM-5/32-U','190858 HB-1/8-QSM-5/32-U',
'190858 HB-1/8-QSM-5/32-U',(#721));
#720=PRODUCT_CATEGORY('','');
#721=PRODUCT_CONTEXT('',#723,'mechanical');
#722=APPLICATION_PROTOCOL_DEFINITION('international standard',
'automotive_design',2010,#723);
#723=APPLICATION_CONTEXT(
'core data for automotive mechanical design processes');
ENDSEC;
END-ISO-10303-21;
