ISO-10303-21;
HEADER;
/* Generated by software containing ST-Developer
 * from STEP Tools, Inc. (www.steptools.com) 
 */
/* OPTION: using custom renumber hook */

FILE_DESCRIPTION(
/* description */ ('STEP AP214'),
/* implementation_level */ '2;1');

FILE_NAME(
/* name */ '192732_MA-40-1-G1_8-MPA',
/* time_stamp */ '2024-09-05T03:16:53+02:00',
/* author */ ('License CC BY-ND 4.0'),
/* organization */ ('CADENAS'),
/* preprocessor_version */ 'ST-DEVELOPER v19.3',
/* originating_system */ 'PARTsolutions',
/* authorisation */ '  ');

FILE_SCHEMA (('AUTOMOTIVE_DESIGN {1 0 10303 214 3 1 1}'));
ENDSEC;

DATA;
#10=PROPERTY_DEFINITION_REPRESENTATION(#14,#12);
#11=PROPERTY_DEFINITION_REPRESENTATION(#15,#13);
#12=REPRESENTATION('',(#16),#661);
#13=REPRESENTATION('',(#17),#661);
#14=PROPERTY_DEFINITION('pmi validation property','',#666);
#15=PROPERTY_DEFINITION('pmi validation property','',#666);
#16=VALUE_REPRESENTATION_ITEM('number of annotations',COUNT_MEASURE(0.));
#17=VALUE_REPRESENTATION_ITEM('number of views',COUNT_MEASURE(0.));
#18=SHAPE_REPRESENTATION_RELATIONSHIP('','',#369,#19);
#19=ADVANCED_BREP_SHAPE_REPRESENTATION('',(#367),#661);
#20=LINE('',#644,#28);
#21=LINE('',#647,#29);
#22=LINE('',#649,#30);
#23=LINE('',#651,#31);
#24=LINE('',#653,#32);
#25=LINE('',#654,#33);
#26=LINE('',#656,#34);
#27=LINE('',#658,#35);
#28=VECTOR('',#515,1000.);
#29=VECTOR('',#516,1000.);
#30=VECTOR('',#517,1000.);
#31=VECTOR('',#518,1000.);
#32=VECTOR('',#521,1000.);
#33=VECTOR('',#522,1000.);
#34=VECTOR('',#525,1000.);
#35=VECTOR('',#528,1000.);
#36=B_SPLINE_CURVE_WITH_KNOTS('',3,(#584,#585,#586,#587,#588),
 .UNSPECIFIED.,.F.,.F.,(4,1,4),(0.0258683219269183,0.0294388248359268,0.0330093277449353),
 .UNSPECIFIED.);
#37=B_SPLINE_CURVE_WITH_KNOTS('',3,(#590,#591,#592,#593,#594),
 .UNSPECIFIED.,.F.,.F.,(4,1,4),(0.0187214792545698,0.022294900590744,0.0258683219269183),
 .UNSPECIFIED.);
#38=B_SPLINE_CURVE_WITH_KNOTS('',3,(#596,#597,#598,#599,#600),
 .UNSPECIFIED.,.F.,.F.,(4,1,4),(0.0187214792545698,0.0222949005907441,0.0258683219269183),
 .UNSPECIFIED.);
#39=B_SPLINE_CURVE_WITH_KNOTS('',3,(#602,#603,#604,#605,#606),
 .UNSPECIFIED.,.F.,.F.,(4,1,4),(0.0258683219269183,0.0294388248359267,0.0330093277449352),
 .UNSPECIFIED.);
#40=B_SPLINE_CURVE_WITH_KNOTS('',3,(#608,#609,#610,#611,#612),
 .UNSPECIFIED.,.F.,.F.,(4,1,4),(0.0187214792545698,0.022294900590744,0.0258683219269183),
 .UNSPECIFIED.);
#41=B_SPLINE_CURVE_WITH_KNOTS('',3,(#614,#615,#616,#617,#618),
 .UNSPECIFIED.,.F.,.F.,(4,1,4),(0.0258683219269183,0.0294388248359268,0.0330093277449352),
 .UNSPECIFIED.);
#42=B_SPLINE_CURVE_WITH_KNOTS('',3,(#620,#621,#622,#623,#624),
 .UNSPECIFIED.,.F.,.F.,(4,1,4),(0.0258683219269183,0.0294388248359268,0.0330093277449352),
 .UNSPECIFIED.);
#43=B_SPLINE_CURVE_WITH_KNOTS('',3,(#626,#627,#628,#629,#630),
 .UNSPECIFIED.,.F.,.F.,(4,1,4),(0.0187214792545698,0.022294900590744,0.0258683219269183),
 .UNSPECIFIED.);
#44=DEGENERATE_TOROIDAL_SURFACE('',#395,0.281782951709579,2.5,.T.);
#45=DEGENERATE_TOROIDAL_SURFACE('',#404,6.02008064647258,7.99999999999991,
 .T.);
#46=DEGENERATE_TOROIDAL_SURFACE('',#405,6.02008064647258,7.99999999999991,
 .T.);
#47=DEGENERATE_TOROIDAL_SURFACE('',#406,6.02008064647258,7.99999999999991,
 .T.);
#48=DEGENERATE_TOROIDAL_SURFACE('',#407,6.02008064647258,7.99999999999991,
 .T.);
#49=TOROIDAL_SURFACE('',#387,5.35677120947287,2.);
#50=TOROIDAL_SURFACE('',#391,5.37429671844887,2.);
#51=TOROIDAL_SURFACE('',#410,19.3,0.200000000000006);
#52=TOROIDAL_SURFACE('',#414,16.5,3.);
#53=CONICAL_SURFACE('',#379,4.864,0.785398163397448);
#54=CYLINDRICAL_SURFACE('',#377,4.864);
#55=CYLINDRICAL_SURFACE('',#383,4.);
#56=CYLINDRICAL_SURFACE('',#389,4.);
#57=CYLINDRICAL_SURFACE('',#397,2.);
#58=CYLINDRICAL_SURFACE('',#401,2.1);
#59=CYLINDRICAL_SURFACE('',#412,19.5);
#60=ORIENTED_EDGE('',*,*,#136,.F.);
#61=ORIENTED_EDGE('',*,*,#137,.T.);
#62=ORIENTED_EDGE('',*,*,#138,.T.);
#63=ORIENTED_EDGE('',*,*,#139,.T.);
#64=ORIENTED_EDGE('',*,*,#140,.T.);
#65=ORIENTED_EDGE('',*,*,#141,.F.);
#66=ORIENTED_EDGE('',*,*,#136,.T.);
#67=ORIENTED_EDGE('',*,*,#142,.F.);
#68=ORIENTED_EDGE('',*,*,#141,.T.);
#69=ORIENTED_EDGE('',*,*,#143,.F.);
#70=ORIENTED_EDGE('',*,*,#142,.T.);
#71=ORIENTED_EDGE('',*,*,#144,.F.);
#72=ORIENTED_EDGE('',*,*,#143,.T.);
#73=ORIENTED_EDGE('',*,*,#145,.F.);
#74=ORIENTED_EDGE('',*,*,#144,.T.);
#75=ORIENTED_EDGE('',*,*,#146,.F.);
#76=ORIENTED_EDGE('',*,*,#145,.T.);
#77=ORIENTED_EDGE('',*,*,#147,.F.);
#78=ORIENTED_EDGE('',*,*,#146,.T.);
#79=ORIENTED_EDGE('',*,*,#148,.F.);
#80=ORIENTED_EDGE('',*,*,#147,.T.);
#81=ORIENTED_EDGE('',*,*,#149,.F.);
#82=ORIENTED_EDGE('',*,*,#148,.T.);
#83=ORIENTED_EDGE('',*,*,#150,.F.);
#84=ORIENTED_EDGE('',*,*,#149,.T.);
#85=ORIENTED_EDGE('',*,*,#151,.F.);
#86=ORIENTED_EDGE('',*,*,#150,.T.);
#87=ORIENTED_EDGE('',*,*,#152,.F.);
#88=ORIENTED_EDGE('',*,*,#151,.T.);
#89=ORIENTED_EDGE('',*,*,#153,.F.);
#90=ORIENTED_EDGE('',*,*,#152,.T.);
#91=ORIENTED_EDGE('',*,*,#153,.T.);
#92=ORIENTED_EDGE('',*,*,#154,.F.);
#93=ORIENTED_EDGE('',*,*,#137,.F.);
#94=ORIENTED_EDGE('',*,*,#155,.F.);
#95=ORIENTED_EDGE('',*,*,#140,.F.);
#96=ORIENTED_EDGE('',*,*,#156,.F.);
#97=ORIENTED_EDGE('',*,*,#157,.F.);
#98=ORIENTED_EDGE('',*,*,#139,.F.);
#99=ORIENTED_EDGE('',*,*,#158,.F.);
#100=ORIENTED_EDGE('',*,*,#159,.F.);
#101=ORIENTED_EDGE('',*,*,#160,.F.);
#102=ORIENTED_EDGE('',*,*,#138,.F.);
#103=ORIENTED_EDGE('',*,*,#161,.F.);
#104=ORIENTED_EDGE('',*,*,#162,.F.);
#105=ORIENTED_EDGE('',*,*,#162,.T.);
#106=ORIENTED_EDGE('',*,*,#163,.F.);
#107=ORIENTED_EDGE('',*,*,#164,.F.);
#108=ORIENTED_EDGE('',*,*,#163,.T.);
#109=ORIENTED_EDGE('',*,*,#164,.T.);
#110=ORIENTED_EDGE('',*,*,#165,.F.);
#111=ORIENTED_EDGE('',*,*,#166,.T.);
#112=ORIENTED_EDGE('',*,*,#167,.F.);
#113=ORIENTED_EDGE('',*,*,#168,.F.);
#114=ORIENTED_EDGE('',*,*,#169,.F.);
#115=ORIENTED_EDGE('',*,*,#165,.T.);
#116=ORIENTED_EDGE('',*,*,#170,.T.);
#117=ORIENTED_EDGE('',*,*,#158,.T.);
#118=ORIENTED_EDGE('',*,*,#160,.T.);
#119=ORIENTED_EDGE('',*,*,#171,.F.);
#120=ORIENTED_EDGE('',*,*,#166,.F.);
#121=ORIENTED_EDGE('',*,*,#171,.T.);
#122=ORIENTED_EDGE('',*,*,#161,.T.);
#123=ORIENTED_EDGE('',*,*,#154,.T.);
#124=ORIENTED_EDGE('',*,*,#172,.F.);
#125=ORIENTED_EDGE('',*,*,#167,.T.);
#126=ORIENTED_EDGE('',*,*,#172,.T.);
#127=ORIENTED_EDGE('',*,*,#155,.T.);
#128=ORIENTED_EDGE('',*,*,#157,.T.);
#129=ORIENTED_EDGE('',*,*,#173,.F.);
#130=ORIENTED_EDGE('',*,*,#168,.T.);
#131=ORIENTED_EDGE('',*,*,#173,.T.);
#132=ORIENTED_EDGE('',*,*,#156,.T.);
#133=ORIENTED_EDGE('',*,*,#159,.T.);
#134=ORIENTED_EDGE('',*,*,#170,.F.);
#135=ORIENTED_EDGE('',*,*,#169,.T.);
#136=EDGE_CURVE('',#174,#174,#204,.T.);
#137=EDGE_CURVE('',#175,#176,#205,.T.);
#138=EDGE_CURVE('',#176,#177,#206,.T.);
#139=EDGE_CURVE('',#177,#178,#207,.T.);
#140=EDGE_CURVE('',#178,#175,#208,.T.);
#141=EDGE_CURVE('',#179,#179,#209,.T.);
#142=EDGE_CURVE('',#180,#180,#210,.T.);
#143=EDGE_CURVE('',#181,#181,#211,.T.);
#144=EDGE_CURVE('',#182,#182,#212,.T.);
#145=EDGE_CURVE('',#183,#183,#213,.T.);
#146=EDGE_CURVE('',#184,#184,#214,.T.);
#147=EDGE_CURVE('',#185,#185,#215,.T.);
#148=EDGE_CURVE('',#186,#186,#216,.T.);
#149=EDGE_CURVE('',#187,#187,#217,.T.);
#150=EDGE_CURVE('',#188,#188,#218,.T.);
#151=EDGE_CURVE('',#189,#189,#219,.T.);
#152=EDGE_CURVE('',#190,#190,#220,.T.);
#153=EDGE_CURVE('',#191,#191,#221,.T.);
#154=EDGE_CURVE('',#176,#192,#36,.T.);
#155=EDGE_CURVE('',#192,#175,#37,.T.);
#156=EDGE_CURVE('',#193,#178,#38,.T.);
#157=EDGE_CURVE('',#175,#193,#39,.T.);
#158=EDGE_CURVE('',#194,#177,#40,.T.);
#159=EDGE_CURVE('',#178,#194,#41,.T.);
#160=EDGE_CURVE('',#177,#195,#42,.T.);
#161=EDGE_CURVE('',#195,#176,#43,.T.);
#162=EDGE_CURVE('',#196,#196,#222,.T.);
#163=EDGE_CURVE('',#197,#197,#223,.T.);
#164=EDGE_CURVE('',#198,#198,#224,.T.);
#165=EDGE_CURVE('',#199,#199,#225,.T.);
#166=EDGE_CURVE('',#200,#201,#20,.T.);
#167=EDGE_CURVE('',#202,#201,#21,.T.);
#168=EDGE_CURVE('',#203,#202,#22,.T.);
#169=EDGE_CURVE('',#200,#203,#23,.T.);
#170=EDGE_CURVE('',#200,#194,#24,.T.);
#171=EDGE_CURVE('',#201,#195,#25,.T.);
#172=EDGE_CURVE('',#202,#192,#26,.T.);
#173=EDGE_CURVE('',#203,#193,#27,.T.);
#174=VERTEX_POINT('',#534);
#175=VERTEX_POINT('',#536);
#176=VERTEX_POINT('',#537);
#177=VERTEX_POINT('',#539);
#178=VERTEX_POINT('',#541);
#179=VERTEX_POINT('',#545);
#180=VERTEX_POINT('',#548);
#181=VERTEX_POINT('',#551);
#182=VERTEX_POINT('',#554);
#183=VERTEX_POINT('',#557);
#184=VERTEX_POINT('',#560);
#185=VERTEX_POINT('',#563);
#186=VERTEX_POINT('',#566);
#187=VERTEX_POINT('',#569);
#188=VERTEX_POINT('',#572);
#189=VERTEX_POINT('',#575);
#190=VERTEX_POINT('',#578);
#191=VERTEX_POINT('',#581);
#192=VERTEX_POINT('',#589);
#193=VERTEX_POINT('',#601);
#194=VERTEX_POINT('',#613);
#195=VERTEX_POINT('',#625);
#196=VERTEX_POINT('',#633);
#197=VERTEX_POINT('',#636);
#198=VERTEX_POINT('',#639);
#199=VERTEX_POINT('',#642);
#200=VERTEX_POINT('',#645);
#201=VERTEX_POINT('',#646);
#202=VERTEX_POINT('',#648);
#203=VERTEX_POINT('',#650);
#204=CIRCLE('',#372,4.864);
#205=CIRCLE('',#373,7.00000000000002);
#206=CIRCLE('',#374,7.00000000000002);
#207=CIRCLE('',#375,7.00000000000001);
#208=CIRCLE('',#376,7.00000000000002);
#209=CIRCLE('',#378,4.864);
#210=CIRCLE('',#380,4.283);
#211=CIRCLE('',#382,4.);
#212=CIRCLE('',#384,4.);
#213=CIRCLE('',#386,3.375);
#214=CIRCLE('',#388,4.);
#215=CIRCLE('',#390,4.);
#216=CIRCLE('',#392,3.375);
#217=CIRCLE('',#394,2.775);
#218=CIRCLE('',#396,2.);
#219=CIRCLE('',#398,2.);
#220=CIRCLE('',#400,2.1);
#221=CIRCLE('',#402,2.1);
#222=CIRCLE('',#409,19.3);
#223=CIRCLE('',#411,19.5);
#224=CIRCLE('',#413,19.5);
#225=CIRCLE('',#415,16.5);
#226=EDGE_LOOP('',(#60));
#227=EDGE_LOOP('',(#61,#62,#63,#64));
#228=EDGE_LOOP('',(#65));
#229=EDGE_LOOP('',(#66));
#230=EDGE_LOOP('',(#67));
#231=EDGE_LOOP('',(#68));
#232=EDGE_LOOP('',(#69));
#233=EDGE_LOOP('',(#70));
#234=EDGE_LOOP('',(#71));
#235=EDGE_LOOP('',(#72));
#236=EDGE_LOOP('',(#73));
#237=EDGE_LOOP('',(#74));
#238=EDGE_LOOP('',(#75));
#239=EDGE_LOOP('',(#76));
#240=EDGE_LOOP('',(#77));
#241=EDGE_LOOP('',(#78));
#242=EDGE_LOOP('',(#79));
#243=EDGE_LOOP('',(#80));
#244=EDGE_LOOP('',(#81));
#245=EDGE_LOOP('',(#82));
#246=EDGE_LOOP('',(#83));
#247=EDGE_LOOP('',(#84));
#248=EDGE_LOOP('',(#85));
#249=EDGE_LOOP('',(#86));
#250=EDGE_LOOP('',(#87));
#251=EDGE_LOOP('',(#88));
#252=EDGE_LOOP('',(#89));
#253=EDGE_LOOP('',(#90));
#254=EDGE_LOOP('',(#91));
#255=EDGE_LOOP('',(#92,#93,#94));
#256=EDGE_LOOP('',(#95,#96,#97));
#257=EDGE_LOOP('',(#98,#99,#100));
#258=EDGE_LOOP('',(#101,#102,#103));
#259=EDGE_LOOP('',(#104));
#260=EDGE_LOOP('',(#105));
#261=EDGE_LOOP('',(#106));
#262=EDGE_LOOP('',(#107));
#263=EDGE_LOOP('',(#108));
#264=EDGE_LOOP('',(#109));
#265=EDGE_LOOP('',(#110));
#266=EDGE_LOOP('',(#111,#112,#113,#114));
#267=EDGE_LOOP('',(#115));
#268=EDGE_LOOP('',(#116,#117,#118,#119,#120));
#269=EDGE_LOOP('',(#121,#122,#123,#124,#125));
#270=EDGE_LOOP('',(#126,#127,#128,#129,#130));
#271=EDGE_LOOP('',(#131,#132,#133,#134,#135));
#272=FACE_BOUND('',#226,.T.);
#273=FACE_BOUND('',#227,.T.);
#274=FACE_BOUND('',#228,.T.);
#275=FACE_BOUND('',#229,.T.);
#276=FACE_BOUND('',#230,.T.);
#277=FACE_BOUND('',#231,.T.);
#278=FACE_BOUND('',#232,.T.);
#279=FACE_BOUND('',#233,.T.);
#280=FACE_BOUND('',#234,.T.);
#281=FACE_BOUND('',#235,.T.);
#282=FACE_BOUND('',#236,.T.);
#283=FACE_BOUND('',#237,.T.);
#284=FACE_BOUND('',#238,.T.);
#285=FACE_BOUND('',#239,.T.);
#286=FACE_BOUND('',#240,.T.);
#287=FACE_BOUND('',#241,.T.);
#288=FACE_BOUND('',#242,.T.);
#289=FACE_BOUND('',#243,.T.);
#290=FACE_BOUND('',#244,.T.);
#291=FACE_BOUND('',#245,.T.);
#292=FACE_BOUND('',#246,.T.);
#293=FACE_BOUND('',#247,.T.);
#294=FACE_BOUND('',#248,.T.);
#295=FACE_BOUND('',#249,.T.);
#296=FACE_BOUND('',#250,.T.);
#297=FACE_BOUND('',#251,.T.);
#298=FACE_BOUND('',#252,.T.);
#299=FACE_BOUND('',#253,.T.);
#300=FACE_BOUND('',#254,.T.);
#301=FACE_BOUND('',#255,.T.);
#302=FACE_BOUND('',#256,.T.);
#303=FACE_BOUND('',#257,.T.);
#304=FACE_BOUND('',#258,.T.);
#305=FACE_BOUND('',#259,.T.);
#306=FACE_BOUND('',#260,.T.);
#307=FACE_BOUND('',#261,.T.);
#308=FACE_BOUND('',#262,.T.);
#309=FACE_BOUND('',#263,.T.);
#310=FACE_BOUND('',#264,.T.);
#311=FACE_BOUND('',#265,.T.);
#312=FACE_BOUND('',#266,.T.);
#313=FACE_BOUND('',#267,.T.);
#314=FACE_BOUND('',#268,.T.);
#315=FACE_BOUND('',#269,.T.);
#316=FACE_BOUND('',#270,.T.);
#317=FACE_BOUND('',#271,.T.);
#318=PLANE('',#371);
#319=PLANE('',#381);
#320=PLANE('',#385);
#321=PLANE('',#393);
#322=PLANE('',#399);
#323=PLANE('',#403);
#324=PLANE('',#408);
#325=PLANE('',#416);
#326=PLANE('',#417);
#327=PLANE('',#418);
#328=PLANE('',#419);
#329=PLANE('',#420);
#330=ADVANCED_FACE('',(#272,#273),#318,.T.);
#331=ADVANCED_FACE('',(#274,#275),#54,.T.);
#332=ADVANCED_FACE('',(#276,#277),#53,.T.);
#333=ADVANCED_FACE('',(#278,#279),#319,.F.);
#334=ADVANCED_FACE('',(#280,#281),#55,.T.);
#335=ADVANCED_FACE('',(#282,#283),#320,.F.);
#336=ADVANCED_FACE('',(#284,#285),#49,.F.);
#337=ADVANCED_FACE('',(#286,#287),#56,.T.);
#338=ADVANCED_FACE('',(#288,#289),#50,.F.);
#339=ADVANCED_FACE('',(#290,#291),#321,.F.);
#340=ADVANCED_FACE('',(#292,#293),#44,.F.);
#341=ADVANCED_FACE('',(#294,#295),#57,.T.);
#342=ADVANCED_FACE('',(#296,#297),#322,.F.);
#343=ADVANCED_FACE('',(#298,#299),#58,.T.);
#344=ADVANCED_FACE('',(#300),#323,.F.);
#345=ADVANCED_FACE('',(#301),#45,.T.);
#346=ADVANCED_FACE('',(#302),#46,.T.);
#347=ADVANCED_FACE('',(#303),#47,.T.);
#348=ADVANCED_FACE('',(#304),#48,.T.);
#349=ADVANCED_FACE('',(#305),#324,.F.);
#350=ADVANCED_FACE('',(#306,#307),#51,.T.);
#351=ADVANCED_FACE('',(#308,#309),#59,.T.);
#352=ADVANCED_FACE('',(#310,#311),#52,.T.);
#353=ADVANCED_FACE('',(#312,#313),#325,.F.);
#354=ADVANCED_FACE('',(#314),#326,.T.);
#355=ADVANCED_FACE('',(#315),#327,.T.);
#356=ADVANCED_FACE('',(#316),#328,.T.);
#357=ADVANCED_FACE('',(#317),#329,.T.);
#358=CLOSED_SHELL('',(#330,#331,#332,#333,#334,#335,#336,#337,#338,#339,
#340,#341,#342,#343,#344,#345,#346,#347,#348,#349,#350,#351,#352,#353,#354,
#355,#356,#357));
#359=STYLED_ITEM('',(#360),#367);
#360=PRESENTATION_STYLE_ASSIGNMENT((#361));
#361=SURFACE_STYLE_USAGE(.BOTH.,#362);
#362=SURFACE_SIDE_STYLE('',(#363));
#363=SURFACE_STYLE_FILL_AREA(#364);
#364=FILL_AREA_STYLE('',(#365));
#365=FILL_AREA_STYLE_COLOUR('',#366);
#366=COLOUR_RGB('',0.689999997615814,0.689999997615814,0.689999997615814);
#367=MANIFOLD_SOLID_BREP('192732 MA-40-1-G1/8-MPA',#358);
#368=SHAPE_DEFINITION_REPRESENTATION(#666,#369);
#369=SHAPE_REPRESENTATION('192732 MA-40-1-G1/8-MPA',(#370),#661);
#370=AXIS2_PLACEMENT_3D('',#531,#421,#422);
#371=AXIS2_PLACEMENT_3D('',#532,#423,#424);
#372=AXIS2_PLACEMENT_3D('',#533,#425,#426);
#373=AXIS2_PLACEMENT_3D('',#535,#427,#428);
#374=AXIS2_PLACEMENT_3D('',#538,#429,#430);
#375=AXIS2_PLACEMENT_3D('',#540,#431,#432);
#376=AXIS2_PLACEMENT_3D('',#542,#433,#434);
#377=AXIS2_PLACEMENT_3D('',#543,#435,#436);
#378=AXIS2_PLACEMENT_3D('',#544,#437,#438);
#379=AXIS2_PLACEMENT_3D('',#546,#439,#440);
#380=AXIS2_PLACEMENT_3D('',#547,#441,#442);
#381=AXIS2_PLACEMENT_3D('',#549,#443,#444);
#382=AXIS2_PLACEMENT_3D('',#550,#445,#446);
#383=AXIS2_PLACEMENT_3D('',#552,#447,#448);
#384=AXIS2_PLACEMENT_3D('',#553,#449,#450);
#385=AXIS2_PLACEMENT_3D('',#555,#451,#452);
#386=AXIS2_PLACEMENT_3D('',#556,#453,#454);
#387=AXIS2_PLACEMENT_3D('',#558,#455,#456);
#388=AXIS2_PLACEMENT_3D('',#559,#457,#458);
#389=AXIS2_PLACEMENT_3D('',#561,#459,#460);
#390=AXIS2_PLACEMENT_3D('',#562,#461,#462);
#391=AXIS2_PLACEMENT_3D('',#564,#463,#464);
#392=AXIS2_PLACEMENT_3D('',#565,#465,#466);
#393=AXIS2_PLACEMENT_3D('',#567,#467,#468);
#394=AXIS2_PLACEMENT_3D('',#568,#469,#470);
#395=AXIS2_PLACEMENT_3D('',#570,#471,#472);
#396=AXIS2_PLACEMENT_3D('',#571,#473,#474);
#397=AXIS2_PLACEMENT_3D('',#573,#475,#476);
#398=AXIS2_PLACEMENT_3D('',#574,#477,#478);
#399=AXIS2_PLACEMENT_3D('',#576,#479,#480);
#400=AXIS2_PLACEMENT_3D('',#577,#481,#482);
#401=AXIS2_PLACEMENT_3D('',#579,#483,#484);
#402=AXIS2_PLACEMENT_3D('',#580,#485,#486);
#403=AXIS2_PLACEMENT_3D('',#582,#487,#488);
#404=AXIS2_PLACEMENT_3D('',#583,#489,#490);
#405=AXIS2_PLACEMENT_3D('',#595,#491,#492);
#406=AXIS2_PLACEMENT_3D('',#607,#493,#494);
#407=AXIS2_PLACEMENT_3D('',#619,#495,#496);
#408=AXIS2_PLACEMENT_3D('',#631,#497,#498);
#409=AXIS2_PLACEMENT_3D('',#632,#499,#500);
#410=AXIS2_PLACEMENT_3D('',#634,#501,#502);
#411=AXIS2_PLACEMENT_3D('',#635,#503,#504);
#412=AXIS2_PLACEMENT_3D('',#637,#505,#506);
#413=AXIS2_PLACEMENT_3D('',#638,#507,#508);
#414=AXIS2_PLACEMENT_3D('',#640,#509,#510);
#415=AXIS2_PLACEMENT_3D('',#641,#511,#512);
#416=AXIS2_PLACEMENT_3D('',#643,#513,#514);
#417=AXIS2_PLACEMENT_3D('',#652,#519,#520);
#418=AXIS2_PLACEMENT_3D('',#655,#523,#524);
#419=AXIS2_PLACEMENT_3D('',#657,#526,#527);
#420=AXIS2_PLACEMENT_3D('',#659,#529,#530);
#421=DIRECTION('',(0.,0.,1.));
#422=DIRECTION('',(1.,0.,0.));
#423=DIRECTION('',(1.,0.,0.));
#424=DIRECTION('',(0.,0.,-1.));
#425=DIRECTION('',(1.,0.,0.));
#426=DIRECTION('',(0.,0.,-1.));
#427=DIRECTION('',(1.,0.,0.));
#428=DIRECTION('',(0.,0.,-1.));
#429=DIRECTION('',(1.,0.,0.));
#430=DIRECTION('',(0.,0.,-1.));
#431=DIRECTION('',(1.,0.,0.));
#432=DIRECTION('',(0.,0.,-1.));
#433=DIRECTION('',(1.,0.,0.));
#434=DIRECTION('',(0.,0.,-1.));
#435=DIRECTION('',(1.,0.,0.));
#436=DIRECTION('',(0.,0.,-1.));
#437=DIRECTION('',(1.,0.,0.));
#438=DIRECTION('',(0.,0.,-1.));
#439=DIRECTION('',(-1.,0.,0.));
#440=DIRECTION('',(0.,0.,1.));
#441=DIRECTION('',(1.,0.,0.));
#442=DIRECTION('',(0.,0.,-1.));
#443=DIRECTION('',(-1.,0.,0.));
#444=DIRECTION('',(0.,0.,1.));
#445=DIRECTION('',(1.,0.,0.));
#446=DIRECTION('',(0.,0.,-1.));
#447=DIRECTION('',(1.,0.,0.));
#448=DIRECTION('',(0.,0.,-1.));
#449=DIRECTION('',(1.,0.,0.));
#450=DIRECTION('',(0.,0.,-1.));
#451=DIRECTION('',(-1.,0.,0.));
#452=DIRECTION('',(0.,0.,1.));
#453=DIRECTION('',(1.,0.,0.));
#454=DIRECTION('',(0.,0.,-1.));
#455=DIRECTION('',(1.,0.,0.));
#456=DIRECTION('',(0.,0.,-1.));
#457=DIRECTION('',(1.,0.,0.));
#458=DIRECTION('',(0.,0.,-1.));
#459=DIRECTION('',(1.,0.,0.));
#460=DIRECTION('',(0.,0.,-1.));
#461=DIRECTION('',(1.,0.,0.));
#462=DIRECTION('',(0.,0.,-1.));
#463=DIRECTION('',(1.,0.,0.));
#464=DIRECTION('',(0.,0.,-1.));
#465=DIRECTION('',(1.,0.,0.));
#466=DIRECTION('',(0.,0.,-1.));
#467=DIRECTION('',(-1.,0.,0.));
#468=DIRECTION('',(0.,0.,1.));
#469=DIRECTION('',(1.,0.,0.));
#470=DIRECTION('',(0.,0.,-1.));
#471=DIRECTION('',(1.,0.,0.));
#472=DIRECTION('',(0.,0.,-1.));
#473=DIRECTION('',(1.,0.,0.));
#474=DIRECTION('',(0.,0.,-1.));
#475=DIRECTION('',(1.,0.,0.));
#476=DIRECTION('',(0.,0.,-1.));
#477=DIRECTION('',(1.,0.,0.));
#478=DIRECTION('',(0.,0.,-1.));
#479=DIRECTION('',(1.,0.,0.));
#480=DIRECTION('',(0.,0.,-1.));
#481=DIRECTION('',(1.,0.,0.));
#482=DIRECTION('',(0.,0.,-1.));
#483=DIRECTION('',(1.,0.,0.));
#484=DIRECTION('',(0.,0.,-1.));
#485=DIRECTION('',(1.,0.,0.));
#486=DIRECTION('',(0.,0.,-1.));
#487=DIRECTION('',(-1.,0.,0.));
#488=DIRECTION('',(0.,0.,1.));
#489=DIRECTION('',(1.,0.,0.));
#490=DIRECTION('',(0.,0.,-1.));
#491=DIRECTION('',(1.,0.,0.));
#492=DIRECTION('',(0.,0.,-1.));
#493=DIRECTION('',(1.,0.,0.));
#494=DIRECTION('',(0.,0.,-1.));
#495=DIRECTION('',(1.,0.,0.));
#496=DIRECTION('',(0.,0.,-1.));
#497=DIRECTION('',(1.,0.,0.));
#498=DIRECTION('',(0.,0.,-1.));
#499=DIRECTION('',(1.,0.,0.));
#500=DIRECTION('',(0.,0.,-1.));
#501=DIRECTION('',(1.,0.,0.));
#502=DIRECTION('',(0.,0.,-1.));
#503=DIRECTION('',(1.,0.,0.));
#504=DIRECTION('',(0.,0.,-1.));
#505=DIRECTION('',(1.,0.,0.));
#506=DIRECTION('',(0.,0.,-1.));
#507=DIRECTION('',(1.,0.,0.));
#508=DIRECTION('',(0.,0.,-1.));
#509=DIRECTION('',(1.,0.,0.));
#510=DIRECTION('',(0.,0.,-1.));
#511=DIRECTION('',(1.,0.,0.));
#512=DIRECTION('',(0.,0.,-1.));
#513=DIRECTION('',(-1.,0.,0.));
#514=DIRECTION('',(0.,0.,1.));
#515=DIRECTION('',(0.,0.,-1.));
#516=DIRECTION('',(0.,1.,0.));
#517=DIRECTION('',(0.,0.,-1.));
#518=DIRECTION('',(0.,-1.,0.));
#519=DIRECTION('',(0.,1.,0.));
#520=DIRECTION('',(0.,0.,1.));
#521=DIRECTION('',(1.,0.,0.));
#522=DIRECTION('',(1.,0.,0.));
#523=DIRECTION('',(0.,0.,-1.));
#524=DIRECTION('',(-1.,0.,0.));
#525=DIRECTION('',(1.,0.,0.));
#526=DIRECTION('',(0.,-1.,0.));
#527=DIRECTION('',(0.,0.,-1.));
#528=DIRECTION('',(1.,0.,0.));
#529=DIRECTION('',(0.,0.,1.));
#530=DIRECTION('',(1.,0.,0.));
#531=CARTESIAN_POINT('',(0.,0.,0.));
#532=CARTESIAN_POINT('',(0.,0.,0.));
#533=CARTESIAN_POINT('',(0.,0.,0.));
#534=CARTESIAN_POINT('',(0.,0.,-4.864));
#535=CARTESIAN_POINT('',(0.,0.,0.));
#536=CARTESIAN_POINT('',(1.73472347597681E-15,-7.00000000000001,0.));
#537=CARTESIAN_POINT('',(1.73472347597681E-15,0.,-7.00000000000001));
#538=CARTESIAN_POINT('',(0.,0.,0.));
#539=CARTESIAN_POINT('',(1.73472347597681E-15,7.00000000000001,0.));
#540=CARTESIAN_POINT('',(1.73472347597681E-15,0.,0.));
#541=CARTESIAN_POINT('',(1.73472347597681E-15,0.,7.00000000000001));
#542=CARTESIAN_POINT('',(0.,0.,0.));
#543=CARTESIAN_POINT('',(13.2,0.,0.));
#544=CARTESIAN_POINT('',(7.419,0.,0.));
#545=CARTESIAN_POINT('',(7.419,0.,-4.864));
#546=CARTESIAN_POINT('',(7.419,0.,0.));
#547=CARTESIAN_POINT('',(8.,0.,0.));
#548=CARTESIAN_POINT('',(8.,0.,-4.283));
#549=CARTESIAN_POINT('',(8.,4.283,0.));
#550=CARTESIAN_POINT('',(8.,0.,0.));
#551=CARTESIAN_POINT('',(8.,0.,-4.));
#552=CARTESIAN_POINT('',(13.2,0.,0.));
#553=CARTESIAN_POINT('',(10.,0.,0.));
#554=CARTESIAN_POINT('',(10.,0.,-4.));
#555=CARTESIAN_POINT('',(10.,4.,0.));
#556=CARTESIAN_POINT('',(10.,0.,0.));
#557=CARTESIAN_POINT('',(10.,0.,-3.375));
#558=CARTESIAN_POINT('',(9.73058791173288,0.,0.));
#559=CARTESIAN_POINT('',(11.2,0.,0.));
#560=CARTESIAN_POINT('',(11.2,0.,-4.));
#561=CARTESIAN_POINT('',(13.2,0.,0.));
#562=CARTESIAN_POINT('',(11.8,0.,0.));
#563=CARTESIAN_POINT('',(11.8,0.,-4.));
#564=CARTESIAN_POINT('',(13.2530342493075,0.,0.));
#565=CARTESIAN_POINT('',(13.2,0.,0.));
#566=CARTESIAN_POINT('',(13.2,0.,-3.375));
#567=CARTESIAN_POINT('',(13.2,3.375,0.));
#568=CARTESIAN_POINT('',(13.2,0.,0.));
#569=CARTESIAN_POINT('',(13.2,0.,-2.775));
#570=CARTESIAN_POINT('',(13.0159653562125,0.,0.));
#571=CARTESIAN_POINT('',(11.2,0.,0.));
#572=CARTESIAN_POINT('',(11.2,0.,-2.));
#573=CARTESIAN_POINT('',(13.2,0.,0.));
#574=CARTESIAN_POINT('',(11.5,0.,0.));
#575=CARTESIAN_POINT('',(11.5,0.,-2.));
#576=CARTESIAN_POINT('',(11.5,2.,0.));
#577=CARTESIAN_POINT('',(11.5,0.,0.));
#578=CARTESIAN_POINT('',(11.5,0.,-2.1));
#579=CARTESIAN_POINT('',(13.2,0.,0.));
#580=CARTESIAN_POINT('',(12.,0.,0.));
#581=CARTESIAN_POINT('',(12.,0.,-2.1));
#582=CARTESIAN_POINT('',(12.,2.1,0.));
#583=CARTESIAN_POINT('',(-7.93975806058226,0.,0.));
#584=CARTESIAN_POINT('',(9.76478659820884E-16,-1.85070501780153E-15,-7.));
#585=CARTESIAN_POINT('',(9.38111670376018E-16,-1.17580551775736,-7.));
#586=CARTESIAN_POINT('',(-0.044108713760229,-3.5207535297835,-7.));
#587=CARTESIAN_POINT('',(-0.508269782582149,-5.89040300517981,-7.));
#588=CARTESIAN_POINT('',(-0.943320055035256,-7.00000000000013,-7.));
#589=CARTESIAN_POINT('',(-0.943320055035256,-7.00000000000013,-7.));
#590=CARTESIAN_POINT('',(-0.943320055035211,-7.,-7.00000000000001));
#591=CARTESIAN_POINT('',(-0.510229540196243,-7.,-5.89540137271764));
#592=CARTESIAN_POINT('',(-0.0439402821864337,-7.,-3.5254935144729));
#593=CARTESIAN_POINT('',(9.52873186540182E-16,-7.,-1.17676658762682));
#594=CARTESIAN_POINT('',(1.16722031935741E-15,-7.,-1.03309990961438E-14));
#595=CARTESIAN_POINT('',(-7.93975806058226,0.,0.));
#596=CARTESIAN_POINT('',(-0.943320055035203,-7.,7.));
#597=CARTESIAN_POINT('',(-0.510229540196238,-5.89540137271763,7.));
#598=CARTESIAN_POINT('',(-0.0439402821864351,-3.52549351447288,7.));
#599=CARTESIAN_POINT('',(1.17513590642906E-15,-1.17676658762681,7.));
#600=CARTESIAN_POINT('',(1.13672713325625E-15,1.85120741162707E-15,7.));
#601=CARTESIAN_POINT('',(-0.943320055035205,-7.,7.));
#602=CARTESIAN_POINT('',(1.30173931156653E-15,-7.,7.79171716019122E-17));
#603=CARTESIAN_POINT('',(1.30012400968338E-15,-7.,1.17580551775734));
#604=CARTESIAN_POINT('',(-0.0441087137602318,-7.,3.52075352978346));
#605=CARTESIAN_POINT('',(-0.508269782582123,-7.,5.8904030051797));
#606=CARTESIAN_POINT('',(-0.943320055035205,-7.,7.));
#607=CARTESIAN_POINT('',(-7.93975806058226,0.,0.));
#608=CARTESIAN_POINT('',(-0.943320055035204,7.,7.));
#609=CARTESIAN_POINT('',(-0.510229540196239,7.,5.89540137271763));
#610=CARTESIAN_POINT('',(-0.0439402821864327,7.,3.52549351447288));
#611=CARTESIAN_POINT('',(9.00696452073814E-16,7.,1.17676658762681));
#612=CARTESIAN_POINT('',(7.91137690776496E-16,7.,-5.28046001390828E-15));
#613=CARTESIAN_POINT('',(-0.943320055035204,7.,7.));
#614=CARTESIAN_POINT('',(9.76478659820883E-16,1.85070501780153E-15,7.));
#615=CARTESIAN_POINT('',(9.38111670376018E-16,1.17580551775734,7.));
#616=CARTESIAN_POINT('',(-0.0441087137602304,3.52075352978345,7.));
#617=CARTESIAN_POINT('',(-0.508269782582124,5.8904030051797,7.));
#618=CARTESIAN_POINT('',(-0.943320055035207,7.00000000000001,7.));
#619=CARTESIAN_POINT('',(-7.93975806058226,0.,0.));
#620=CARTESIAN_POINT('',(1.19331909431798E-15,7.,1.65701785468424E-15));
#621=CARTESIAN_POINT('',(1.22767075270174E-15,7.,-1.17580551775734));
#622=CARTESIAN_POINT('',(-0.0441087137602306,7.,-3.52075352978345));
#623=CARTESIAN_POINT('',(-0.508269782582122,7.,-5.89040300517969));
#624=CARTESIAN_POINT('',(-0.943320055035205,7.,-7.));
#625=CARTESIAN_POINT('',(-0.943320055035255,7.,-7.));
#626=CARTESIAN_POINT('',(-0.943320055035211,7.00000000000002,-7.));
#627=CARTESIAN_POINT('',(-0.510229540196243,5.89540137271765,-7.));
#628=CARTESIAN_POINT('',(-0.0439402821864346,3.52549351447289,-7.));
#629=CARTESIAN_POINT('',(2.21669352239719E-16,1.17676658762681,-7.));
#630=CARTESIAN_POINT('',(3.93629662613785E-17,-8.78671472769122E-15,-7.));
#631=CARTESIAN_POINT('',(-34.,0.,0.));
#632=CARTESIAN_POINT('',(-34.,0.,0.));
#633=CARTESIAN_POINT('',(-34.,0.,-19.3));
#634=CARTESIAN_POINT('',(-33.8,0.,0.));
#635=CARTESIAN_POINT('',(-33.8,0.,0.));
#636=CARTESIAN_POINT('',(-33.8,0.,-19.5));
#637=CARTESIAN_POINT('',(-8.,0.,0.));
#638=CARTESIAN_POINT('',(-11.,0.,0.));
#639=CARTESIAN_POINT('',(-11.,0.,-19.5));
#640=CARTESIAN_POINT('',(-11.,0.,0.));
#641=CARTESIAN_POINT('',(-8.,0.,0.));
#642=CARTESIAN_POINT('',(-8.,0.,-16.5));
#643=CARTESIAN_POINT('',(-8.,16.5,0.));
#644=CARTESIAN_POINT('',(-8.,7.,0.));
#645=CARTESIAN_POINT('',(-8.,7.,7.));
#646=CARTESIAN_POINT('',(-8.,7.,-7.));
#647=CARTESIAN_POINT('',(-8.,-7.,-7.));
#648=CARTESIAN_POINT('',(-8.,-7.,-7.));
#649=CARTESIAN_POINT('',(-8.,-7.,7.));
#650=CARTESIAN_POINT('',(-8.,-7.,7.));
#651=CARTESIAN_POINT('',(-8.,7.,7.));
#652=CARTESIAN_POINT('',(-8.,7.,-7.));
#653=CARTESIAN_POINT('',(-8.,7.,7.));
#654=CARTESIAN_POINT('',(-8.,7.,-7.));
#655=CARTESIAN_POINT('',(-8.,-7.,-7.));
#656=CARTESIAN_POINT('',(-8.,-7.,-7.));
#657=CARTESIAN_POINT('',(-8.,-7.,7.));
#658=CARTESIAN_POINT('',(-8.,-7.,7.));
#659=CARTESIAN_POINT('',(-8.,7.,7.));
#660=MECHANICAL_DESIGN_GEOMETRIC_PRESENTATION_REPRESENTATION('',(#359),
#661);
#661=(
GEOMETRIC_REPRESENTATION_CONTEXT(3)
GLOBAL_UNCERTAINTY_ASSIGNED_CONTEXT((#662))
GLOBAL_UNIT_ASSIGNED_CONTEXT((#665,#664,#663))
REPRESENTATION_CONTEXT('192732 MA-40-1-G1/8-MPA',
'TOP_LEVEL_ASSEMBLY_PART')
);
#662=UNCERTAINTY_MEASURE_WITH_UNIT(LENGTH_MEASURE(0.005),#665,
'DISTANCE_ACCURACY_VALUE','Maximum Tolerance applied to model');
#663=(
NAMED_UNIT(*)
SI_UNIT($,.STERADIAN.)
SOLID_ANGLE_UNIT()
);
#664=(
NAMED_UNIT(*)
PLANE_ANGLE_UNIT()
SI_UNIT($,.RADIAN.)
);
#665=(
LENGTH_UNIT()
NAMED_UNIT(*)
SI_UNIT(.MILLI.,.METRE.)
);
#666=PRODUCT_DEFINITION_SHAPE('','',#667);
#667=PRODUCT_DEFINITION('','',#669,#668);
#668=PRODUCT_DEFINITION_CONTEXT('',#675,'design');
#669=PRODUCT_DEFINITION_FORMATION_WITH_SPECIFIED_SOURCE('','',#671,
 .NOT_KNOWN.);
#670=PRODUCT_RELATED_PRODUCT_CATEGORY('','',(#671));
#671=PRODUCT('192732 MA-40-1-G1/8-MPA','192732 MA-40-1-G1/8-MPA',
'192732 MA-40-1-G1/8-MPA',(#673));
#672=PRODUCT_CATEGORY('','');
#673=PRODUCT_CONTEXT('',#675,'mechanical');
#674=APPLICATION_PROTOCOL_DEFINITION('international standard',
'automotive_design',2010,#675);
#675=APPLICATION_CONTEXT(
'core data for automotive mechanical design processes');
ENDSEC;
END-ISO-10303-21;
