ISO-10303-21;
HEADER;
/* Generated by software containing ST-Developer
 * from STEP Tools, Inc. (www.steptools.com) 
 */
/* OPTION: using custom renumber hook */

FILE_DESCRIPTION(
/* description */ ('STEP AP214'),
/* implementation_level */ '2;1');

FILE_NAME(
/* name */ '193786_LRVS-D',
/* time_stamp */ '2024-09-05T01:19:46+02:00',
/* author */ ('License CC BY-ND 4.0'),
/* organization */ ('CADENAS'),
/* preprocessor_version */ 'ST-DEVELOPER v19.3',
/* originating_system */ 'PARTsolutions',
/* authorisation */ '  ');

FILE_SCHEMA (('AUTOMOTIVE_DESIGN {1 0 10303 214 3 1 1}'));
ENDSEC;

DATA;
#10=PROPERTY_DEFINITION_REPRESENTATION(#14,#12);
#11=PROPERTY_DEFINITION_REPRESENTATION(#15,#13);
#12=REPRESENTATION('',(#16),#702);
#13=REPRESENTATION('',(#17),#702);
#14=PROPERTY_DEFINITION('pmi validation property','',#707);
#15=PROPERTY_DEFINITION('pmi validation property','',#707);
#16=VALUE_REPRESENTATION_ITEM('number of annotations',COUNT_MEASURE(0.));
#17=VALUE_REPRESENTATION_ITEM('number of views',COUNT_MEASURE(0.));
#18=SHAPE_REPRESENTATION_RELATIONSHIP('','',#478,#19);
#19=ADVANCED_BREP_SHAPE_REPRESENTATION('',(#476),#702);
#20=TOROIDAL_SURFACE('',#500,13.,3.);
#21=CYLINDRICAL_SURFACE('',#485,19.);
#22=CYLINDRICAL_SURFACE('',#487,100.);
#23=CYLINDRICAL_SURFACE('',#489,19.);
#24=CYLINDRICAL_SURFACE('',#491,100.);
#25=CYLINDRICAL_SURFACE('',#496,3.);
#26=CYLINDRICAL_SURFACE('',#498,3.);
#27=CYLINDRICAL_SURFACE('',#507,1.5);
#28=LINE('',#619,#56);
#29=LINE('',#622,#57);
#30=LINE('',#624,#58);
#31=LINE('',#626,#59);
#32=LINE('',#628,#60);
#33=LINE('',#632,#61);
#34=LINE('',#636,#62);
#35=LINE('',#640,#63);
#36=LINE('',#656,#64);
#37=LINE('',#659,#65);
#38=LINE('',#661,#66);
#39=LINE('',#663,#67);
#40=LINE('',#665,#68);
#41=LINE('',#667,#69);
#42=LINE('',#669,#70);
#43=LINE('',#671,#71);
#44=LINE('',#673,#72);
#45=LINE('',#675,#73);
#46=LINE('',#677,#74);
#47=LINE('',#678,#75);
#48=LINE('',#680,#76);
#49=LINE('',#682,#77);
#50=LINE('',#684,#78);
#51=LINE('',#686,#79);
#52=LINE('',#688,#80);
#53=LINE('',#690,#81);
#54=LINE('',#697,#82);
#55=LINE('',#698,#83);
#56=VECTOR('',#525,1000.);
#57=VECTOR('',#526,1000.);
#58=VECTOR('',#527,1000.);
#59=VECTOR('',#528,1000.);
#60=VECTOR('',#531,1000.);
#61=VECTOR('',#534,1000.);
#62=VECTOR('',#539,1000.);
#63=VECTOR('',#544,1000.);
#64=VECTOR('',#567,1000.);
#65=VECTOR('',#568,1000.);
#66=VECTOR('',#569,1000.);
#67=VECTOR('',#570,1000.);
#68=VECTOR('',#573,1000.);
#69=VECTOR('',#574,1000.);
#70=VECTOR('',#575,1000.);
#71=VECTOR('',#578,1000.);
#72=VECTOR('',#579,1000.);
#73=VECTOR('',#580,1000.);
#74=VECTOR('',#583,1000.);
#75=VECTOR('',#584,1000.);
#76=VECTOR('',#587,1000.);
#77=VECTOR('',#588,1000.);
#78=VECTOR('',#589,1000.);
#79=VECTOR('',#592,1000.);
#80=VECTOR('',#593,1000.);
#81=VECTOR('',#594,1000.);
#82=VECTOR('',#603,1000.);
#83=VECTOR('',#604,1000.);
#84=ORIENTED_EDGE('',*,*,#168,.T.);
#85=ORIENTED_EDGE('',*,*,#169,.T.);
#86=ORIENTED_EDGE('',*,*,#170,.T.);
#87=ORIENTED_EDGE('',*,*,#171,.T.);
#88=ORIENTED_EDGE('',*,*,#172,.T.);
#89=ORIENTED_EDGE('',*,*,#173,.T.);
#90=ORIENTED_EDGE('',*,*,#174,.F.);
#91=ORIENTED_EDGE('',*,*,#175,.F.);
#92=ORIENTED_EDGE('',*,*,#168,.F.);
#93=ORIENTED_EDGE('',*,*,#176,.F.);
#94=ORIENTED_EDGE('',*,*,#177,.T.);
#95=ORIENTED_EDGE('',*,*,#178,.T.);
#96=ORIENTED_EDGE('',*,*,#169,.F.);
#97=ORIENTED_EDGE('',*,*,#178,.F.);
#98=ORIENTED_EDGE('',*,*,#179,.T.);
#99=ORIENTED_EDGE('',*,*,#180,.T.);
#100=ORIENTED_EDGE('',*,*,#170,.F.);
#101=ORIENTED_EDGE('',*,*,#180,.F.);
#102=ORIENTED_EDGE('',*,*,#181,.T.);
#103=ORIENTED_EDGE('',*,*,#182,.T.);
#104=ORIENTED_EDGE('',*,*,#171,.F.);
#105=ORIENTED_EDGE('',*,*,#182,.F.);
#106=ORIENTED_EDGE('',*,*,#183,.T.);
#107=ORIENTED_EDGE('',*,*,#176,.T.);
#108=ORIENTED_EDGE('',*,*,#184,.T.);
#109=ORIENTED_EDGE('',*,*,#185,.T.);
#110=ORIENTED_EDGE('',*,*,#177,.F.);
#111=ORIENTED_EDGE('',*,*,#183,.F.);
#112=ORIENTED_EDGE('',*,*,#181,.F.);
#113=ORIENTED_EDGE('',*,*,#179,.F.);
#114=ORIENTED_EDGE('',*,*,#186,.T.);
#115=ORIENTED_EDGE('',*,*,#185,.F.);
#116=ORIENTED_EDGE('',*,*,#187,.T.);
#117=ORIENTED_EDGE('',*,*,#184,.F.);
#118=ORIENTED_EDGE('',*,*,#187,.F.);
#119=ORIENTED_EDGE('',*,*,#186,.F.);
#120=ORIENTED_EDGE('',*,*,#188,.T.);
#121=ORIENTED_EDGE('',*,*,#189,.F.);
#122=ORIENTED_EDGE('',*,*,#190,.F.);
#123=ORIENTED_EDGE('',*,*,#191,.T.);
#124=ORIENTED_EDGE('',*,*,#192,.T.);
#125=ORIENTED_EDGE('',*,*,#193,.F.);
#126=ORIENTED_EDGE('',*,*,#194,.F.);
#127=ORIENTED_EDGE('',*,*,#189,.T.);
#128=ORIENTED_EDGE('',*,*,#195,.T.);
#129=ORIENTED_EDGE('',*,*,#196,.F.);
#130=ORIENTED_EDGE('',*,*,#197,.F.);
#131=ORIENTED_EDGE('',*,*,#193,.T.);
#132=ORIENTED_EDGE('',*,*,#198,.T.);
#133=ORIENTED_EDGE('',*,*,#172,.F.);
#134=ORIENTED_EDGE('',*,*,#199,.F.);
#135=ORIENTED_EDGE('',*,*,#196,.T.);
#136=ORIENTED_EDGE('',*,*,#200,.T.);
#137=ORIENTED_EDGE('',*,*,#201,.F.);
#138=ORIENTED_EDGE('',*,*,#202,.F.);
#139=ORIENTED_EDGE('',*,*,#174,.T.);
#140=ORIENTED_EDGE('',*,*,#203,.T.);
#141=ORIENTED_EDGE('',*,*,#204,.F.);
#142=ORIENTED_EDGE('',*,*,#205,.F.);
#143=ORIENTED_EDGE('',*,*,#201,.T.);
#144=ORIENTED_EDGE('',*,*,#206,.T.);
#145=ORIENTED_EDGE('',*,*,#207,.F.);
#146=ORIENTED_EDGE('',*,*,#208,.T.);
#147=ORIENTED_EDGE('',*,*,#191,.F.);
#148=ORIENTED_EDGE('',*,*,#209,.F.);
#149=ORIENTED_EDGE('',*,*,#204,.T.);
#150=ORIENTED_EDGE('',*,*,#206,.F.);
#151=ORIENTED_EDGE('',*,*,#190,.T.);
#152=ORIENTED_EDGE('',*,*,#194,.T.);
#153=ORIENTED_EDGE('',*,*,#197,.T.);
#154=ORIENTED_EDGE('',*,*,#199,.T.);
#155=ORIENTED_EDGE('',*,*,#175,.T.);
#156=ORIENTED_EDGE('',*,*,#202,.T.);
#157=ORIENTED_EDGE('',*,*,#205,.T.);
#158=ORIENTED_EDGE('',*,*,#209,.T.);
#159=ORIENTED_EDGE('',*,*,#207,.T.);
#160=ORIENTED_EDGE('',*,*,#188,.F.);
#161=ORIENTED_EDGE('',*,*,#208,.F.);
#162=ORIENTED_EDGE('',*,*,#203,.F.);
#163=ORIENTED_EDGE('',*,*,#200,.F.);
#164=ORIENTED_EDGE('',*,*,#173,.F.);
#165=ORIENTED_EDGE('',*,*,#198,.F.);
#166=ORIENTED_EDGE('',*,*,#195,.F.);
#167=ORIENTED_EDGE('',*,*,#192,.F.);
#168=EDGE_CURVE('',#210,#211,#240,.T.);
#169=EDGE_CURVE('',#211,#212,#241,.T.);
#170=EDGE_CURVE('',#212,#213,#242,.T.);
#171=EDGE_CURVE('',#213,#210,#243,.T.);
#172=EDGE_CURVE('',#214,#215,#28,.T.);
#173=EDGE_CURVE('',#215,#216,#29,.T.);
#174=EDGE_CURVE('',#217,#216,#30,.T.);
#175=EDGE_CURVE('',#214,#217,#31,.T.);
#176=EDGE_CURVE('',#218,#210,#32,.T.);
#177=EDGE_CURVE('',#218,#219,#244,.T.);
#178=EDGE_CURVE('',#219,#211,#33,.T.);
#179=EDGE_CURVE('',#219,#220,#245,.T.);
#180=EDGE_CURVE('',#220,#212,#34,.T.);
#181=EDGE_CURVE('',#220,#221,#246,.T.);
#182=EDGE_CURVE('',#221,#213,#35,.T.);
#183=EDGE_CURVE('',#221,#218,#247,.T.);
#184=EDGE_CURVE('',#222,#222,#248,.T.);
#185=EDGE_CURVE('',#223,#223,#249,.T.);
#186=EDGE_CURVE('',#224,#224,#250,.T.);
#187=EDGE_CURVE('',#225,#225,#251,.T.);
#188=EDGE_CURVE('',#226,#227,#36,.T.);
#189=EDGE_CURVE('',#228,#227,#37,.T.);
#190=EDGE_CURVE('',#229,#228,#38,.T.);
#191=EDGE_CURVE('',#229,#226,#39,.T.);
#192=EDGE_CURVE('',#227,#230,#40,.T.);
#193=EDGE_CURVE('',#231,#230,#41,.T.);
#194=EDGE_CURVE('',#228,#231,#42,.T.);
#195=EDGE_CURVE('',#230,#232,#43,.T.);
#196=EDGE_CURVE('',#233,#232,#44,.T.);
#197=EDGE_CURVE('',#231,#233,#45,.T.);
#198=EDGE_CURVE('',#232,#215,#46,.T.);
#199=EDGE_CURVE('',#233,#214,#47,.T.);
#200=EDGE_CURVE('',#216,#234,#48,.T.);
#201=EDGE_CURVE('',#235,#234,#49,.T.);
#202=EDGE_CURVE('',#217,#235,#50,.T.);
#203=EDGE_CURVE('',#234,#236,#51,.T.);
#204=EDGE_CURVE('',#237,#236,#52,.T.);
#205=EDGE_CURVE('',#235,#237,#53,.T.);
#206=EDGE_CURVE('',#238,#238,#252,.T.);
#207=EDGE_CURVE('',#239,#239,#253,.T.);
#208=EDGE_CURVE('',#236,#226,#54,.T.);
#209=EDGE_CURVE('',#237,#229,#55,.T.);
#210=VERTEX_POINT('',#612);
#211=VERTEX_POINT('',#613);
#212=VERTEX_POINT('',#615);
#213=VERTEX_POINT('',#617);
#214=VERTEX_POINT('',#620);
#215=VERTEX_POINT('',#621);
#216=VERTEX_POINT('',#623);
#217=VERTEX_POINT('',#625);
#218=VERTEX_POINT('',#629);
#219=VERTEX_POINT('',#631);
#220=VERTEX_POINT('',#635);
#221=VERTEX_POINT('',#639);
#222=VERTEX_POINT('',#645);
#223=VERTEX_POINT('',#647);
#224=VERTEX_POINT('',#650);
#225=VERTEX_POINT('',#653);
#226=VERTEX_POINT('',#657);
#227=VERTEX_POINT('',#658);
#228=VERTEX_POINT('',#660);
#229=VERTEX_POINT('',#662);
#230=VERTEX_POINT('',#666);
#231=VERTEX_POINT('',#668);
#232=VERTEX_POINT('',#672);
#233=VERTEX_POINT('',#674);
#234=VERTEX_POINT('',#681);
#235=VERTEX_POINT('',#683);
#236=VERTEX_POINT('',#687);
#237=VERTEX_POINT('',#689);
#238=VERTEX_POINT('',#693);
#239=VERTEX_POINT('',#695);
#240=CIRCLE('',#481,19.);
#241=CIRCLE('',#482,100.);
#242=CIRCLE('',#483,19.);
#243=CIRCLE('',#484,100.);
#244=CIRCLE('',#486,19.);
#245=CIRCLE('',#488,100.);
#246=CIRCLE('',#490,19.);
#247=CIRCLE('',#492,100.);
#248=CIRCLE('',#494,3.);
#249=CIRCLE('',#495,3.);
#250=CIRCLE('',#497,3.);
#251=CIRCLE('',#499,3.);
#252=CIRCLE('',#508,1.5);
#253=CIRCLE('',#509,1.5);
#254=EDGE_LOOP('',(#84,#85,#86,#87));
#255=EDGE_LOOP('',(#88,#89,#90,#91));
#256=EDGE_LOOP('',(#92,#93,#94,#95));
#257=EDGE_LOOP('',(#96,#97,#98,#99));
#258=EDGE_LOOP('',(#100,#101,#102,#103));
#259=EDGE_LOOP('',(#104,#105,#106,#107));
#260=EDGE_LOOP('',(#108));
#261=EDGE_LOOP('',(#109));
#262=EDGE_LOOP('',(#110,#111,#112,#113));
#263=EDGE_LOOP('',(#114));
#264=EDGE_LOOP('',(#115));
#265=EDGE_LOOP('',(#116));
#266=EDGE_LOOP('',(#117));
#267=EDGE_LOOP('',(#118));
#268=EDGE_LOOP('',(#119));
#269=EDGE_LOOP('',(#120,#121,#122,#123));
#270=EDGE_LOOP('',(#124,#125,#126,#127));
#271=EDGE_LOOP('',(#128,#129,#130,#131));
#272=EDGE_LOOP('',(#132,#133,#134,#135));
#273=EDGE_LOOP('',(#136,#137,#138,#139));
#274=EDGE_LOOP('',(#140,#141,#142,#143));
#275=EDGE_LOOP('',(#144));
#276=EDGE_LOOP('',(#145));
#277=EDGE_LOOP('',(#146,#147,#148,#149));
#278=EDGE_LOOP('',(#150));
#279=EDGE_LOOP('',(#151,#152,#153,#154,#155,#156,#157,#158));
#280=EDGE_LOOP('',(#159));
#281=EDGE_LOOP('',(#160,#161,#162,#163,#164,#165,#166,#167));
#282=FACE_BOUND('',#254,.T.);
#283=FACE_BOUND('',#255,.T.);
#284=FACE_BOUND('',#256,.T.);
#285=FACE_BOUND('',#257,.T.);
#286=FACE_BOUND('',#258,.T.);
#287=FACE_BOUND('',#259,.T.);
#288=FACE_BOUND('',#260,.T.);
#289=FACE_BOUND('',#261,.T.);
#290=FACE_BOUND('',#262,.T.);
#291=FACE_BOUND('',#263,.T.);
#292=FACE_BOUND('',#264,.T.);
#293=FACE_BOUND('',#265,.T.);
#294=FACE_BOUND('',#266,.T.);
#295=FACE_BOUND('',#267,.T.);
#296=FACE_BOUND('',#268,.T.);
#297=FACE_BOUND('',#269,.T.);
#298=FACE_BOUND('',#270,.T.);
#299=FACE_BOUND('',#271,.T.);
#300=FACE_BOUND('',#272,.T.);
#301=FACE_BOUND('',#273,.T.);
#302=FACE_BOUND('',#274,.T.);
#303=FACE_BOUND('',#275,.T.);
#304=FACE_BOUND('',#276,.T.);
#305=FACE_BOUND('',#277,.T.);
#306=FACE_BOUND('',#278,.T.);
#307=FACE_BOUND('',#279,.T.);
#308=FACE_BOUND('',#280,.T.);
#309=FACE_BOUND('',#281,.T.);
#310=PLANE('',#480);
#311=PLANE('',#493);
#312=PLANE('',#501);
#313=PLANE('',#502);
#314=PLANE('',#503);
#315=PLANE('',#504);
#316=PLANE('',#505);
#317=PLANE('',#506);
#318=PLANE('',#510);
#319=PLANE('',#511);
#320=PLANE('',#512);
#321=STYLED_ITEM('',(#340),#456);
#322=STYLED_ITEM('',(#341),#457);
#323=STYLED_ITEM('',(#342),#458);
#324=STYLED_ITEM('',(#343),#459);
#325=STYLED_ITEM('',(#344),#460);
#326=STYLED_ITEM('',(#345),#461);
#327=STYLED_ITEM('',(#346),#462);
#328=STYLED_ITEM('',(#347),#463);
#329=STYLED_ITEM('',(#348),#464);
#330=STYLED_ITEM('',(#349),#465);
#331=STYLED_ITEM('',(#350),#466);
#332=STYLED_ITEM('',(#351),#467);
#333=STYLED_ITEM('',(#352),#468);
#334=STYLED_ITEM('',(#353),#469);
#335=STYLED_ITEM('',(#354),#470);
#336=STYLED_ITEM('',(#355),#471);
#337=STYLED_ITEM('',(#356),#472);
#338=STYLED_ITEM('',(#357),#473);
#339=STYLED_ITEM('',(#358),#474);
#340=PRESENTATION_STYLE_ASSIGNMENT((#359));
#341=PRESENTATION_STYLE_ASSIGNMENT((#360));
#342=PRESENTATION_STYLE_ASSIGNMENT((#361));
#343=PRESENTATION_STYLE_ASSIGNMENT((#362));
#344=PRESENTATION_STYLE_ASSIGNMENT((#363));
#345=PRESENTATION_STYLE_ASSIGNMENT((#364));
#346=PRESENTATION_STYLE_ASSIGNMENT((#365));
#347=PRESENTATION_STYLE_ASSIGNMENT((#366));
#348=PRESENTATION_STYLE_ASSIGNMENT((#367));
#349=PRESENTATION_STYLE_ASSIGNMENT((#368));
#350=PRESENTATION_STYLE_ASSIGNMENT((#369));
#351=PRESENTATION_STYLE_ASSIGNMENT((#370));
#352=PRESENTATION_STYLE_ASSIGNMENT((#371));
#353=PRESENTATION_STYLE_ASSIGNMENT((#372));
#354=PRESENTATION_STYLE_ASSIGNMENT((#373));
#355=PRESENTATION_STYLE_ASSIGNMENT((#374));
#356=PRESENTATION_STYLE_ASSIGNMENT((#375));
#357=PRESENTATION_STYLE_ASSIGNMENT((#376));
#358=PRESENTATION_STYLE_ASSIGNMENT((#377));
#359=SURFACE_STYLE_USAGE(.BOTH.,#378);
#360=SURFACE_STYLE_USAGE(.BOTH.,#379);
#361=SURFACE_STYLE_USAGE(.BOTH.,#380);
#362=SURFACE_STYLE_USAGE(.BOTH.,#381);
#363=SURFACE_STYLE_USAGE(.BOTH.,#382);
#364=SURFACE_STYLE_USAGE(.BOTH.,#383);
#365=SURFACE_STYLE_USAGE(.BOTH.,#384);
#366=SURFACE_STYLE_USAGE(.BOTH.,#385);
#367=SURFACE_STYLE_USAGE(.BOTH.,#386);
#368=SURFACE_STYLE_USAGE(.BOTH.,#387);
#369=SURFACE_STYLE_USAGE(.BOTH.,#388);
#370=SURFACE_STYLE_USAGE(.BOTH.,#389);
#371=SURFACE_STYLE_USAGE(.BOTH.,#390);
#372=SURFACE_STYLE_USAGE(.BOTH.,#391);
#373=SURFACE_STYLE_USAGE(.BOTH.,#392);
#374=SURFACE_STYLE_USAGE(.BOTH.,#393);
#375=SURFACE_STYLE_USAGE(.BOTH.,#394);
#376=SURFACE_STYLE_USAGE(.BOTH.,#395);
#377=SURFACE_STYLE_USAGE(.BOTH.,#396);
#378=SURFACE_SIDE_STYLE('',(#397));
#379=SURFACE_SIDE_STYLE('',(#398));
#380=SURFACE_SIDE_STYLE('',(#399));
#381=SURFACE_SIDE_STYLE('',(#400));
#382=SURFACE_SIDE_STYLE('',(#401));
#383=SURFACE_SIDE_STYLE('',(#402));
#384=SURFACE_SIDE_STYLE('',(#403));
#385=SURFACE_SIDE_STYLE('',(#404));
#386=SURFACE_SIDE_STYLE('',(#405));
#387=SURFACE_SIDE_STYLE('',(#406));
#388=SURFACE_SIDE_STYLE('',(#407));
#389=SURFACE_SIDE_STYLE('',(#408));
#390=SURFACE_SIDE_STYLE('',(#409));
#391=SURFACE_SIDE_STYLE('',(#410));
#392=SURFACE_SIDE_STYLE('',(#411));
#393=SURFACE_SIDE_STYLE('',(#412));
#394=SURFACE_SIDE_STYLE('',(#413));
#395=SURFACE_SIDE_STYLE('',(#414));
#396=SURFACE_SIDE_STYLE('',(#415));
#397=SURFACE_STYLE_FILL_AREA(#416);
#398=SURFACE_STYLE_FILL_AREA(#417);
#399=SURFACE_STYLE_FILL_AREA(#418);
#400=SURFACE_STYLE_FILL_AREA(#419);
#401=SURFACE_STYLE_FILL_AREA(#420);
#402=SURFACE_STYLE_FILL_AREA(#421);
#403=SURFACE_STYLE_FILL_AREA(#422);
#404=SURFACE_STYLE_FILL_AREA(#423);
#405=SURFACE_STYLE_FILL_AREA(#424);
#406=SURFACE_STYLE_FILL_AREA(#425);
#407=SURFACE_STYLE_FILL_AREA(#426);
#408=SURFACE_STYLE_FILL_AREA(#427);
#409=SURFACE_STYLE_FILL_AREA(#428);
#410=SURFACE_STYLE_FILL_AREA(#429);
#411=SURFACE_STYLE_FILL_AREA(#430);
#412=SURFACE_STYLE_FILL_AREA(#431);
#413=SURFACE_STYLE_FILL_AREA(#432);
#414=SURFACE_STYLE_FILL_AREA(#433);
#415=SURFACE_STYLE_FILL_AREA(#434);
#416=FILL_AREA_STYLE('',(#435));
#417=FILL_AREA_STYLE('',(#436));
#418=FILL_AREA_STYLE('',(#437));
#419=FILL_AREA_STYLE('',(#438));
#420=FILL_AREA_STYLE('',(#439));
#421=FILL_AREA_STYLE('',(#440));
#422=FILL_AREA_STYLE('',(#441));
#423=FILL_AREA_STYLE('',(#442));
#424=FILL_AREA_STYLE('',(#443));
#425=FILL_AREA_STYLE('',(#444));
#426=FILL_AREA_STYLE('',(#445));
#427=FILL_AREA_STYLE('',(#446));
#428=FILL_AREA_STYLE('',(#447));
#429=FILL_AREA_STYLE('',(#448));
#430=FILL_AREA_STYLE('',(#449));
#431=FILL_AREA_STYLE('',(#450));
#432=FILL_AREA_STYLE('',(#451));
#433=FILL_AREA_STYLE('',(#452));
#434=FILL_AREA_STYLE('',(#453));
#435=FILL_AREA_STYLE_COLOUR('',#454);
#436=FILL_AREA_STYLE_COLOUR('',#454);
#437=FILL_AREA_STYLE_COLOUR('',#454);
#438=FILL_AREA_STYLE_COLOUR('',#454);
#439=FILL_AREA_STYLE_COLOUR('',#454);
#440=FILL_AREA_STYLE_COLOUR('',#454);
#441=FILL_AREA_STYLE_COLOUR('',#455);
#442=FILL_AREA_STYLE_COLOUR('',#455);
#443=FILL_AREA_STYLE_COLOUR('',#455);
#444=FILL_AREA_STYLE_COLOUR('',#455);
#445=FILL_AREA_STYLE_COLOUR('',#455);
#446=FILL_AREA_STYLE_COLOUR('',#455);
#447=FILL_AREA_STYLE_COLOUR('',#455);
#448=FILL_AREA_STYLE_COLOUR('',#455);
#449=FILL_AREA_STYLE_COLOUR('',#455);
#450=FILL_AREA_STYLE_COLOUR('',#455);
#451=FILL_AREA_STYLE_COLOUR('',#455);
#452=FILL_AREA_STYLE_COLOUR('',#455);
#453=FILL_AREA_STYLE_COLOUR('',#455);
#454=COLOUR_RGB('',0.90200001001358,0.80400002002716,0.34499999880791);
#455=COLOUR_RGB('',0.689999997615814,0.689999997615814,0.689999997615814);
#456=ADVANCED_FACE('',(#282,#283),#310,.T.);
#457=ADVANCED_FACE('',(#284),#21,.T.);
#458=ADVANCED_FACE('',(#285),#22,.T.);
#459=ADVANCED_FACE('',(#286),#23,.T.);
#460=ADVANCED_FACE('',(#287),#24,.T.);
#461=ADVANCED_FACE('',(#288,#289,#290),#311,.F.);
#462=ADVANCED_FACE('',(#291,#292),#25,.T.);
#463=ADVANCED_FACE('',(#293,#294),#26,.T.);
#464=ADVANCED_FACE('',(#295,#296),#20,.T.);
#465=ADVANCED_FACE('',(#297),#312,.F.);
#466=ADVANCED_FACE('',(#298),#313,.F.);
#467=ADVANCED_FACE('',(#299),#314,.F.);
#468=ADVANCED_FACE('',(#300),#315,.F.);
#469=ADVANCED_FACE('',(#301),#316,.F.);
#470=ADVANCED_FACE('',(#302),#317,.F.);
#471=ADVANCED_FACE('',(#303,#304),#27,.F.);
#472=ADVANCED_FACE('',(#305),#318,.F.);
#473=ADVANCED_FACE('',(#306,#307),#319,.T.);
#474=ADVANCED_FACE('',(#308,#309),#320,.F.);
#475=CLOSED_SHELL('',(#456,#457,#458,#459,#460,#461,#462,#463,#464,#465,
#466,#467,#468,#469,#470,#471,#472,#473,#474));
#476=MANIFOLD_SOLID_BREP('193786 LRVS-D',#475);
#477=SHAPE_DEFINITION_REPRESENTATION(#707,#478);
#478=SHAPE_REPRESENTATION('193786 LRVS-D',(#479),#702);
#479=AXIS2_PLACEMENT_3D('',#609,#513,#514);
#480=AXIS2_PLACEMENT_3D('',#610,#515,#516);
#481=AXIS2_PLACEMENT_3D('',#611,#517,#518);
#482=AXIS2_PLACEMENT_3D('',#614,#519,#520);
#483=AXIS2_PLACEMENT_3D('',#616,#521,#522);
#484=AXIS2_PLACEMENT_3D('',#618,#523,#524);
#485=AXIS2_PLACEMENT_3D('',#627,#529,#530);
#486=AXIS2_PLACEMENT_3D('',#630,#532,#533);
#487=AXIS2_PLACEMENT_3D('',#633,#535,#536);
#488=AXIS2_PLACEMENT_3D('',#634,#537,#538);
#489=AXIS2_PLACEMENT_3D('',#637,#540,#541);
#490=AXIS2_PLACEMENT_3D('',#638,#542,#543);
#491=AXIS2_PLACEMENT_3D('',#641,#545,#546);
#492=AXIS2_PLACEMENT_3D('',#642,#547,#548);
#493=AXIS2_PLACEMENT_3D('',#643,#549,#550);
#494=AXIS2_PLACEMENT_3D('',#644,#551,#552);
#495=AXIS2_PLACEMENT_3D('',#646,#553,#554);
#496=AXIS2_PLACEMENT_3D('',#648,#555,#556);
#497=AXIS2_PLACEMENT_3D('',#649,#557,#558);
#498=AXIS2_PLACEMENT_3D('',#651,#559,#560);
#499=AXIS2_PLACEMENT_3D('',#652,#561,#562);
#500=AXIS2_PLACEMENT_3D('',#654,#563,#564);
#501=AXIS2_PLACEMENT_3D('',#655,#565,#566);
#502=AXIS2_PLACEMENT_3D('',#664,#571,#572);
#503=AXIS2_PLACEMENT_3D('',#670,#576,#577);
#504=AXIS2_PLACEMENT_3D('',#676,#581,#582);
#505=AXIS2_PLACEMENT_3D('',#679,#585,#586);
#506=AXIS2_PLACEMENT_3D('',#685,#590,#591);
#507=AXIS2_PLACEMENT_3D('',#691,#595,#596);
#508=AXIS2_PLACEMENT_3D('',#692,#597,#598);
#509=AXIS2_PLACEMENT_3D('',#694,#599,#600);
#510=AXIS2_PLACEMENT_3D('',#696,#601,#602);
#511=AXIS2_PLACEMENT_3D('',#699,#605,#606);
#512=AXIS2_PLACEMENT_3D('',#700,#607,#608);
#513=DIRECTION('',(0.,0.,1.));
#514=DIRECTION('',(1.,0.,0.));
#515=DIRECTION('',(0.,0.,1.));
#516=DIRECTION('',(1.,0.,0.));
#517=DIRECTION('',(0.,0.,1.));
#518=DIRECTION('',(1.,0.,0.));
#519=DIRECTION('',(0.,0.,1.));
#520=DIRECTION('',(1.,0.,0.));
#521=DIRECTION('',(0.,0.,1.));
#522=DIRECTION('',(1.,0.,0.));
#523=DIRECTION('',(0.,0.,1.));
#524=DIRECTION('',(1.,0.,0.));
#525=DIRECTION('',(-1.,0.,0.));
#526=DIRECTION('',(0.,1.,0.));
#527=DIRECTION('',(-1.,0.,0.));
#528=DIRECTION('',(0.,1.,0.));
#529=DIRECTION('',(0.,0.,1.));
#530=DIRECTION('',(1.,0.,0.));
#531=DIRECTION('',(0.,0.,1.));
#532=DIRECTION('',(0.,0.,1.));
#533=DIRECTION('',(1.,0.,0.));
#534=DIRECTION('',(0.,0.,1.));
#535=DIRECTION('',(0.,0.,1.));
#536=DIRECTION('',(1.,0.,0.));
#537=DIRECTION('',(0.,0.,1.));
#538=DIRECTION('',(1.,0.,0.));
#539=DIRECTION('',(0.,0.,1.));
#540=DIRECTION('',(0.,0.,1.));
#541=DIRECTION('',(1.,0.,0.));
#542=DIRECTION('',(0.,0.,1.));
#543=DIRECTION('',(1.,0.,0.));
#544=DIRECTION('',(0.,0.,1.));
#545=DIRECTION('',(0.,0.,1.));
#546=DIRECTION('',(1.,0.,0.));
#547=DIRECTION('',(0.,0.,1.));
#548=DIRECTION('',(1.,0.,0.));
#549=DIRECTION('',(0.,0.,1.));
#550=DIRECTION('',(1.,0.,0.));
#551=DIRECTION('',(0.,0.,1.));
#552=DIRECTION('',(1.,0.,0.));
#553=DIRECTION('',(0.,0.,1.));
#554=DIRECTION('',(1.,0.,0.));
#555=DIRECTION('',(0.,0.,1.));
#556=DIRECTION('',(1.,0.,0.));
#557=DIRECTION('',(0.,0.,1.));
#558=DIRECTION('',(1.,0.,0.));
#559=DIRECTION('',(0.,0.,1.));
#560=DIRECTION('',(1.,0.,0.));
#561=DIRECTION('',(0.,0.,1.));
#562=DIRECTION('',(1.,0.,0.));
#563=DIRECTION('',(-1.,0.,0.));
#564=DIRECTION('',(0.,0.,1.));
#565=DIRECTION('',(0.,0.,-1.));
#566=DIRECTION('',(-1.,0.,0.));
#567=DIRECTION('',(0.,-1.,0.));
#568=DIRECTION('',(-1.,0.,0.));
#569=DIRECTION('',(0.,-1.,0.));
#570=DIRECTION('',(-1.,0.,0.));
#571=DIRECTION('',(0.,1.,0.));
#572=DIRECTION('',(0.,0.,1.));
#573=DIRECTION('',(0.,0.,-1.));
#574=DIRECTION('',(-1.,0.,0.));
#575=DIRECTION('',(0.,0.,-1.));
#576=DIRECTION('',(0.,0.,1.));
#577=DIRECTION('',(1.,0.,0.));
#578=DIRECTION('',(0.,1.,0.));
#579=DIRECTION('',(-1.,0.,0.));
#580=DIRECTION('',(0.,1.,0.));
#581=DIRECTION('',(0.,1.,-3.46944695195361E-16));
#582=DIRECTION('',(0.,3.46944695195361E-16,1.));
#583=DIRECTION('',(0.,-3.46944695195361E-16,-1.));
#584=DIRECTION('',(0.,-3.46944695195361E-16,-1.));
#585=DIRECTION('',(0.,-1.,0.));
#586=DIRECTION('',(0.,0.,-1.));
#587=DIRECTION('',(0.,0.,1.));
#588=DIRECTION('',(-1.,0.,0.));
#589=DIRECTION('',(0.,0.,1.));
#590=DIRECTION('',(0.,0.,1.));
#591=DIRECTION('',(1.,0.,0.));
#592=DIRECTION('',(0.,1.,0.));
#593=DIRECTION('',(-1.,0.,0.));
#594=DIRECTION('',(0.,1.,0.));
#595=DIRECTION('',(-1.,0.,0.));
#596=DIRECTION('',(0.,0.,1.));
#597=DIRECTION('',(1.,0.,0.));
#598=DIRECTION('',(0.,0.,-1.));
#599=DIRECTION('',(1.,0.,0.));
#600=DIRECTION('',(0.,0.,-1.));
#601=DIRECTION('',(0.,-1.,0.));
#602=DIRECTION('',(0.,0.,-1.));
#603=DIRECTION('',(0.,0.,1.));
#604=DIRECTION('',(0.,0.,1.));
#605=DIRECTION('',(1.,0.,0.));
#606=DIRECTION('',(0.,0.,-1.));
#607=DIRECTION('',(1.,0.,0.));
#608=DIRECTION('',(0.,0.,-1.));
#609=CARTESIAN_POINT('',(0.,0.,0.));
#610=CARTESIAN_POINT('',(46.75,-1.12757025938492E-14,0.));
#611=CARTESIAN_POINT('',(-2.64545330086463E-14,-2.77555756156289E-14,0.));
#612=CARTESIAN_POINT('',(4.79545454545458,18.3848746447311,0.));
#613=CARTESIAN_POINT('',(-4.79545454545456,18.3848746447312,0.));
#614=CARTESIAN_POINT('',(93.5,5.20417042793042E-15,0.));
#615=CARTESIAN_POINT('',(-4.79545454545456,-18.3848746447311,0.));
#616=CARTESIAN_POINT('',(2.68882138776405E-14,2.77555756156289E-14,0.));
#617=CARTESIAN_POINT('',(4.79545454545455,-18.3848746447312,0.));
#618=CARTESIAN_POINT('',(-93.5,-5.20417042793042E-15,0.));
#619=CARTESIAN_POINT('',(0.5,-3.,0.));
#620=CARTESIAN_POINT('',(0.5,-3.,0.));
#621=CARTESIAN_POINT('',(-0.5,-3.,0.));
#622=CARTESIAN_POINT('',(-0.5,-3.,0.));
#623=CARTESIAN_POINT('',(-0.5,4.5,0.));
#624=CARTESIAN_POINT('',(0.5,4.5,0.));
#625=CARTESIAN_POINT('',(0.5,4.5,0.));
#626=CARTESIAN_POINT('',(0.5,-3.,0.));
#627=CARTESIAN_POINT('',(-2.64545330086463E-14,-2.77555756156289E-14,-34.));
#628=CARTESIAN_POINT('',(4.79545454545458,18.3848746447311,-34.));
#629=CARTESIAN_POINT('',(4.79545454545458,18.3848746447311,-34.));
#630=CARTESIAN_POINT('',(-2.64545330086463E-14,-2.77555756156289E-14,-34.));
#631=CARTESIAN_POINT('',(-4.79545454545456,18.3848746447312,-34.));
#632=CARTESIAN_POINT('',(-4.79545454545456,18.3848746447312,-34.));
#633=CARTESIAN_POINT('',(93.5,5.20417042793042E-15,-34.));
#634=CARTESIAN_POINT('',(93.5,5.20417042793042E-15,-34.));
#635=CARTESIAN_POINT('',(-4.79545454545456,-18.3848746447311,-34.));
#636=CARTESIAN_POINT('',(-4.79545454545456,-18.3848746447311,-34.));
#637=CARTESIAN_POINT('',(2.68882138776405E-14,2.77555756156289E-14,-34.));
#638=CARTESIAN_POINT('',(2.68882138776405E-14,2.77555756156289E-14,-34.));
#639=CARTESIAN_POINT('',(4.79545454545455,-18.3848746447312,-34.));
#640=CARTESIAN_POINT('',(4.79545454545455,-18.3848746447312,-34.));
#641=CARTESIAN_POINT('',(-93.5,-5.20417042793042E-15,-34.));
#642=CARTESIAN_POINT('',(-93.5,-5.20417042793042E-15,-34.));
#643=CARTESIAN_POINT('',(46.75,-1.12757025938492E-14,-34.));
#644=CARTESIAN_POINT('',(0.,13.,-34.));
#645=CARTESIAN_POINT('',(3.,13.,-34.));
#646=CARTESIAN_POINT('',(0.,-13.,-34.));
#647=CARTESIAN_POINT('',(3.,-13.,-34.));
#648=CARTESIAN_POINT('',(0.,-13.,-46.));
#649=CARTESIAN_POINT('',(0.,-13.,-46.));
#650=CARTESIAN_POINT('',(3.,-13.,-46.));
#651=CARTESIAN_POINT('',(0.,13.,-46.));
#652=CARTESIAN_POINT('',(0.,13.,-46.));
#653=CARTESIAN_POINT('',(3.,13.,-46.));
#654=CARTESIAN_POINT('',(0.,0.,-46.));
#655=CARTESIAN_POINT('',(0.5,7.5,15.));
#656=CARTESIAN_POINT('',(-0.5,7.5,15.));
#657=CARTESIAN_POINT('',(-0.5,7.5,15.));
#658=CARTESIAN_POINT('',(-0.5,-10.,15.));
#659=CARTESIAN_POINT('',(0.5,-10.,15.));
#660=CARTESIAN_POINT('',(0.5,-10.,15.));
#661=CARTESIAN_POINT('',(0.5,7.5,15.));
#662=CARTESIAN_POINT('',(0.5,7.5,15.));
#663=CARTESIAN_POINT('',(0.5,7.5,15.));
#664=CARTESIAN_POINT('',(0.5,-10.,15.));
#665=CARTESIAN_POINT('',(-0.5,-10.,15.));
#666=CARTESIAN_POINT('',(-0.5,-10.,2.5));
#667=CARTESIAN_POINT('',(0.5,-10.,2.5));
#668=CARTESIAN_POINT('',(0.5,-10.,2.5));
#669=CARTESIAN_POINT('',(0.5,-10.,15.));
#670=CARTESIAN_POINT('',(0.5,-10.,2.5));
#671=CARTESIAN_POINT('',(-0.5,-10.,2.5));
#672=CARTESIAN_POINT('',(-0.5,-3.,2.5));
#673=CARTESIAN_POINT('',(0.5,-3.,2.5));
#674=CARTESIAN_POINT('',(0.5,-3.,2.5));
#675=CARTESIAN_POINT('',(0.5,-10.,2.5));
#676=CARTESIAN_POINT('',(0.5,-3.,2.5));
#677=CARTESIAN_POINT('',(-0.5,-3.,2.5));
#678=CARTESIAN_POINT('',(0.5,-3.,2.5));
#679=CARTESIAN_POINT('',(0.5,4.5,0.));
#680=CARTESIAN_POINT('',(-0.5,4.5,0.));
#681=CARTESIAN_POINT('',(-0.5,4.5,2.5));
#682=CARTESIAN_POINT('',(0.5,4.5,2.5));
#683=CARTESIAN_POINT('',(0.5,4.5,2.5));
#684=CARTESIAN_POINT('',(0.5,4.5,0.));
#685=CARTESIAN_POINT('',(0.5,4.5,2.5));
#686=CARTESIAN_POINT('',(-0.5,4.5,2.5));
#687=CARTESIAN_POINT('',(-0.5,7.5,2.5));
#688=CARTESIAN_POINT('',(0.5,7.5,2.5));
#689=CARTESIAN_POINT('',(0.5,7.5,2.5));
#690=CARTESIAN_POINT('',(0.5,4.5,2.5));
#691=CARTESIAN_POINT('',(0.5,-7.,12.));
#692=CARTESIAN_POINT('',(0.5,-7.,12.));
#693=CARTESIAN_POINT('',(0.5,-7.,10.5));
#694=CARTESIAN_POINT('',(-0.5,-7.,12.));
#695=CARTESIAN_POINT('',(-0.5,-7.,10.5));
#696=CARTESIAN_POINT('',(0.5,7.5,2.5));
#697=CARTESIAN_POINT('',(-0.5,7.5,2.5));
#698=CARTESIAN_POINT('',(0.5,7.5,2.5));
#699=CARTESIAN_POINT('',(0.5,0.,0.));
#700=CARTESIAN_POINT('',(-0.5,0.,0.));
#701=MECHANICAL_DESIGN_GEOMETRIC_PRESENTATION_REPRESENTATION('',(#321,#322,
#323,#324,#325,#326,#327,#328,#329,#330,#331,#332,#333,#334,#335,#336,#337,
#338,#339),#702);
#702=(
GEOMETRIC_REPRESENTATION_CONTEXT(3)
GLOBAL_UNCERTAINTY_ASSIGNED_CONTEXT((#703))
GLOBAL_UNIT_ASSIGNED_CONTEXT((#706,#705,#704))
REPRESENTATION_CONTEXT('193786 LRVS-D','TOP_LEVEL_ASSEMBLY_PART')
);
#703=UNCERTAINTY_MEASURE_WITH_UNIT(LENGTH_MEASURE(0.005),#706,
'DISTANCE_ACCURACY_VALUE','Maximum Tolerance applied to model');
#704=(
NAMED_UNIT(*)
SI_UNIT($,.STERADIAN.)
SOLID_ANGLE_UNIT()
);
#705=(
NAMED_UNIT(*)
PLANE_ANGLE_UNIT()
SI_UNIT($,.RADIAN.)
);
#706=(
LENGTH_UNIT()
NAMED_UNIT(*)
SI_UNIT(.MILLI.,.METRE.)
);
#707=PRODUCT_DEFINITION_SHAPE('','',#708);
#708=PRODUCT_DEFINITION('','',#710,#709);
#709=PRODUCT_DEFINITION_CONTEXT('',#716,'design');
#710=PRODUCT_DEFINITION_FORMATION_WITH_SPECIFIED_SOURCE('','',#712,
 .NOT_KNOWN.);
#711=PRODUCT_RELATED_PRODUCT_CATEGORY('','',(#712));
#712=PRODUCT('193786 LRVS-D','193786 LRVS-D','193786 LRVS-D',(#714));
#713=PRODUCT_CATEGORY('','');
#714=PRODUCT_CONTEXT('',#716,'mechanical');
#715=APPLICATION_PROTOCOL_DEFINITION('international standard',
'automotive_design',2010,#716);
#716=APPLICATION_CONTEXT(
'core data for automotive mechanical design processes');
ENDSEC;
END-ISO-10303-21;
