ISO-10303-21;
HEADER;
/* Generated by software containing ST-Developer
 * from STEP Tools, Inc. (www.steptools.com) 
 */
/* OPTION: using custom renumber hook */

FILE_DESCRIPTION(
/* description */ ('STEP AP214'),
/* implementation_level */ '2;1');

FILE_NAME(
/* name */ '194590_CQC-28H',
/* time_stamp */ '2024-08-07T22:04:11+02:00',
/* author */ ('License CC BY-ND 4.0'),
/* organization */ ('CADENAS'),
/* preprocessor_version */ 'ST-DEVELOPER v19.3',
/* originating_system */ 'PARTsolutions',
/* authorisation */ '  ');

FILE_SCHEMA (('AUTOMOTIVE_DESIGN {1 0 10303 214 3 1 1}'));
ENDSEC;

DATA;
#10=PROPERTY_DEFINITION_REPRESENTATION(#14,#12);
#11=PROPERTY_DEFINITION_REPRESENTATION(#15,#13);
#12=REPRESENTATION('',(#16),#223);
#13=REPRESENTATION('',(#17),#223);
#14=PROPERTY_DEFINITION('pmi validation property','',#228);
#15=PROPERTY_DEFINITION('pmi validation property','',#228);
#16=VALUE_REPRESENTATION_ITEM('number of annotations',COUNT_MEASURE(0.));
#17=VALUE_REPRESENTATION_ITEM('number of views',COUNT_MEASURE(0.));
#18=SHAPE_REPRESENTATION_RELATIONSHIP('','',#132,#19);
#19=ADVANCED_BREP_SHAPE_REPRESENTATION('',(#130),#223);
#20=TOROIDAL_SURFACE('',#140,12.6,1.40000000000001);
#21=TOROIDAL_SURFACE('',#144,12.6,1.40000000000001);
#22=TOROIDAL_SURFACE('',#150,12.6,1.4);
#23=CYLINDRICAL_SURFACE('',#136,20.);
#24=CYLINDRICAL_SURFACE('',#142,11.2);
#25=CYLINDRICAL_SURFACE('',#148,14.);
#26=ORIENTED_EDGE('',*,*,#44,.F.);
#27=ORIENTED_EDGE('',*,*,#45,.F.);
#28=ORIENTED_EDGE('',*,*,#44,.T.);
#29=ORIENTED_EDGE('',*,*,#46,.F.);
#30=ORIENTED_EDGE('',*,*,#45,.T.);
#31=ORIENTED_EDGE('',*,*,#47,.F.);
#32=ORIENTED_EDGE('',*,*,#46,.T.);
#33=ORIENTED_EDGE('',*,*,#48,.F.);
#34=ORIENTED_EDGE('',*,*,#47,.T.);
#35=ORIENTED_EDGE('',*,*,#49,.F.);
#36=ORIENTED_EDGE('',*,*,#48,.T.);
#37=ORIENTED_EDGE('',*,*,#50,.F.);
#38=ORIENTED_EDGE('',*,*,#49,.T.);
#39=ORIENTED_EDGE('',*,*,#51,.F.);
#40=ORIENTED_EDGE('',*,*,#50,.T.);
#41=ORIENTED_EDGE('',*,*,#51,.T.);
#42=ORIENTED_EDGE('',*,*,#52,.F.);
#43=ORIENTED_EDGE('',*,*,#52,.T.);
#44=EDGE_CURVE('',#53,#53,#62,.T.);
#45=EDGE_CURVE('',#54,#54,#63,.T.);
#46=EDGE_CURVE('',#55,#55,#64,.T.);
#47=EDGE_CURVE('',#56,#56,#65,.T.);
#48=EDGE_CURVE('',#57,#57,#66,.T.);
#49=EDGE_CURVE('',#58,#58,#67,.T.);
#50=EDGE_CURVE('',#59,#59,#68,.T.);
#51=EDGE_CURVE('',#60,#60,#69,.T.);
#52=EDGE_CURVE('',#61,#61,#70,.T.);
#53=VERTEX_POINT('',#196);
#54=VERTEX_POINT('',#199);
#55=VERTEX_POINT('',#202);
#56=VERTEX_POINT('',#205);
#57=VERTEX_POINT('',#208);
#58=VERTEX_POINT('',#211);
#59=VERTEX_POINT('',#214);
#60=VERTEX_POINT('',#217);
#61=VERTEX_POINT('',#220);
#62=CIRCLE('',#135,20.);
#63=CIRCLE('',#137,20.);
#64=CIRCLE('',#139,12.6);
#65=CIRCLE('',#141,11.2);
#66=CIRCLE('',#143,11.2);
#67=CIRCLE('',#145,12.6);
#68=CIRCLE('',#147,14.);
#69=CIRCLE('',#149,14.);
#70=CIRCLE('',#151,12.6);
#71=EDGE_LOOP('',(#26));
#72=EDGE_LOOP('',(#27));
#73=EDGE_LOOP('',(#28));
#74=EDGE_LOOP('',(#29));
#75=EDGE_LOOP('',(#30));
#76=EDGE_LOOP('',(#31));
#77=EDGE_LOOP('',(#32));
#78=EDGE_LOOP('',(#33));
#79=EDGE_LOOP('',(#34));
#80=EDGE_LOOP('',(#35));
#81=EDGE_LOOP('',(#36));
#82=EDGE_LOOP('',(#37));
#83=EDGE_LOOP('',(#38));
#84=EDGE_LOOP('',(#39));
#85=EDGE_LOOP('',(#40));
#86=EDGE_LOOP('',(#41));
#87=EDGE_LOOP('',(#42));
#88=EDGE_LOOP('',(#43));
#89=FACE_BOUND('',#71,.T.);
#90=FACE_BOUND('',#72,.T.);
#91=FACE_BOUND('',#73,.T.);
#92=FACE_BOUND('',#74,.T.);
#93=FACE_BOUND('',#75,.T.);
#94=FACE_BOUND('',#76,.T.);
#95=FACE_BOUND('',#77,.T.);
#96=FACE_BOUND('',#78,.T.);
#97=FACE_BOUND('',#79,.T.);
#98=FACE_BOUND('',#80,.T.);
#99=FACE_BOUND('',#81,.T.);
#100=FACE_BOUND('',#82,.T.);
#101=FACE_BOUND('',#83,.T.);
#102=FACE_BOUND('',#84,.T.);
#103=FACE_BOUND('',#85,.T.);
#104=FACE_BOUND('',#86,.T.);
#105=FACE_BOUND('',#87,.T.);
#106=FACE_BOUND('',#88,.T.);
#107=PLANE('',#134);
#108=PLANE('',#138);
#109=PLANE('',#146);
#110=PLANE('',#152);
#111=ADVANCED_FACE('',(#89),#107,.F.);
#112=ADVANCED_FACE('',(#90,#91),#23,.T.);
#113=ADVANCED_FACE('',(#92,#93),#108,.F.);
#114=ADVANCED_FACE('',(#94,#95),#20,.F.);
#115=ADVANCED_FACE('',(#96,#97),#24,.T.);
#116=ADVANCED_FACE('',(#98,#99),#21,.F.);
#117=ADVANCED_FACE('',(#100,#101),#109,.F.);
#118=ADVANCED_FACE('',(#102,#103),#25,.T.);
#119=ADVANCED_FACE('',(#104,#105),#22,.T.);
#120=ADVANCED_FACE('',(#106),#110,.F.);
#121=CLOSED_SHELL('',(#111,#112,#113,#114,#115,#116,#117,#118,#119,#120));
#122=STYLED_ITEM('',(#123),#130);
#123=PRESENTATION_STYLE_ASSIGNMENT((#124));
#124=SURFACE_STYLE_USAGE(.BOTH.,#125);
#125=SURFACE_SIDE_STYLE('',(#126));
#126=SURFACE_STYLE_FILL_AREA(#127);
#127=FILL_AREA_STYLE('',(#128));
#128=FILL_AREA_STYLE_COLOUR('',#129);
#129=COLOUR_RGB('',0.310000002384186,0.310000002384186,0.310000002384186);
#130=MANIFOLD_SOLID_BREP('194590 CQC-28H',#121);
#131=SHAPE_DEFINITION_REPRESENTATION(#228,#132);
#132=SHAPE_REPRESENTATION('194590 CQC-28H',(#133),#223);
#133=AXIS2_PLACEMENT_3D('',#193,#153,#154);
#134=AXIS2_PLACEMENT_3D('',#194,#155,#156);
#135=AXIS2_PLACEMENT_3D('',#195,#157,#158);
#136=AXIS2_PLACEMENT_3D('',#197,#159,#160);
#137=AXIS2_PLACEMENT_3D('',#198,#161,#162);
#138=AXIS2_PLACEMENT_3D('',#200,#163,#164);
#139=AXIS2_PLACEMENT_3D('',#201,#165,#166);
#140=AXIS2_PLACEMENT_3D('',#203,#167,#168);
#141=AXIS2_PLACEMENT_3D('',#204,#169,#170);
#142=AXIS2_PLACEMENT_3D('',#206,#171,#172);
#143=AXIS2_PLACEMENT_3D('',#207,#173,#174);
#144=AXIS2_PLACEMENT_3D('',#209,#175,#176);
#145=AXIS2_PLACEMENT_3D('',#210,#177,#178);
#146=AXIS2_PLACEMENT_3D('',#212,#179,#180);
#147=AXIS2_PLACEMENT_3D('',#213,#181,#182);
#148=AXIS2_PLACEMENT_3D('',#215,#183,#184);
#149=AXIS2_PLACEMENT_3D('',#216,#185,#186);
#150=AXIS2_PLACEMENT_3D('',#218,#187,#188);
#151=AXIS2_PLACEMENT_3D('',#219,#189,#190);
#152=AXIS2_PLACEMENT_3D('',#221,#191,#192);
#153=DIRECTION('',(0.,0.,1.));
#154=DIRECTION('',(1.,0.,0.));
#155=DIRECTION('',(0.,-6.12323399573677E-17,-1.));
#156=DIRECTION('',(0.,1.,-6.12323399573677E-17));
#157=DIRECTION('',(0.,-6.12323399573677E-17,-1.));
#158=DIRECTION('',(0.,1.,-6.12323399573677E-17));
#159=DIRECTION('',(0.,-6.12323399573677E-17,-1.));
#160=DIRECTION('',(0.,1.,-6.12323399573677E-17));
#161=DIRECTION('',(0.,-6.12323399573677E-17,-1.));
#162=DIRECTION('',(0.,1.,-6.12323399573677E-17));
#163=DIRECTION('',(0.,6.12323399573677E-17,1.));
#164=DIRECTION('',(0.,-1.,6.12323399573677E-17));
#165=DIRECTION('',(0.,-6.12323399573677E-17,-1.));
#166=DIRECTION('',(0.,1.,-6.12323399573677E-17));
#167=DIRECTION('',(0.,-6.12323399573677E-17,-1.));
#168=DIRECTION('',(0.,1.,-6.12323399573677E-17));
#169=DIRECTION('',(0.,-6.12323399573677E-17,-1.));
#170=DIRECTION('',(0.,1.,-6.12323399573677E-17));
#171=DIRECTION('',(0.,-6.12323399573677E-17,-1.));
#172=DIRECTION('',(0.,1.,-6.12323399573677E-17));
#173=DIRECTION('',(0.,-6.12323399573677E-17,-1.));
#174=DIRECTION('',(0.,1.,-6.12323399573677E-17));
#175=DIRECTION('',(0.,-6.12323399573677E-17,-1.));
#176=DIRECTION('',(0.,1.,-6.12323399573677E-17));
#177=DIRECTION('',(0.,-6.12323399573677E-17,-1.));
#178=DIRECTION('',(0.,1.,-6.12323399573677E-17));
#179=DIRECTION('',(0.,-6.12323399573677E-17,-1.));
#180=DIRECTION('',(0.,1.,-6.12323399573677E-17));
#181=DIRECTION('',(0.,-6.12323399573677E-17,-1.));
#182=DIRECTION('',(0.,1.,-6.12323399573677E-17));
#183=DIRECTION('',(0.,-6.12323399573677E-17,-1.));
#184=DIRECTION('',(0.,1.,-6.12323399573677E-17));
#185=DIRECTION('',(0.,-6.12323399573677E-17,-1.));
#186=DIRECTION('',(0.,1.,-6.12323399573677E-17));
#187=DIRECTION('',(0.,-6.12323399573677E-17,-1.));
#188=DIRECTION('',(0.,1.,-6.12323399573677E-17));
#189=DIRECTION('',(0.,-6.12323399573677E-17,-1.));
#190=DIRECTION('',(0.,1.,-6.12323399573677E-17));
#191=DIRECTION('',(0.,6.12323399573677E-17,1.));
#192=DIRECTION('',(0.,-1.,6.12323399573677E-17));
#193=CARTESIAN_POINT('',(0.,0.,0.));
#194=CARTESIAN_POINT('',(0.,3.42901103761259E-15,56.));
#195=CARTESIAN_POINT('',(0.,3.42901103761259E-15,56.));
#196=CARTESIAN_POINT('',(0.,20.,56.));
#197=CARTESIAN_POINT('',(0.,0.,0.));
#198=CARTESIAN_POINT('',(0.,3.18408167778312E-15,52.));
#199=CARTESIAN_POINT('',(0.,20.,52.));
#200=CARTESIAN_POINT('',(0.,20.,52.));
#201=CARTESIAN_POINT('',(0.,3.18408167778312E-15,52.));
#202=CARTESIAN_POINT('',(0.,12.6,52.));
#203=CARTESIAN_POINT('',(0.,3.46944695195361E-15,50.6));
#204=CARTESIAN_POINT('',(0.,3.0983564018428E-15,50.6));
#205=CARTESIAN_POINT('',(0.,11.2,50.6));
#206=CARTESIAN_POINT('',(0.,0.,0.));
#207=CARTESIAN_POINT('',(0.,2.53501887423502E-15,41.4));
#208=CARTESIAN_POINT('',(0.,11.2,41.4));
#209=CARTESIAN_POINT('',(0.,1.73472347597681E-15,41.4));
#210=CARTESIAN_POINT('',(0.,2.44929359829471E-15,40.));
#211=CARTESIAN_POINT('',(0.,12.6,40.));
#212=CARTESIAN_POINT('',(0.,12.6,40.));
#213=CARTESIAN_POINT('',(0.,2.44929359829471E-15,40.));
#214=CARTESIAN_POINT('',(0.,14.,40.));
#215=CARTESIAN_POINT('',(0.,0.,0.));
#216=CARTESIAN_POINT('',(0.,8.57252759403147E-17,1.4));
#217=CARTESIAN_POINT('',(0.,14.,1.4));
#218=CARTESIAN_POINT('',(0.,0.,1.4));
#219=CARTESIAN_POINT('',(0.,2.06871387505889E-32,3.37846614468631E-16));
#220=CARTESIAN_POINT('',(0.,12.6,-4.33680868994202E-16));
#221=CARTESIAN_POINT('',(0.,12.6,-6.02604176228517E-16));
#222=MECHANICAL_DESIGN_GEOMETRIC_PRESENTATION_REPRESENTATION('',(#122),
#223);
#223=(
GEOMETRIC_REPRESENTATION_CONTEXT(3)
GLOBAL_UNCERTAINTY_ASSIGNED_CONTEXT((#224))
GLOBAL_UNIT_ASSIGNED_CONTEXT((#227,#226,#225))
REPRESENTATION_CONTEXT('194590 CQC-28H','TOP_LEVEL_ASSEMBLY_PART')
);
#224=UNCERTAINTY_MEASURE_WITH_UNIT(LENGTH_MEASURE(0.005),#227,
'DISTANCE_ACCURACY_VALUE','Maximum Tolerance applied to model');
#225=(
NAMED_UNIT(*)
SI_UNIT($,.STERADIAN.)
SOLID_ANGLE_UNIT()
);
#226=(
NAMED_UNIT(*)
PLANE_ANGLE_UNIT()
SI_UNIT($,.RADIAN.)
);
#227=(
LENGTH_UNIT()
NAMED_UNIT(*)
SI_UNIT(.MILLI.,.METRE.)
);
#228=PRODUCT_DEFINITION_SHAPE('','',#229);
#229=PRODUCT_DEFINITION('','',#231,#230);
#230=PRODUCT_DEFINITION_CONTEXT('',#237,'design');
#231=PRODUCT_DEFINITION_FORMATION_WITH_SPECIFIED_SOURCE('','',#233,
 .NOT_KNOWN.);
#232=PRODUCT_RELATED_PRODUCT_CATEGORY('','',(#233));
#233=PRODUCT('194590 CQC-28H','194590 CQC-28H','194590 CQC-28H',(#235));
#234=PRODUCT_CATEGORY('','');
#235=PRODUCT_CONTEXT('',#237,'mechanical');
#236=APPLICATION_PROTOCOL_DEFINITION('international standard',
'automotive_design',2010,#237);
#237=APPLICATION_CONTEXT(
'core data for automotive mechanical design processes');
ENDSEC;
END-ISO-10303-21;
