ISO-10303-21;
HEADER;
/* Generated by software containing ST-Developer
 * from STEP Tools, Inc. (www.steptools.com) 
 */
/* OPTION: using custom renumber hook */

FILE_DESCRIPTION(
/* description */ ('STEP AP214'),
/* implementation_level */ '2;1');

FILE_NAME(
/* name */ '19542_RTU-PK-2_3',
/* time_stamp */ '2024-09-14T22:24:17+02:00',
/* author */ ('License CC BY-ND 4.0'),
/* organization */ ('CADENAS'),
/* preprocessor_version */ 'ST-DEVELOPER v19.3',
/* originating_system */ 'PARTsolutions',
/* authorisation */ '  ');

FILE_SCHEMA (('AUTOMOTIVE_DESIGN {1 0 10303 214 3 1 1}'));
ENDSEC;

DATA;
#10=PROPERTY_DEFINITION_REPRESENTATION(#14,#12);
#11=PROPERTY_DEFINITION_REPRESENTATION(#15,#13);
#12=REPRESENTATION('',(#16),#577);
#13=REPRESENTATION('',(#17),#577);
#14=PROPERTY_DEFINITION('pmi validation property','',#582);
#15=PROPERTY_DEFINITION('pmi validation property','',#582);
#16=VALUE_REPRESENTATION_ITEM('number of annotations',COUNT_MEASURE(0.));
#17=VALUE_REPRESENTATION_ITEM('number of views',COUNT_MEASURE(0.));
#18=SHAPE_REPRESENTATION_RELATIONSHIP('','',#328,#19);
#19=ADVANCED_BREP_SHAPE_REPRESENTATION('',(#326),#577);
#20=CONICAL_SURFACE('',#343,1.1,0.436332312998583);
#21=CONICAL_SURFACE('',#367,1.8,0.785398163397452);
#22=CONICAL_SURFACE('',#379,1.79510565162951,0.314159265358979);
#23=CYLINDRICAL_SURFACE('',#335,0.75);
#24=CYLINDRICAL_SURFACE('',#341,1.1);
#25=CYLINDRICAL_SURFACE('',#347,1.475);
#26=CYLINDRICAL_SURFACE('',#353,1.25);
#27=CYLINDRICAL_SURFACE('',#359,2.5);
#28=CYLINDRICAL_SURFACE('',#365,1.8);
#29=CYLINDRICAL_SURFACE('',#369,1.5);
#30=CYLINDRICAL_SURFACE('',#375,1.8);
#31=CYLINDRICAL_SURFACE('',#383,1.5);
#32=PLANE('',#333);
#33=PLANE('',#337);
#34=PLANE('',#349);
#35=PLANE('',#357);
#36=PLANE('',#361);
#37=PLANE('',#373);
#38=ORIENTED_EDGE('',*,*,#92,.T.);
#39=ORIENTED_EDGE('',*,*,#93,.F.);
#40=ORIENTED_EDGE('',*,*,#94,.T.);
#41=ORIENTED_EDGE('',*,*,#92,.F.);
#42=ORIENTED_EDGE('',*,*,#95,.T.);
#43=ORIENTED_EDGE('',*,*,#94,.F.);
#44=ORIENTED_EDGE('',*,*,#96,.T.);
#45=ORIENTED_EDGE('',*,*,#95,.F.);
#46=ORIENTED_EDGE('',*,*,#97,.T.);
#47=ORIENTED_EDGE('',*,*,#96,.F.);
#48=ORIENTED_EDGE('',*,*,#98,.T.);
#49=ORIENTED_EDGE('',*,*,#97,.F.);
#50=ORIENTED_EDGE('',*,*,#99,.T.);
#51=ORIENTED_EDGE('',*,*,#98,.F.);
#52=ORIENTED_EDGE('',*,*,#100,.T.);
#53=ORIENTED_EDGE('',*,*,#99,.F.);
#54=ORIENTED_EDGE('',*,*,#101,.T.);
#55=ORIENTED_EDGE('',*,*,#100,.F.);
#56=ORIENTED_EDGE('',*,*,#102,.T.);
#57=ORIENTED_EDGE('',*,*,#101,.F.);
#58=ORIENTED_EDGE('',*,*,#102,.F.);
#59=ORIENTED_EDGE('',*,*,#103,.T.);
#60=ORIENTED_EDGE('',*,*,#104,.T.);
#61=ORIENTED_EDGE('',*,*,#103,.F.);
#62=ORIENTED_EDGE('',*,*,#104,.F.);
#63=ORIENTED_EDGE('',*,*,#105,.T.);
#64=ORIENTED_EDGE('',*,*,#106,.T.);
#65=ORIENTED_EDGE('',*,*,#105,.F.);
#66=ORIENTED_EDGE('',*,*,#107,.T.);
#67=ORIENTED_EDGE('',*,*,#106,.F.);
#68=ORIENTED_EDGE('',*,*,#108,.T.);
#69=ORIENTED_EDGE('',*,*,#107,.F.);
#70=ORIENTED_EDGE('',*,*,#108,.F.);
#71=ORIENTED_EDGE('',*,*,#109,.T.);
#72=ORIENTED_EDGE('',*,*,#110,.T.);
#73=ORIENTED_EDGE('',*,*,#109,.F.);
#74=ORIENTED_EDGE('',*,*,#111,.T.);
#75=ORIENTED_EDGE('',*,*,#110,.F.);
#76=ORIENTED_EDGE('',*,*,#112,.T.);
#77=ORIENTED_EDGE('',*,*,#111,.F.);
#78=ORIENTED_EDGE('',*,*,#112,.F.);
#79=ORIENTED_EDGE('',*,*,#113,.T.);
#80=ORIENTED_EDGE('',*,*,#114,.T.);
#81=ORIENTED_EDGE('',*,*,#113,.F.);
#82=ORIENTED_EDGE('',*,*,#115,.T.);
#83=ORIENTED_EDGE('',*,*,#114,.F.);
#84=ORIENTED_EDGE('',*,*,#116,.T.);
#85=ORIENTED_EDGE('',*,*,#115,.F.);
#86=ORIENTED_EDGE('',*,*,#117,.T.);
#87=ORIENTED_EDGE('',*,*,#116,.F.);
#88=ORIENTED_EDGE('',*,*,#117,.F.);
#89=ORIENTED_EDGE('',*,*,#118,.T.);
#90=ORIENTED_EDGE('',*,*,#93,.T.);
#91=ORIENTED_EDGE('',*,*,#118,.F.);
#92=EDGE_CURVE('',#119,#119,#146,.T.);
#93=EDGE_CURVE('',#120,#120,#147,.T.);
#94=EDGE_CURVE('',#121,#121,#148,.T.);
#95=EDGE_CURVE('',#122,#122,#149,.T.);
#96=EDGE_CURVE('',#123,#123,#150,.T.);
#97=EDGE_CURVE('',#124,#124,#151,.T.);
#98=EDGE_CURVE('',#125,#125,#152,.T.);
#99=EDGE_CURVE('',#126,#126,#153,.T.);
#100=EDGE_CURVE('',#127,#127,#154,.T.);
#101=EDGE_CURVE('',#128,#128,#155,.T.);
#102=EDGE_CURVE('',#129,#129,#156,.T.);
#103=EDGE_CURVE('',#130,#130,#157,.T.);
#104=EDGE_CURVE('',#131,#131,#158,.T.);
#105=EDGE_CURVE('',#132,#132,#159,.T.);
#106=EDGE_CURVE('',#133,#133,#160,.T.);
#107=EDGE_CURVE('',#134,#134,#161,.T.);
#108=EDGE_CURVE('',#135,#135,#162,.T.);
#109=EDGE_CURVE('',#136,#136,#163,.T.);
#110=EDGE_CURVE('',#137,#137,#164,.T.);
#111=EDGE_CURVE('',#138,#138,#165,.T.);
#112=EDGE_CURVE('',#139,#139,#166,.T.);
#113=EDGE_CURVE('',#140,#140,#167,.T.);
#114=EDGE_CURVE('',#141,#141,#168,.T.);
#115=EDGE_CURVE('',#142,#142,#169,.T.);
#116=EDGE_CURVE('',#143,#143,#170,.T.);
#117=EDGE_CURVE('',#144,#144,#171,.T.);
#118=EDGE_CURVE('',#145,#145,#172,.T.);
#119=VERTEX_POINT('',#497);
#120=VERTEX_POINT('',#499);
#121=VERTEX_POINT('',#502);
#122=VERTEX_POINT('',#505);
#123=VERTEX_POINT('',#508);
#124=VERTEX_POINT('',#511);
#125=VERTEX_POINT('',#514);
#126=VERTEX_POINT('',#517);
#127=VERTEX_POINT('',#520);
#128=VERTEX_POINT('',#523);
#129=VERTEX_POINT('',#526);
#130=VERTEX_POINT('',#529);
#131=VERTEX_POINT('',#532);
#132=VERTEX_POINT('',#535);
#133=VERTEX_POINT('',#538);
#134=VERTEX_POINT('',#541);
#135=VERTEX_POINT('',#544);
#136=VERTEX_POINT('',#547);
#137=VERTEX_POINT('',#550);
#138=VERTEX_POINT('',#553);
#139=VERTEX_POINT('',#556);
#140=VERTEX_POINT('',#559);
#141=VERTEX_POINT('',#562);
#142=VERTEX_POINT('',#565);
#143=VERTEX_POINT('',#568);
#144=VERTEX_POINT('',#571);
#145=VERTEX_POINT('',#574);
#146=CIRCLE('',#331,1.25);
#147=CIRCLE('',#332,1.5);
#148=CIRCLE('',#334,0.75);
#149=CIRCLE('',#336,0.75);
#150=CIRCLE('',#338,0.9);
#151=CIRCLE('',#340,1.1);
#152=CIRCLE('',#342,1.1);
#153=CIRCLE('',#344,1.46563077870367);
#154=CIRCLE('',#346,1.475);
#155=CIRCLE('',#348,1.475);
#156=CIRCLE('',#350,1.35);
#157=CIRCLE('',#352,1.25);
#158=CIRCLE('',#354,1.25);
#159=CIRCLE('',#356,1.45);
#160=CIRCLE('',#358,2.5);
#161=CIRCLE('',#360,2.5);
#162=CIRCLE('',#362,2.);
#163=CIRCLE('',#364,1.8);
#164=CIRCLE('',#366,1.8);
#165=CIRCLE('',#368,1.5);
#166=CIRCLE('',#370,1.5);
#167=CIRCLE('',#372,1.6);
#168=CIRCLE('',#374,1.8);
#169=CIRCLE('',#376,1.8);
#170=CIRCLE('',#378,1.79510565162951);
#171=CIRCLE('',#380,1.51957739348194);
#172=CIRCLE('',#382,1.5);
#173=EDGE_LOOP('',(#38));
#174=EDGE_LOOP('',(#39));
#175=EDGE_LOOP('',(#40));
#176=EDGE_LOOP('',(#41));
#177=EDGE_LOOP('',(#42));
#178=EDGE_LOOP('',(#43));
#179=EDGE_LOOP('',(#44));
#180=EDGE_LOOP('',(#45));
#181=EDGE_LOOP('',(#46));
#182=EDGE_LOOP('',(#47));
#183=EDGE_LOOP('',(#48));
#184=EDGE_LOOP('',(#49));
#185=EDGE_LOOP('',(#50));
#186=EDGE_LOOP('',(#51));
#187=EDGE_LOOP('',(#52));
#188=EDGE_LOOP('',(#53));
#189=EDGE_LOOP('',(#54));
#190=EDGE_LOOP('',(#55));
#191=EDGE_LOOP('',(#56));
#192=EDGE_LOOP('',(#57));
#193=EDGE_LOOP('',(#58));
#194=EDGE_LOOP('',(#59));
#195=EDGE_LOOP('',(#60));
#196=EDGE_LOOP('',(#61));
#197=EDGE_LOOP('',(#62));
#198=EDGE_LOOP('',(#63));
#199=EDGE_LOOP('',(#64));
#200=EDGE_LOOP('',(#65));
#201=EDGE_LOOP('',(#66));
#202=EDGE_LOOP('',(#67));
#203=EDGE_LOOP('',(#68));
#204=EDGE_LOOP('',(#69));
#205=EDGE_LOOP('',(#70));
#206=EDGE_LOOP('',(#71));
#207=EDGE_LOOP('',(#72));
#208=EDGE_LOOP('',(#73));
#209=EDGE_LOOP('',(#74));
#210=EDGE_LOOP('',(#75));
#211=EDGE_LOOP('',(#76));
#212=EDGE_LOOP('',(#77));
#213=EDGE_LOOP('',(#78));
#214=EDGE_LOOP('',(#79));
#215=EDGE_LOOP('',(#80));
#216=EDGE_LOOP('',(#81));
#217=EDGE_LOOP('',(#82));
#218=EDGE_LOOP('',(#83));
#219=EDGE_LOOP('',(#84));
#220=EDGE_LOOP('',(#85));
#221=EDGE_LOOP('',(#86));
#222=EDGE_LOOP('',(#87));
#223=EDGE_LOOP('',(#88));
#224=EDGE_LOOP('',(#89));
#225=EDGE_LOOP('',(#90));
#226=EDGE_LOOP('',(#91));
#227=FACE_BOUND('',#173,.T.);
#228=FACE_BOUND('',#174,.T.);
#229=FACE_BOUND('',#175,.T.);
#230=FACE_BOUND('',#176,.T.);
#231=FACE_BOUND('',#177,.T.);
#232=FACE_BOUND('',#178,.T.);
#233=FACE_BOUND('',#179,.T.);
#234=FACE_BOUND('',#180,.T.);
#235=FACE_BOUND('',#181,.T.);
#236=FACE_BOUND('',#182,.T.);
#237=FACE_BOUND('',#183,.T.);
#238=FACE_BOUND('',#184,.T.);
#239=FACE_BOUND('',#185,.T.);
#240=FACE_BOUND('',#186,.T.);
#241=FACE_BOUND('',#187,.T.);
#242=FACE_BOUND('',#188,.T.);
#243=FACE_BOUND('',#189,.T.);
#244=FACE_BOUND('',#190,.T.);
#245=FACE_BOUND('',#191,.T.);
#246=FACE_BOUND('',#192,.T.);
#247=FACE_BOUND('',#193,.T.);
#248=FACE_BOUND('',#194,.T.);
#249=FACE_BOUND('',#195,.T.);
#250=FACE_BOUND('',#196,.T.);
#251=FACE_BOUND('',#197,.T.);
#252=FACE_BOUND('',#198,.T.);
#253=FACE_BOUND('',#199,.T.);
#254=FACE_BOUND('',#200,.T.);
#255=FACE_BOUND('',#201,.T.);
#256=FACE_BOUND('',#202,.T.);
#257=FACE_BOUND('',#203,.T.);
#258=FACE_BOUND('',#204,.T.);
#259=FACE_BOUND('',#205,.T.);
#260=FACE_BOUND('',#206,.T.);
#261=FACE_BOUND('',#207,.T.);
#262=FACE_BOUND('',#208,.T.);
#263=FACE_BOUND('',#209,.T.);
#264=FACE_BOUND('',#210,.T.);
#265=FACE_BOUND('',#211,.T.);
#266=FACE_BOUND('',#212,.T.);
#267=FACE_BOUND('',#213,.T.);
#268=FACE_BOUND('',#214,.T.);
#269=FACE_BOUND('',#215,.T.);
#270=FACE_BOUND('',#216,.T.);
#271=FACE_BOUND('',#217,.T.);
#272=FACE_BOUND('',#218,.T.);
#273=FACE_BOUND('',#219,.T.);
#274=FACE_BOUND('',#220,.T.);
#275=FACE_BOUND('',#221,.T.);
#276=FACE_BOUND('',#222,.T.);
#277=FACE_BOUND('',#223,.T.);
#278=FACE_BOUND('',#224,.T.);
#279=FACE_BOUND('',#225,.T.);
#280=FACE_BOUND('',#226,.T.);
#281=TOROIDAL_SURFACE('',#330,1.25,0.250000000000002);
#282=TOROIDAL_SURFACE('',#339,0.9,0.2);
#283=TOROIDAL_SURFACE('',#345,1.375,0.100000000000001);
#284=TOROIDAL_SURFACE('',#351,1.35,0.1);
#285=TOROIDAL_SURFACE('',#355,1.45,0.199999999999998);
#286=TOROIDAL_SURFACE('',#363,2.,0.200000000000002);
#287=TOROIDAL_SURFACE('',#371,1.59999999999999,0.0999999999999944);
#288=TOROIDAL_SURFACE('',#377,1.69999999999993,0.100000000000069);
#289=TOROIDAL_SURFACE('',#381,1.9,0.399999999999997);
#290=ADVANCED_FACE('',(#227,#228),#281,.T.);
#291=ADVANCED_FACE('',(#229,#230),#32,.T.);
#292=ADVANCED_FACE('',(#231,#232),#23,.F.);
#293=ADVANCED_FACE('',(#233,#234),#33,.T.);
#294=ADVANCED_FACE('',(#235,#236),#282,.T.);
#295=ADVANCED_FACE('',(#237,#238),#24,.T.);
#296=ADVANCED_FACE('',(#239,#240),#20,.T.);
#297=ADVANCED_FACE('',(#241,#242),#283,.T.);
#298=ADVANCED_FACE('',(#243,#244),#25,.T.);
#299=ADVANCED_FACE('',(#245,#246),#34,.T.);
#300=ADVANCED_FACE('',(#247,#248),#284,.F.);
#301=ADVANCED_FACE('',(#249,#250),#26,.T.);
#302=ADVANCED_FACE('',(#251,#252),#285,.F.);
#303=ADVANCED_FACE('',(#253,#254),#35,.T.);
#304=ADVANCED_FACE('',(#255,#256),#27,.T.);
#305=ADVANCED_FACE('',(#257,#258),#36,.T.);
#306=ADVANCED_FACE('',(#259,#260),#286,.F.);
#307=ADVANCED_FACE('',(#261,#262),#28,.T.);
#308=ADVANCED_FACE('',(#263,#264),#21,.T.);
#309=ADVANCED_FACE('',(#265,#266),#29,.T.);
#310=ADVANCED_FACE('',(#267,#268),#287,.F.);
#311=ADVANCED_FACE('',(#269,#270),#37,.T.);
#312=ADVANCED_FACE('',(#271,#272),#30,.T.);
#313=ADVANCED_FACE('',(#273,#274),#288,.T.);
#314=ADVANCED_FACE('',(#275,#276),#22,.T.);
#315=ADVANCED_FACE('',(#277,#278),#289,.F.);
#316=ADVANCED_FACE('',(#279,#280),#31,.T.);
#317=CLOSED_SHELL('',(#290,#291,#292,#293,#294,#295,#296,#297,#298,#299,
#300,#301,#302,#303,#304,#305,#306,#307,#308,#309,#310,#311,#312,#313,#314,
#315,#316));
#318=STYLED_ITEM('',(#319),#326);
#319=PRESENTATION_STYLE_ASSIGNMENT((#320));
#320=SURFACE_STYLE_USAGE(.BOTH.,#321);
#321=SURFACE_SIDE_STYLE('',(#322));
#322=SURFACE_STYLE_FILL_AREA(#323);
#323=FILL_AREA_STYLE('',(#324));
#324=FILL_AREA_STYLE_COLOUR('',#325);
#325=COLOUR_RGB('',0.689999997615814,0.689999997615814,0.689999997615814);
#326=MANIFOLD_SOLID_BREP('19542 RTU-PK-2/3',#317);
#327=SHAPE_DEFINITION_REPRESENTATION(#582,#328);
#328=SHAPE_REPRESENTATION('19542 RTU-PK-2/3',(#329),#577);
#329=AXIS2_PLACEMENT_3D('',#494,#384,#385);
#330=AXIS2_PLACEMENT_3D('',#495,#386,#387);
#331=AXIS2_PLACEMENT_3D('',#496,#388,#389);
#332=AXIS2_PLACEMENT_3D('',#498,#390,#391);
#333=AXIS2_PLACEMENT_3D('',#500,#392,#393);
#334=AXIS2_PLACEMENT_3D('',#501,#394,#395);
#335=AXIS2_PLACEMENT_3D('',#503,#396,#397);
#336=AXIS2_PLACEMENT_3D('',#504,#398,#399);
#337=AXIS2_PLACEMENT_3D('',#506,#400,#401);
#338=AXIS2_PLACEMENT_3D('',#507,#402,#403);
#339=AXIS2_PLACEMENT_3D('',#509,#404,#405);
#340=AXIS2_PLACEMENT_3D('',#510,#406,#407);
#341=AXIS2_PLACEMENT_3D('',#512,#408,#409);
#342=AXIS2_PLACEMENT_3D('',#513,#410,#411);
#343=AXIS2_PLACEMENT_3D('',#515,#412,#413);
#344=AXIS2_PLACEMENT_3D('',#516,#414,#415);
#345=AXIS2_PLACEMENT_3D('',#518,#416,#417);
#346=AXIS2_PLACEMENT_3D('',#519,#418,#419);
#347=AXIS2_PLACEMENT_3D('',#521,#420,#421);
#348=AXIS2_PLACEMENT_3D('',#522,#422,#423);
#349=AXIS2_PLACEMENT_3D('',#524,#424,#425);
#350=AXIS2_PLACEMENT_3D('',#525,#426,#427);
#351=AXIS2_PLACEMENT_3D('',#527,#428,#429);
#352=AXIS2_PLACEMENT_3D('',#528,#430,#431);
#353=AXIS2_PLACEMENT_3D('',#530,#432,#433);
#354=AXIS2_PLACEMENT_3D('',#531,#434,#435);
#355=AXIS2_PLACEMENT_3D('',#533,#436,#437);
#356=AXIS2_PLACEMENT_3D('',#534,#438,#439);
#357=AXIS2_PLACEMENT_3D('',#536,#440,#441);
#358=AXIS2_PLACEMENT_3D('',#537,#442,#443);
#359=AXIS2_PLACEMENT_3D('',#539,#444,#445);
#360=AXIS2_PLACEMENT_3D('',#540,#446,#447);
#361=AXIS2_PLACEMENT_3D('',#542,#448,#449);
#362=AXIS2_PLACEMENT_3D('',#543,#450,#451);
#363=AXIS2_PLACEMENT_3D('',#545,#452,#453);
#364=AXIS2_PLACEMENT_3D('',#546,#454,#455);
#365=AXIS2_PLACEMENT_3D('',#548,#456,#457);
#366=AXIS2_PLACEMENT_3D('',#549,#458,#459);
#367=AXIS2_PLACEMENT_3D('',#551,#460,#461);
#368=AXIS2_PLACEMENT_3D('',#552,#462,#463);
#369=AXIS2_PLACEMENT_3D('',#554,#464,#465);
#370=AXIS2_PLACEMENT_3D('',#555,#466,#467);
#371=AXIS2_PLACEMENT_3D('',#557,#468,#469);
#372=AXIS2_PLACEMENT_3D('',#558,#470,#471);
#373=AXIS2_PLACEMENT_3D('',#560,#472,#473);
#374=AXIS2_PLACEMENT_3D('',#561,#474,#475);
#375=AXIS2_PLACEMENT_3D('',#563,#476,#477);
#376=AXIS2_PLACEMENT_3D('',#564,#478,#479);
#377=AXIS2_PLACEMENT_3D('',#566,#480,#481);
#378=AXIS2_PLACEMENT_3D('',#567,#482,#483);
#379=AXIS2_PLACEMENT_3D('',#569,#484,#485);
#380=AXIS2_PLACEMENT_3D('',#570,#486,#487);
#381=AXIS2_PLACEMENT_3D('',#572,#488,#489);
#382=AXIS2_PLACEMENT_3D('',#573,#490,#491);
#383=AXIS2_PLACEMENT_3D('',#575,#492,#493);
#384=DIRECTION('',(0.,0.,1.));
#385=DIRECTION('',(1.,0.,0.));
#386=DIRECTION('',(0.,0.,-1.));
#387=DIRECTION('',(-1.,0.,0.));
#388=DIRECTION('',(0.,0.,-1.));
#389=DIRECTION('',(-1.,0.,0.));
#390=DIRECTION('',(0.,0.,-1.));
#391=DIRECTION('',(-1.,0.,0.));
#392=DIRECTION('',(0.,0.,1.));
#393=DIRECTION('',(1.,0.,0.));
#394=DIRECTION('',(0.,0.,-1.));
#395=DIRECTION('',(-1.,0.,0.));
#396=DIRECTION('',(0.,0.,-1.));
#397=DIRECTION('',(-1.,0.,0.));
#398=DIRECTION('',(0.,0.,-1.));
#399=DIRECTION('',(-1.,0.,0.));
#400=DIRECTION('',(0.,0.,-1.));
#401=DIRECTION('',(-1.,0.,0.));
#402=DIRECTION('',(0.,0.,-1.));
#403=DIRECTION('',(-1.,0.,0.));
#404=DIRECTION('',(0.,0.,-1.));
#405=DIRECTION('',(-1.,0.,0.));
#406=DIRECTION('',(0.,0.,-1.));
#407=DIRECTION('',(-1.,0.,0.));
#408=DIRECTION('',(0.,0.,-1.));
#409=DIRECTION('',(-1.,0.,0.));
#410=DIRECTION('',(0.,0.,-1.));
#411=DIRECTION('',(-1.,0.,0.));
#412=DIRECTION('',(0.,0.,1.));
#413=DIRECTION('',(1.,0.,0.));
#414=DIRECTION('',(0.,0.,-1.));
#415=DIRECTION('',(-1.,0.,0.));
#416=DIRECTION('',(0.,0.,-1.));
#417=DIRECTION('',(-1.,0.,0.));
#418=DIRECTION('',(0.,0.,-1.));
#419=DIRECTION('',(-1.,0.,0.));
#420=DIRECTION('',(0.,0.,-1.));
#421=DIRECTION('',(-1.,0.,0.));
#422=DIRECTION('',(0.,0.,-1.));
#423=DIRECTION('',(-1.,0.,0.));
#424=DIRECTION('',(0.,0.,1.));
#425=DIRECTION('',(1.,0.,0.));
#426=DIRECTION('',(0.,0.,-1.));
#427=DIRECTION('',(-1.,0.,0.));
#428=DIRECTION('',(0.,0.,-1.));
#429=DIRECTION('',(-1.,0.,0.));
#430=DIRECTION('',(0.,0.,-1.));
#431=DIRECTION('',(-1.,0.,0.));
#432=DIRECTION('',(0.,0.,-1.));
#433=DIRECTION('',(-1.,0.,0.));
#434=DIRECTION('',(0.,0.,-1.));
#435=DIRECTION('',(-1.,0.,0.));
#436=DIRECTION('',(0.,0.,-1.));
#437=DIRECTION('',(-1.,0.,0.));
#438=DIRECTION('',(0.,0.,-1.));
#439=DIRECTION('',(-1.,0.,0.));
#440=DIRECTION('',(0.,0.,-1.));
#441=DIRECTION('',(-1.,0.,0.));
#442=DIRECTION('',(0.,0.,-1.));
#443=DIRECTION('',(-1.,0.,0.));
#444=DIRECTION('',(0.,0.,-1.));
#445=DIRECTION('',(-1.,0.,0.));
#446=DIRECTION('',(0.,0.,-1.));
#447=DIRECTION('',(-1.,0.,0.));
#448=DIRECTION('',(0.,0.,1.));
#449=DIRECTION('',(1.,0.,0.));
#450=DIRECTION('',(0.,0.,-1.));
#451=DIRECTION('',(-1.,0.,0.));
#452=DIRECTION('',(0.,0.,-1.));
#453=DIRECTION('',(-1.,0.,0.));
#454=DIRECTION('',(0.,0.,-1.));
#455=DIRECTION('',(-1.,0.,0.));
#456=DIRECTION('',(0.,0.,-1.));
#457=DIRECTION('',(-1.,0.,0.));
#458=DIRECTION('',(0.,0.,-1.));
#459=DIRECTION('',(-1.,0.,0.));
#460=DIRECTION('',(0.,0.,-1.));
#461=DIRECTION('',(-1.,0.,0.));
#462=DIRECTION('',(0.,0.,-1.));
#463=DIRECTION('',(-1.,0.,0.));
#464=DIRECTION('',(0.,0.,-1.));
#465=DIRECTION('',(-1.,0.,0.));
#466=DIRECTION('',(0.,0.,-1.));
#467=DIRECTION('',(-1.,0.,0.));
#468=DIRECTION('',(0.,0.,-1.));
#469=DIRECTION('',(-1.,0.,0.));
#470=DIRECTION('',(0.,0.,-1.));
#471=DIRECTION('',(-1.,0.,0.));
#472=DIRECTION('',(0.,0.,-1.));
#473=DIRECTION('',(-1.,0.,0.));
#474=DIRECTION('',(0.,0.,-1.));
#475=DIRECTION('',(-1.,0.,0.));
#476=DIRECTION('',(0.,0.,-1.));
#477=DIRECTION('',(-1.,0.,0.));
#478=DIRECTION('',(0.,0.,-1.));
#479=DIRECTION('',(-1.,0.,0.));
#480=DIRECTION('',(0.,0.,-1.));
#481=DIRECTION('',(-1.,0.,0.));
#482=DIRECTION('',(0.,0.,-1.));
#483=DIRECTION('',(-1.,0.,0.));
#484=DIRECTION('',(0.,0.,-1.));
#485=DIRECTION('',(-1.,0.,0.));
#486=DIRECTION('',(0.,0.,-1.));
#487=DIRECTION('',(-1.,0.,0.));
#488=DIRECTION('',(0.,0.,-1.));
#489=DIRECTION('',(-1.,0.,0.));
#490=DIRECTION('',(0.,0.,-1.));
#491=DIRECTION('',(-1.,0.,0.));
#492=DIRECTION('',(0.,0.,-1.));
#493=DIRECTION('',(-1.,0.,0.));
#494=CARTESIAN_POINT('',(0.,0.,0.));
#495=CARTESIAN_POINT('',(0.,0.,17.45));
#496=CARTESIAN_POINT('',(0.,0.,17.7));
#497=CARTESIAN_POINT('',(-1.25,0.,17.7));
#498=CARTESIAN_POINT('',(0.,0.,17.45));
#499=CARTESIAN_POINT('',(-1.5,0.,17.45));
#500=CARTESIAN_POINT('',(0.,1.25,17.7));
#501=CARTESIAN_POINT('',(0.,0.,17.7));
#502=CARTESIAN_POINT('',(-0.75,0.,17.7));
#503=CARTESIAN_POINT('',(0.,0.,0.));
#504=CARTESIAN_POINT('',(0.,0.,0.));
#505=CARTESIAN_POINT('',(-0.75,0.,0.));
#506=CARTESIAN_POINT('',(0.,0.75,0.));
#507=CARTESIAN_POINT('',(0.,0.,0.));
#508=CARTESIAN_POINT('',(-0.9,0.,0.));
#509=CARTESIAN_POINT('',(0.,0.,0.2));
#510=CARTESIAN_POINT('',(0.,0.,0.2));
#511=CARTESIAN_POINT('',(-1.1,0.,0.2));
#512=CARTESIAN_POINT('',(0.,0.,0.));
#513=CARTESIAN_POINT('',(0.,0.,0.695809904808916));
#514=CARTESIAN_POINT('',(-1.1,0.,0.695809904808916));
#515=CARTESIAN_POINT('',(0.,0.,0.695809904808916));
#516=CARTESIAN_POINT('',(0.,0.,1.47990764009022));
#517=CARTESIAN_POINT('',(-1.46563077870367,0.,1.47990764009022));
#518=CARTESIAN_POINT('',(0.,0.,1.52216946626429));
#519=CARTESIAN_POINT('',(0.,0.,1.52216946626429));
#520=CARTESIAN_POINT('',(-1.475,0.,1.52216946626429));
#521=CARTESIAN_POINT('',(0.,0.,0.));
#522=CARTESIAN_POINT('',(0.,0.,1.7));
#523=CARTESIAN_POINT('',(-1.475,0.,1.7));
#524=CARTESIAN_POINT('',(0.,1.475,1.7));
#525=CARTESIAN_POINT('',(0.,0.,1.7));
#526=CARTESIAN_POINT('',(-1.35,0.,1.7));
#527=CARTESIAN_POINT('',(0.,0.,1.8));
#528=CARTESIAN_POINT('',(0.,0.,1.8));
#529=CARTESIAN_POINT('',(-1.25,0.,1.8));
#530=CARTESIAN_POINT('',(0.,0.,0.));
#531=CARTESIAN_POINT('',(0.,0.,5.8));
#532=CARTESIAN_POINT('',(-1.25,0.,5.8));
#533=CARTESIAN_POINT('',(0.,0.,5.8));
#534=CARTESIAN_POINT('',(0.,0.,6.));
#535=CARTESIAN_POINT('',(-1.45,0.,6.));
#536=CARTESIAN_POINT('',(0.,1.45,6.));
#537=CARTESIAN_POINT('',(0.,0.,6.));
#538=CARTESIAN_POINT('',(-2.5,0.,6.));
#539=CARTESIAN_POINT('',(0.,0.,0.));
#540=CARTESIAN_POINT('',(0.,0.,8.));
#541=CARTESIAN_POINT('',(-2.5,0.,8.));
#542=CARTESIAN_POINT('',(0.,2.5,8.));
#543=CARTESIAN_POINT('',(0.,0.,8.));
#544=CARTESIAN_POINT('',(-2.,0.,8.));
#545=CARTESIAN_POINT('',(0.,0.,8.2));
#546=CARTESIAN_POINT('',(0.,0.,8.2));
#547=CARTESIAN_POINT('',(-1.8,0.,8.2));
#548=CARTESIAN_POINT('',(0.,0.,0.));
#549=CARTESIAN_POINT('',(0.,0.,10.95));
#550=CARTESIAN_POINT('',(-1.8,0.,10.95));
#551=CARTESIAN_POINT('',(0.,0.,10.95));
#552=CARTESIAN_POINT('',(0.,0.,11.25));
#553=CARTESIAN_POINT('',(-1.5,0.,11.25));
#554=CARTESIAN_POINT('',(0.,0.,0.));
#555=CARTESIAN_POINT('',(0.,0.,15.7));
#556=CARTESIAN_POINT('',(-1.5,0.,15.7));
#557=CARTESIAN_POINT('',(0.,0.,15.7));
#558=CARTESIAN_POINT('',(0.,0.,15.8));
#559=CARTESIAN_POINT('',(-1.6,0.,15.8));
#560=CARTESIAN_POINT('',(0.,1.6,15.8));
#561=CARTESIAN_POINT('',(0.,0.,15.8));
#562=CARTESIAN_POINT('',(-1.8,0.,15.8));
#563=CARTESIAN_POINT('',(0.,0.,0.));
#564=CARTESIAN_POINT('',(0.,0.,15.9841615559675));
#565=CARTESIAN_POINT('',(-1.8,0.,15.9841615559675));
#566=CARTESIAN_POINT('',(0.,0.,15.9841615559675));
#567=CARTESIAN_POINT('',(0.,0.,16.015063255405));
#568=CARTESIAN_POINT('',(-1.79510565162951,0.,16.015063255405));
#569=CARTESIAN_POINT('',(0.,0.,16.015063255405));
#570=CARTESIAN_POINT('',(0.,0.,16.8630520395324));
#571=CARTESIAN_POINT('',(-1.51957739348194,0.,16.8630520395324));
#572=CARTESIAN_POINT('',(0.,0.,16.9866588372824));
#573=CARTESIAN_POINT('',(0.,0.,16.9866588372824));
#574=CARTESIAN_POINT('',(-1.5,0.,16.9866588372824));
#575=CARTESIAN_POINT('',(0.,0.,0.));
#576=MECHANICAL_DESIGN_GEOMETRIC_PRESENTATION_REPRESENTATION('',(#318),
#577);
#577=(
GEOMETRIC_REPRESENTATION_CONTEXT(3)
GLOBAL_UNCERTAINTY_ASSIGNED_CONTEXT((#578))
GLOBAL_UNIT_ASSIGNED_CONTEXT((#581,#580,#579))
REPRESENTATION_CONTEXT('19542 RTU-PK-2/3','TOP_LEVEL_ASSEMBLY_PART')
);
#578=UNCERTAINTY_MEASURE_WITH_UNIT(LENGTH_MEASURE(0.005),#581,
'DISTANCE_ACCURACY_VALUE','Maximum Tolerance applied to model');
#579=(
NAMED_UNIT(*)
SI_UNIT($,.STERADIAN.)
SOLID_ANGLE_UNIT()
);
#580=(
NAMED_UNIT(*)
PLANE_ANGLE_UNIT()
SI_UNIT($,.RADIAN.)
);
#581=(
LENGTH_UNIT()
NAMED_UNIT(*)
SI_UNIT(.MILLI.,.METRE.)
);
#582=PRODUCT_DEFINITION_SHAPE('','',#583);
#583=PRODUCT_DEFINITION('','',#585,#584);
#584=PRODUCT_DEFINITION_CONTEXT('',#591,'design');
#585=PRODUCT_DEFINITION_FORMATION_WITH_SPECIFIED_SOURCE('','',#587,
 .NOT_KNOWN.);
#586=PRODUCT_RELATED_PRODUCT_CATEGORY('','',(#587));
#587=PRODUCT('19542 RTU-PK-2/3','19542 RTU-PK-2/3','19542 RTU-PK-2/3',(#589));
#588=PRODUCT_CATEGORY('','');
#589=PRODUCT_CONTEXT('',#591,'mechanical');
#590=APPLICATION_PROTOCOL_DEFINITION('international standard',
'automotive_design',2010,#591);
#591=APPLICATION_CONTEXT(
'core data for automotive mechanical design processes');
ENDSEC;
END-ISO-10303-21;
