ISO-10303-21;
HEADER;
/* Generated by software containing ST-Developer
 * from STEP Tools, Inc. (www.steptools.com) 
 */
/* OPTION: using custom renumber hook */

FILE_DESCRIPTION(
/* description */ ('STEP AP214'),
/* implementation_level */ '2;1');

FILE_NAME(
/* name */ '195865_WBN-50_63',
/* time_stamp */ '2024-09-16T12:59:26+02:00',
/* author */ ('License CC BY-ND 4.0'),
/* organization */ ('CADENAS'),
/* preprocessor_version */ 'ST-DEVELOPER v19.3',
/* originating_system */ 'PARTsolutions',
/* authorisation */ '  ');

FILE_SCHEMA (('AUTOMOTIVE_DESIGN {1 0 10303 214 3 1 1}'));
ENDSEC;

DATA;
#10=PROPERTY_DEFINITION_REPRESENTATION(#14,#12);
#11=PROPERTY_DEFINITION_REPRESENTATION(#15,#13);
#12=REPRESENTATION('',(#16),#339);
#13=REPRESENTATION('',(#17),#339);
#14=PROPERTY_DEFINITION('pmi validation property','',#344);
#15=PROPERTY_DEFINITION('pmi validation property','',#344);
#16=VALUE_REPRESENTATION_ITEM('number of annotations',COUNT_MEASURE(0.));
#17=VALUE_REPRESENTATION_ITEM('number of views',COUNT_MEASURE(0.));
#18=SHAPE_REPRESENTATION_RELATIONSHIP('','',#209,#19);
#19=ADVANCED_BREP_SHAPE_REPRESENTATION('',(#207),#339);
#20=CONICAL_SURFACE('',#227,23.05,0.785398163397442);
#21=CONICAL_SURFACE('',#231,22.55,0.785398163397448);
#22=LINE('',#296,#34);
#23=LINE('',#299,#35);
#24=LINE('',#301,#36);
#25=LINE('',#303,#37);
#26=LINE('',#305,#38);
#27=LINE('',#307,#39);
#28=LINE('',#309,#40);
#29=LINE('',#313,#41);
#30=LINE('',#315,#42);
#31=LINE('',#317,#43);
#32=LINE('',#319,#44);
#33=LINE('',#320,#45);
#34=VECTOR('',#244,1000.);
#35=VECTOR('',#245,1000.);
#36=VECTOR('',#246,1000.);
#37=VECTOR('',#247,1000.);
#38=VECTOR('',#250,1000.);
#39=VECTOR('',#251,1000.);
#40=VECTOR('',#252,1000.);
#41=VECTOR('',#257,1000.);
#42=VECTOR('',#258,1000.);
#43=VECTOR('',#259,1000.);
#44=VECTOR('',#262,1000.);
#45=VECTOR('',#263,1000.);
#46=PLANE('',#215);
#47=PLANE('',#216);
#48=PLANE('',#217);
#49=PLANE('',#219);
#50=PLANE('',#220);
#51=PLANE('',#222);
#52=SPHERICAL_SURFACE('',#214,12.);
#53=SPHERICAL_SURFACE('',#224,12.0000000000001);
#54=ORIENTED_EDGE('',*,*,#94,.F.);
#55=ORIENTED_EDGE('',*,*,#95,.T.);
#56=ORIENTED_EDGE('',*,*,#95,.F.);
#57=ORIENTED_EDGE('',*,*,#94,.T.);
#58=ORIENTED_EDGE('',*,*,#96,.T.);
#59=ORIENTED_EDGE('',*,*,#97,.F.);
#60=ORIENTED_EDGE('',*,*,#98,.F.);
#61=ORIENTED_EDGE('',*,*,#99,.T.);
#62=ORIENTED_EDGE('',*,*,#100,.T.);
#63=ORIENTED_EDGE('',*,*,#101,.F.);
#64=ORIENTED_EDGE('',*,*,#102,.F.);
#65=ORIENTED_EDGE('',*,*,#97,.T.);
#66=ORIENTED_EDGE('',*,*,#103,.T.);
#67=ORIENTED_EDGE('',*,*,#104,.T.);
#68=ORIENTED_EDGE('',*,*,#105,.F.);
#69=ORIENTED_EDGE('',*,*,#106,.F.);
#70=ORIENTED_EDGE('',*,*,#101,.T.);
#71=ORIENTED_EDGE('',*,*,#107,.T.);
#72=ORIENTED_EDGE('',*,*,#99,.F.);
#73=ORIENTED_EDGE('',*,*,#108,.F.);
#74=ORIENTED_EDGE('',*,*,#105,.T.);
#75=ORIENTED_EDGE('',*,*,#109,.F.);
#76=ORIENTED_EDGE('',*,*,#98,.T.);
#77=ORIENTED_EDGE('',*,*,#102,.T.);
#78=ORIENTED_EDGE('',*,*,#106,.T.);
#79=ORIENTED_EDGE('',*,*,#108,.T.);
#80=ORIENTED_EDGE('',*,*,#110,.T.);
#81=ORIENTED_EDGE('',*,*,#96,.F.);
#82=ORIENTED_EDGE('',*,*,#107,.F.);
#83=ORIENTED_EDGE('',*,*,#104,.F.);
#84=ORIENTED_EDGE('',*,*,#100,.F.);
#85=ORIENTED_EDGE('',*,*,#111,.T.);
#86=ORIENTED_EDGE('',*,*,#111,.F.);
#87=ORIENTED_EDGE('',*,*,#103,.F.);
#88=ORIENTED_EDGE('',*,*,#112,.T.);
#89=ORIENTED_EDGE('',*,*,#110,.F.);
#90=ORIENTED_EDGE('',*,*,#113,.T.);
#91=ORIENTED_EDGE('',*,*,#112,.F.);
#92=ORIENTED_EDGE('',*,*,#109,.T.);
#93=ORIENTED_EDGE('',*,*,#113,.F.);
#94=EDGE_CURVE('',#114,#114,#130,.T.);
#95=EDGE_CURVE('',#115,#115,#131,.T.);
#96=EDGE_CURVE('',#116,#117,#22,.T.);
#97=EDGE_CURVE('',#118,#117,#23,.T.);
#98=EDGE_CURVE('',#119,#118,#24,.T.);
#99=EDGE_CURVE('',#119,#116,#25,.T.);
#100=EDGE_CURVE('',#117,#120,#26,.T.);
#101=EDGE_CURVE('',#121,#120,#27,.T.);
#102=EDGE_CURVE('',#118,#121,#28,.T.);
#103=EDGE_CURVE('',#122,#122,#132,.T.);
#104=EDGE_CURVE('',#120,#123,#29,.T.);
#105=EDGE_CURVE('',#124,#123,#30,.T.);
#106=EDGE_CURVE('',#121,#124,#31,.T.);
#107=EDGE_CURVE('',#123,#116,#32,.T.);
#108=EDGE_CURVE('',#124,#119,#33,.T.);
#109=EDGE_CURVE('',#125,#125,#133,.T.);
#110=EDGE_CURVE('',#126,#126,#134,.T.);
#111=EDGE_CURVE('',#127,#127,#135,.T.);
#112=EDGE_CURVE('',#128,#128,#136,.T.);
#113=EDGE_CURVE('',#129,#129,#137,.T.);
#114=VERTEX_POINT('',#291);
#115=VERTEX_POINT('',#293);
#116=VERTEX_POINT('',#297);
#117=VERTEX_POINT('',#298);
#118=VERTEX_POINT('',#300);
#119=VERTEX_POINT('',#302);
#120=VERTEX_POINT('',#306);
#121=VERTEX_POINT('',#308);
#122=VERTEX_POINT('',#312);
#123=VERTEX_POINT('',#314);
#124=VERTEX_POINT('',#316);
#125=VERTEX_POINT('',#323);
#126=VERTEX_POINT('',#326);
#127=VERTEX_POINT('',#329);
#128=VERTEX_POINT('',#333);
#129=VERTEX_POINT('',#336);
#130=CIRCLE('',#212,6.);
#131=CIRCLE('',#213,6.);
#132=CIRCLE('',#218,6.);
#133=CIRCLE('',#221,23.05);
#134=CIRCLE('',#223,23.05);
#135=CIRCLE('',#225,6.);
#136=CIRCLE('',#228,22.55);
#137=CIRCLE('',#230,22.55);
#138=EDGE_LOOP('',(#54));
#139=EDGE_LOOP('',(#55));
#140=EDGE_LOOP('',(#56));
#141=EDGE_LOOP('',(#57));
#142=EDGE_LOOP('',(#58,#59,#60,#61));
#143=EDGE_LOOP('',(#62,#63,#64,#65));
#144=EDGE_LOOP('',(#66));
#145=EDGE_LOOP('',(#67,#68,#69,#70));
#146=EDGE_LOOP('',(#71,#72,#73,#74));
#147=EDGE_LOOP('',(#75));
#148=EDGE_LOOP('',(#76,#77,#78,#79));
#149=EDGE_LOOP('',(#80));
#150=EDGE_LOOP('',(#81,#82,#83,#84));
#151=EDGE_LOOP('',(#85));
#152=EDGE_LOOP('',(#86));
#153=EDGE_LOOP('',(#87));
#154=EDGE_LOOP('',(#88));
#155=EDGE_LOOP('',(#89));
#156=EDGE_LOOP('',(#90));
#157=EDGE_LOOP('',(#91));
#158=EDGE_LOOP('',(#92));
#159=EDGE_LOOP('',(#93));
#160=FACE_BOUND('',#138,.T.);
#161=FACE_BOUND('',#139,.T.);
#162=FACE_BOUND('',#140,.T.);
#163=FACE_BOUND('',#141,.T.);
#164=FACE_BOUND('',#142,.T.);
#165=FACE_BOUND('',#143,.T.);
#166=FACE_BOUND('',#144,.T.);
#167=FACE_BOUND('',#145,.T.);
#168=FACE_BOUND('',#146,.T.);
#169=FACE_BOUND('',#147,.T.);
#170=FACE_BOUND('',#148,.T.);
#171=FACE_BOUND('',#149,.T.);
#172=FACE_BOUND('',#150,.T.);
#173=FACE_BOUND('',#151,.T.);
#174=FACE_BOUND('',#152,.T.);
#175=FACE_BOUND('',#153,.T.);
#176=FACE_BOUND('',#154,.T.);
#177=FACE_BOUND('',#155,.T.);
#178=FACE_BOUND('',#156,.T.);
#179=FACE_BOUND('',#157,.T.);
#180=FACE_BOUND('',#158,.T.);
#181=FACE_BOUND('',#159,.T.);
#182=CYLINDRICAL_SURFACE('',#211,6.);
#183=CYLINDRICAL_SURFACE('',#226,6.);
#184=CYLINDRICAL_SURFACE('',#229,22.55);
#185=ADVANCED_FACE('',(#160,#161),#182,.T.);
#186=ADVANCED_FACE('',(#162),#52,.T.);
#187=ADVANCED_FACE('',(#163,#164),#46,.F.);
#188=ADVANCED_FACE('',(#165),#47,.F.);
#189=ADVANCED_FACE('',(#166,#167),#48,.F.);
#190=ADVANCED_FACE('',(#168),#49,.F.);
#191=ADVANCED_FACE('',(#169,#170),#50,.T.);
#192=ADVANCED_FACE('',(#171,#172),#51,.F.);
#193=ADVANCED_FACE('',(#173),#53,.T.);
#194=ADVANCED_FACE('',(#174,#175),#183,.T.);
#195=ADVANCED_FACE('',(#176,#177),#20,.F.);
#196=ADVANCED_FACE('',(#178,#179),#184,.F.);
#197=ADVANCED_FACE('',(#180,#181),#21,.F.);
#198=CLOSED_SHELL('',(#185,#186,#187,#188,#189,#190,#191,#192,#193,#194,
#195,#196,#197));
#199=STYLED_ITEM('',(#200),#207);
#200=PRESENTATION_STYLE_ASSIGNMENT((#201));
#201=SURFACE_STYLE_USAGE(.BOTH.,#202);
#202=SURFACE_SIDE_STYLE('',(#203));
#203=SURFACE_STYLE_FILL_AREA(#204);
#204=FILL_AREA_STYLE('',(#205));
#205=FILL_AREA_STYLE_COLOUR('',#206);
#206=COLOUR_RGB('',0.689999997615814,0.689999997615814,0.689999997615814);
#207=MANIFOLD_SOLID_BREP('195865 WBN-50/63',#198);
#208=SHAPE_DEFINITION_REPRESENTATION(#344,#209);
#209=SHAPE_REPRESENTATION('195865 WBN-50/63',(#210),#339);
#210=AXIS2_PLACEMENT_3D('',#288,#232,#233);
#211=AXIS2_PLACEMENT_3D('',#289,#234,#235);
#212=AXIS2_PLACEMENT_3D('',#290,#236,#237);
#213=AXIS2_PLACEMENT_3D('',#292,#238,#239);
#214=AXIS2_PLACEMENT_3D('',#294,#240,#241);
#215=AXIS2_PLACEMENT_3D('',#295,#242,#243);
#216=AXIS2_PLACEMENT_3D('',#304,#248,#249);
#217=AXIS2_PLACEMENT_3D('',#310,#253,#254);
#218=AXIS2_PLACEMENT_3D('',#311,#255,#256);
#219=AXIS2_PLACEMENT_3D('',#318,#260,#261);
#220=AXIS2_PLACEMENT_3D('',#321,#264,#265);
#221=AXIS2_PLACEMENT_3D('',#322,#266,#267);
#222=AXIS2_PLACEMENT_3D('',#324,#268,#269);
#223=AXIS2_PLACEMENT_3D('',#325,#270,#271);
#224=AXIS2_PLACEMENT_3D('',#327,#272,#273);
#225=AXIS2_PLACEMENT_3D('',#328,#274,#275);
#226=AXIS2_PLACEMENT_3D('',#330,#276,#277);
#227=AXIS2_PLACEMENT_3D('',#331,#278,#279);
#228=AXIS2_PLACEMENT_3D('',#332,#280,#281);
#229=AXIS2_PLACEMENT_3D('',#334,#282,#283);
#230=AXIS2_PLACEMENT_3D('',#335,#284,#285);
#231=AXIS2_PLACEMENT_3D('',#337,#286,#287);
#232=DIRECTION('',(0.,0.,1.));
#233=DIRECTION('',(1.,0.,0.));
#234=DIRECTION('',(0.,-1.,0.));
#235=DIRECTION('',(0.,0.,-1.));
#236=DIRECTION('',(0.,-1.,0.));
#237=DIRECTION('',(0.,0.,-1.));
#238=DIRECTION('',(0.,-1.,0.));
#239=DIRECTION('',(0.,0.,-1.));
#240=DIRECTION('',(0.,-1.,0.));
#241=DIRECTION('',(1.,0.,0.));
#242=DIRECTION('',(0.,-1.,0.));
#243=DIRECTION('',(0.,0.,-1.));
#244=DIRECTION('',(0.,0.,1.));
#245=DIRECTION('',(-1.,0.,0.));
#246=DIRECTION('',(0.,0.,1.));
#247=DIRECTION('',(-1.,0.,0.));
#248=DIRECTION('',(0.,0.,-1.));
#249=DIRECTION('',(-1.,0.,0.));
#250=DIRECTION('',(0.,-1.,0.));
#251=DIRECTION('',(-1.,0.,0.));
#252=DIRECTION('',(0.,-1.,0.));
#253=DIRECTION('',(0.,1.,0.));
#254=DIRECTION('',(0.,0.,1.));
#255=DIRECTION('',(0.,1.,0.));
#256=DIRECTION('',(0.,0.,1.));
#257=DIRECTION('',(0.,0.,-1.));
#258=DIRECTION('',(-1.,0.,0.));
#259=DIRECTION('',(0.,0.,-1.));
#260=DIRECTION('',(0.,0.,1.));
#261=DIRECTION('',(1.,0.,0.));
#262=DIRECTION('',(0.,1.,0.));
#263=DIRECTION('',(0.,1.,0.));
#264=DIRECTION('',(1.,0.,0.));
#265=DIRECTION('',(0.,0.,-1.));
#266=DIRECTION('',(1.,0.,0.));
#267=DIRECTION('',(0.,0.,-1.));
#268=DIRECTION('',(1.,0.,0.));
#269=DIRECTION('',(0.,0.,-1.));
#270=DIRECTION('',(1.,0.,0.));
#271=DIRECTION('',(0.,0.,-1.));
#272=DIRECTION('',(0.,-1.,0.));
#273=DIRECTION('',(-1.,0.,0.));
#274=DIRECTION('',(0.,-1.,0.));
#275=DIRECTION('',(0.,0.,-1.));
#276=DIRECTION('',(0.,-1.,0.));
#277=DIRECTION('',(0.,0.,-1.));
#278=DIRECTION('',(-1.,0.,0.));
#279=DIRECTION('',(0.,0.,1.));
#280=DIRECTION('',(1.,0.,0.));
#281=DIRECTION('',(0.,0.,-1.));
#282=DIRECTION('',(1.,0.,0.));
#283=DIRECTION('',(0.,0.,-1.));
#284=DIRECTION('',(1.,0.,0.));
#285=DIRECTION('',(0.,0.,-1.));
#286=DIRECTION('',(1.,0.,0.));
#287=DIRECTION('',(0.,0.,-1.));
#288=CARTESIAN_POINT('',(0.,0.,0.));
#289=CARTESIAN_POINT('',(0.,-58.,0.));
#290=CARTESIAN_POINT('',(0.,40.,0.));
#291=CARTESIAN_POINT('',(0.,40.,-6.));
#292=CARTESIAN_POINT('',(0.,56.3923048454133,0.));
#293=CARTESIAN_POINT('',(0.,56.3923048454133,-6.));
#294=CARTESIAN_POINT('',(-1.64798730217797E-14,46.,0.));
#295=CARTESIAN_POINT('',(10.,40.,-32.5));
#296=CARTESIAN_POINT('',(-10.,40.,-32.5));
#297=CARTESIAN_POINT('',(-10.,40.,-32.5));
#298=CARTESIAN_POINT('',(-10.,40.,32.5));
#299=CARTESIAN_POINT('',(10.,40.,32.5));
#300=CARTESIAN_POINT('',(10.,40.,32.5));
#301=CARTESIAN_POINT('',(10.,40.,-32.5));
#302=CARTESIAN_POINT('',(10.,40.,-32.5));
#303=CARTESIAN_POINT('',(10.,40.,-32.5));
#304=CARTESIAN_POINT('',(10.,40.,32.5));
#305=CARTESIAN_POINT('',(-10.,40.,32.5));
#306=CARTESIAN_POINT('',(-10.,-40.,32.5));
#307=CARTESIAN_POINT('',(10.,-40.,32.5));
#308=CARTESIAN_POINT('',(10.,-40.,32.5));
#309=CARTESIAN_POINT('',(10.,40.,32.5));
#310=CARTESIAN_POINT('',(10.,-40.,32.5));
#311=CARTESIAN_POINT('',(0.,-40.,0.));
#312=CARTESIAN_POINT('',(0.,-40.,6.));
#313=CARTESIAN_POINT('',(-10.,-40.,32.5));
#314=CARTESIAN_POINT('',(-10.,-40.,-32.5));
#315=CARTESIAN_POINT('',(10.,-40.,-32.5));
#316=CARTESIAN_POINT('',(10.,-40.,-32.5));
#317=CARTESIAN_POINT('',(10.,-40.,32.5));
#318=CARTESIAN_POINT('',(10.,-40.,-32.5));
#319=CARTESIAN_POINT('',(-10.,-40.,-32.5));
#320=CARTESIAN_POINT('',(10.,-40.,-32.5));
#321=CARTESIAN_POINT('',(10.,0.,0.));
#322=CARTESIAN_POINT('',(10.,0.,0.));
#323=CARTESIAN_POINT('',(10.,0.,-23.05));
#324=CARTESIAN_POINT('',(-10.,0.,0.));
#325=CARTESIAN_POINT('',(-10.,0.,0.));
#326=CARTESIAN_POINT('',(-10.,0.,-23.05));
#327=CARTESIAN_POINT('',(2.60208521396521E-15,-45.9999999999999,0.));
#328=CARTESIAN_POINT('',(0.,-56.3923048454133,0.));
#329=CARTESIAN_POINT('',(0.,-56.3923048454133,-6.));
#330=CARTESIAN_POINT('',(0.,-58.,0.));
#331=CARTESIAN_POINT('',(-10.,0.,0.));
#332=CARTESIAN_POINT('',(-9.5,0.,0.));
#333=CARTESIAN_POINT('',(-9.5,0.,-22.55));
#334=CARTESIAN_POINT('',(10.,0.,0.));
#335=CARTESIAN_POINT('',(9.5,0.,0.));
#336=CARTESIAN_POINT('',(9.5,0.,-22.55));
#337=CARTESIAN_POINT('',(9.5,0.,0.));
#338=MECHANICAL_DESIGN_GEOMETRIC_PRESENTATION_REPRESENTATION('',(#199),
#339);
#339=(
GEOMETRIC_REPRESENTATION_CONTEXT(3)
GLOBAL_UNCERTAINTY_ASSIGNED_CONTEXT((#340))
GLOBAL_UNIT_ASSIGNED_CONTEXT((#343,#342,#341))
REPRESENTATION_CONTEXT('195865 WBN-50/63','TOP_LEVEL_ASSEMBLY_PART')
);
#340=UNCERTAINTY_MEASURE_WITH_UNIT(LENGTH_MEASURE(0.005),#343,
'DISTANCE_ACCURACY_VALUE','Maximum Tolerance applied to model');
#341=(
NAMED_UNIT(*)
SI_UNIT($,.STERADIAN.)
SOLID_ANGLE_UNIT()
);
#342=(
NAMED_UNIT(*)
PLANE_ANGLE_UNIT()
SI_UNIT($,.RADIAN.)
);
#343=(
LENGTH_UNIT()
NAMED_UNIT(*)
SI_UNIT(.MILLI.,.METRE.)
);
#344=PRODUCT_DEFINITION_SHAPE('','',#345);
#345=PRODUCT_DEFINITION('','',#347,#346);
#346=PRODUCT_DEFINITION_CONTEXT('',#353,'design');
#347=PRODUCT_DEFINITION_FORMATION_WITH_SPECIFIED_SOURCE('','',#349,
 .NOT_KNOWN.);
#348=PRODUCT_RELATED_PRODUCT_CATEGORY('','',(#349));
#349=PRODUCT('195865 WBN-50/63','195865 WBN-50/63','195865 WBN-50/63',(#351));
#350=PRODUCT_CATEGORY('','');
#351=PRODUCT_CONTEXT('',#353,'mechanical');
#352=APPLICATION_PROTOCOL_DEFINITION('international standard',
'automotive_design',2010,#353);
#353=APPLICATION_CONTEXT(
'core data for automotive mechanical design processes');
ENDSEC;
END-ISO-10303-21;
