ISO-10303-21;
HEADER;
/* Generated by software containing ST-Developer
 * from STEP Tools, Inc. (www.steptools.com) 
 */
/* OPTION: using custom renumber hook */

FILE_DESCRIPTION(
/* description */ ('STEP AP214'),
/* implementation_level */ '2;1');

FILE_NAME(
/* name */ '196231_CQ-28H-22',
/* time_stamp */ '2024-08-07T22:00:28+02:00',
/* author */ ('License CC BY-ND 4.0'),
/* organization */ ('CADENAS'),
/* preprocessor_version */ 'ST-DEVELOPER v19.3',
/* originating_system */ 'PARTsolutions',
/* authorisation */ '  ');

FILE_SCHEMA (('AUTOMOTIVE_DESIGN {1 0 10303 214 3 1 1}'));
ENDSEC;

DATA;
#10=PROPERTY_DEFINITION_REPRESENTATION(#14,#12);
#11=PROPERTY_DEFINITION_REPRESENTATION(#15,#13);
#12=REPRESENTATION('',(#16),#777);
#13=REPRESENTATION('',(#17),#777);
#14=PROPERTY_DEFINITION('pmi validation property','',#782);
#15=PROPERTY_DEFINITION('pmi validation property','',#782);
#16=VALUE_REPRESENTATION_ITEM('number of annotations',COUNT_MEASURE(0.));
#17=VALUE_REPRESENTATION_ITEM('number of views',COUNT_MEASURE(0.));
#18=SHAPE_REPRESENTATION_RELATIONSHIP('','',#438,#19);
#19=ADVANCED_BREP_SHAPE_REPRESENTATION('',(#436),#777);
#20=CONICAL_SURFACE('',#457,15.9,0.785398163397448);
#21=CONICAL_SURFACE('',#461,16.9,0.785398163397448);
#22=CONICAL_SURFACE('',#471,17.6035533905933,0.78539816339745);
#23=CONICAL_SURFACE('',#479,16.5035533905933,0.785398163397449);
#24=CONICAL_SURFACE('',#509,9.75,0.0205538049323358);
#25=CONICAL_SURFACE('',#511,10.5,0.523598775598294);
#26=CYLINDRICAL_SURFACE('',#445,14.275);
#27=CYLINDRICAL_SURFACE('',#453,11.975);
#28=CYLINDRICAL_SURFACE('',#459,16.9);
#29=CYLINDRICAL_SURFACE('',#463,16.5);
#30=CYLINDRICAL_SURFACE('',#467,17.75);
#31=CYLINDRICAL_SURFACE('',#475,16.65);
#32=CYLINDRICAL_SURFACE('',#487,13.75);
#33=CYLINDRICAL_SURFACE('',#493,14.);
#34=CYLINDRICAL_SURFACE('',#501,11.);
#35=CYLINDRICAL_SURFACE('',#505,9.6);
#36=CYLINDRICAL_SURFACE('',#513,11.375);
#37=TOROIDAL_SURFACE('',#443,13.275,0.999999999999997);
#38=TOROIDAL_SURFACE('',#447,14.025,0.25);
#39=TOROIDAL_SURFACE('',#451,12.475,0.500000000000003);
#40=TOROIDAL_SURFACE('',#469,17.25,0.500000000000046);
#41=TOROIDAL_SURFACE('',#473,17.15,0.499999999999993);
#42=TOROIDAL_SURFACE('',#477,16.15,0.500000000000018);
#43=TOROIDAL_SURFACE('',#481,14.9428932188135,0.499999999999991);
#44=TOROIDAL_SURFACE('',#485,14.25,0.500000000000007);
#45=TOROIDAL_SURFACE('',#491,13.89,0.300000000000002);
#46=TOROIDAL_SURFACE('',#495,13.,0.999999999999985);
#47=TOROIDAL_SURFACE('',#499,11.75,0.750000000000001);
#48=ORIENTED_EDGE('',*,*,#122,.F.);
#49=ORIENTED_EDGE('',*,*,#123,.T.);
#50=ORIENTED_EDGE('',*,*,#122,.T.);
#51=ORIENTED_EDGE('',*,*,#124,.F.);
#52=ORIENTED_EDGE('',*,*,#125,.F.);
#53=ORIENTED_EDGE('',*,*,#124,.T.);
#54=ORIENTED_EDGE('',*,*,#125,.T.);
#55=ORIENTED_EDGE('',*,*,#126,.F.);
#56=ORIENTED_EDGE('',*,*,#127,.F.);
#57=ORIENTED_EDGE('',*,*,#126,.T.);
#58=ORIENTED_EDGE('',*,*,#128,.F.);
#59=ORIENTED_EDGE('',*,*,#127,.T.);
#60=ORIENTED_EDGE('',*,*,#129,.F.);
#61=ORIENTED_EDGE('',*,*,#128,.T.);
#62=ORIENTED_EDGE('',*,*,#130,.F.);
#63=ORIENTED_EDGE('',*,*,#129,.T.);
#64=ORIENTED_EDGE('',*,*,#131,.F.);
#65=ORIENTED_EDGE('',*,*,#130,.T.);
#66=ORIENTED_EDGE('',*,*,#132,.F.);
#67=ORIENTED_EDGE('',*,*,#131,.T.);
#68=ORIENTED_EDGE('',*,*,#133,.F.);
#69=ORIENTED_EDGE('',*,*,#132,.T.);
#70=ORIENTED_EDGE('',*,*,#134,.F.);
#71=ORIENTED_EDGE('',*,*,#133,.T.);
#72=ORIENTED_EDGE('',*,*,#135,.F.);
#73=ORIENTED_EDGE('',*,*,#134,.T.);
#74=ORIENTED_EDGE('',*,*,#136,.F.);
#75=ORIENTED_EDGE('',*,*,#135,.T.);
#76=ORIENTED_EDGE('',*,*,#136,.T.);
#77=ORIENTED_EDGE('',*,*,#137,.F.);
#78=ORIENTED_EDGE('',*,*,#138,.F.);
#79=ORIENTED_EDGE('',*,*,#137,.T.);
#80=ORIENTED_EDGE('',*,*,#139,.F.);
#81=ORIENTED_EDGE('',*,*,#138,.T.);
#82=ORIENTED_EDGE('',*,*,#140,.F.);
#83=ORIENTED_EDGE('',*,*,#139,.T.);
#84=ORIENTED_EDGE('',*,*,#140,.T.);
#85=ORIENTED_EDGE('',*,*,#141,.F.);
#86=ORIENTED_EDGE('',*,*,#142,.F.);
#87=ORIENTED_EDGE('',*,*,#141,.T.);
#88=ORIENTED_EDGE('',*,*,#142,.T.);
#89=ORIENTED_EDGE('',*,*,#143,.F.);
#90=ORIENTED_EDGE('',*,*,#144,.F.);
#91=ORIENTED_EDGE('',*,*,#143,.T.);
#92=ORIENTED_EDGE('',*,*,#145,.F.);
#93=ORIENTED_EDGE('',*,*,#144,.T.);
#94=ORIENTED_EDGE('',*,*,#146,.F.);
#95=ORIENTED_EDGE('',*,*,#145,.T.);
#96=ORIENTED_EDGE('',*,*,#147,.F.);
#97=ORIENTED_EDGE('',*,*,#146,.T.);
#98=ORIENTED_EDGE('',*,*,#147,.T.);
#99=ORIENTED_EDGE('',*,*,#148,.F.);
#100=ORIENTED_EDGE('',*,*,#149,.F.);
#101=ORIENTED_EDGE('',*,*,#148,.T.);
#102=ORIENTED_EDGE('',*,*,#149,.T.);
#103=ORIENTED_EDGE('',*,*,#150,.F.);
#104=ORIENTED_EDGE('',*,*,#151,.F.);
#105=ORIENTED_EDGE('',*,*,#150,.T.);
#106=ORIENTED_EDGE('',*,*,#152,.T.);
#107=ORIENTED_EDGE('',*,*,#123,.F.);
#108=ORIENTED_EDGE('',*,*,#153,.T.);
#109=ORIENTED_EDGE('',*,*,#152,.F.);
#110=ORIENTED_EDGE('',*,*,#154,.T.);
#111=ORIENTED_EDGE('',*,*,#153,.F.);
#112=ORIENTED_EDGE('',*,*,#155,.T.);
#113=ORIENTED_EDGE('',*,*,#154,.F.);
#114=ORIENTED_EDGE('',*,*,#156,.T.);
#115=ORIENTED_EDGE('',*,*,#155,.F.);
#116=ORIENTED_EDGE('',*,*,#157,.T.);
#117=ORIENTED_EDGE('',*,*,#156,.F.);
#118=ORIENTED_EDGE('',*,*,#158,.T.);
#119=ORIENTED_EDGE('',*,*,#157,.F.);
#120=ORIENTED_EDGE('',*,*,#151,.T.);
#121=ORIENTED_EDGE('',*,*,#158,.F.);
#122=EDGE_CURVE('',#159,#159,#196,.T.);
#123=EDGE_CURVE('',#160,#160,#197,.T.);
#124=EDGE_CURVE('',#161,#161,#198,.T.);
#125=EDGE_CURVE('',#162,#162,#199,.T.);
#126=EDGE_CURVE('',#163,#163,#200,.T.);
#127=EDGE_CURVE('',#164,#164,#201,.T.);
#128=EDGE_CURVE('',#165,#165,#202,.T.);
#129=EDGE_CURVE('',#166,#166,#203,.T.);
#130=EDGE_CURVE('',#167,#167,#204,.T.);
#131=EDGE_CURVE('',#168,#168,#205,.T.);
#132=EDGE_CURVE('',#169,#169,#206,.T.);
#133=EDGE_CURVE('',#170,#170,#207,.T.);
#134=EDGE_CURVE('',#171,#171,#208,.T.);
#135=EDGE_CURVE('',#172,#172,#209,.T.);
#136=EDGE_CURVE('',#173,#173,#210,.T.);
#137=EDGE_CURVE('',#174,#174,#211,.T.);
#138=EDGE_CURVE('',#175,#175,#212,.T.);
#139=EDGE_CURVE('',#176,#176,#213,.T.);
#140=EDGE_CURVE('',#177,#177,#214,.T.);
#141=EDGE_CURVE('',#178,#178,#215,.T.);
#142=EDGE_CURVE('',#179,#179,#216,.T.);
#143=EDGE_CURVE('',#180,#180,#217,.T.);
#144=EDGE_CURVE('',#181,#181,#218,.T.);
#145=EDGE_CURVE('',#182,#182,#219,.T.);
#146=EDGE_CURVE('',#183,#183,#220,.T.);
#147=EDGE_CURVE('',#184,#184,#221,.T.);
#148=EDGE_CURVE('',#185,#185,#222,.T.);
#149=EDGE_CURVE('',#186,#186,#223,.T.);
#150=EDGE_CURVE('',#187,#187,#224,.T.);
#151=EDGE_CURVE('',#188,#188,#225,.T.);
#152=EDGE_CURVE('',#189,#189,#226,.T.);
#153=EDGE_CURVE('',#190,#190,#227,.T.);
#154=EDGE_CURVE('',#191,#191,#228,.T.);
#155=EDGE_CURVE('',#192,#192,#229,.T.);
#156=EDGE_CURVE('',#193,#193,#230,.T.);
#157=EDGE_CURVE('',#194,#194,#231,.T.);
#158=EDGE_CURVE('',#195,#195,#232,.T.);
#159=VERTEX_POINT('',#667);
#160=VERTEX_POINT('',#669);
#161=VERTEX_POINT('',#672);
#162=VERTEX_POINT('',#675);
#163=VERTEX_POINT('',#678);
#164=VERTEX_POINT('',#681);
#165=VERTEX_POINT('',#684);
#166=VERTEX_POINT('',#687);
#167=VERTEX_POINT('',#690);
#168=VERTEX_POINT('',#693);
#169=VERTEX_POINT('',#696);
#170=VERTEX_POINT('',#699);
#171=VERTEX_POINT('',#702);
#172=VERTEX_POINT('',#705);
#173=VERTEX_POINT('',#708);
#174=VERTEX_POINT('',#711);
#175=VERTEX_POINT('',#714);
#176=VERTEX_POINT('',#717);
#177=VERTEX_POINT('',#720);
#178=VERTEX_POINT('',#723);
#179=VERTEX_POINT('',#726);
#180=VERTEX_POINT('',#729);
#181=VERTEX_POINT('',#732);
#182=VERTEX_POINT('',#735);
#183=VERTEX_POINT('',#738);
#184=VERTEX_POINT('',#741);
#185=VERTEX_POINT('',#744);
#186=VERTEX_POINT('',#747);
#187=VERTEX_POINT('',#750);
#188=VERTEX_POINT('',#753);
#189=VERTEX_POINT('',#756);
#190=VERTEX_POINT('',#759);
#191=VERTEX_POINT('',#762);
#192=VERTEX_POINT('',#765);
#193=VERTEX_POINT('',#768);
#194=VERTEX_POINT('',#771);
#195=VERTEX_POINT('',#774);
#196=CIRCLE('',#441,13.275);
#197=CIRCLE('',#442,11.75);
#198=CIRCLE('',#444,14.275);
#199=CIRCLE('',#446,14.275);
#200=CIRCLE('',#448,14.025);
#201=CIRCLE('',#450,12.475);
#202=CIRCLE('',#452,11.975);
#203=CIRCLE('',#454,11.975);
#204=CIRCLE('',#456,15.9);
#205=CIRCLE('',#458,16.9);
#206=CIRCLE('',#460,16.9);
#207=CIRCLE('',#462,16.5);
#208=CIRCLE('',#464,16.5);
#209=CIRCLE('',#466,17.75);
#210=CIRCLE('',#468,17.75);
#211=CIRCLE('',#470,17.6035533905933);
#212=CIRCLE('',#472,16.7964466094067);
#213=CIRCLE('',#474,16.65);
#214=CIRCLE('',#476,16.65);
#215=CIRCLE('',#478,16.5035533905933);
#216=CIRCLE('',#480,15.2964466094067);
#217=CIRCLE('',#482,14.9428932188135);
#218=CIRCLE('',#484,14.25);
#219=CIRCLE('',#486,13.75);
#220=CIRCLE('',#488,13.75);
#221=CIRCLE('',#490,13.89);
#222=CIRCLE('',#492,14.);
#223=CIRCLE('',#494,14.);
#224=CIRCLE('',#496,13.);
#225=CIRCLE('',#498,11.375);
#226=CIRCLE('',#500,11.);
#227=CIRCLE('',#502,11.);
#228=CIRCLE('',#504,9.6);
#229=CIRCLE('',#506,9.6);
#230=CIRCLE('',#508,9.75);
#231=CIRCLE('',#510,10.5);
#232=CIRCLE('',#512,11.375);
#233=EDGE_LOOP('',(#48));
#234=EDGE_LOOP('',(#49));
#235=EDGE_LOOP('',(#50));
#236=EDGE_LOOP('',(#51));
#237=EDGE_LOOP('',(#52));
#238=EDGE_LOOP('',(#53));
#239=EDGE_LOOP('',(#54));
#240=EDGE_LOOP('',(#55));
#241=EDGE_LOOP('',(#56));
#242=EDGE_LOOP('',(#57));
#243=EDGE_LOOP('',(#58));
#244=EDGE_LOOP('',(#59));
#245=EDGE_LOOP('',(#60));
#246=EDGE_LOOP('',(#61));
#247=EDGE_LOOP('',(#62));
#248=EDGE_LOOP('',(#63));
#249=EDGE_LOOP('',(#64));
#250=EDGE_LOOP('',(#65));
#251=EDGE_LOOP('',(#66));
#252=EDGE_LOOP('',(#67));
#253=EDGE_LOOP('',(#68));
#254=EDGE_LOOP('',(#69));
#255=EDGE_LOOP('',(#70));
#256=EDGE_LOOP('',(#71));
#257=EDGE_LOOP('',(#72));
#258=EDGE_LOOP('',(#73));
#259=EDGE_LOOP('',(#74));
#260=EDGE_LOOP('',(#75));
#261=EDGE_LOOP('',(#76));
#262=EDGE_LOOP('',(#77));
#263=EDGE_LOOP('',(#78));
#264=EDGE_LOOP('',(#79));
#265=EDGE_LOOP('',(#80));
#266=EDGE_LOOP('',(#81));
#267=EDGE_LOOP('',(#82));
#268=EDGE_LOOP('',(#83));
#269=EDGE_LOOP('',(#84));
#270=EDGE_LOOP('',(#85));
#271=EDGE_LOOP('',(#86));
#272=EDGE_LOOP('',(#87));
#273=EDGE_LOOP('',(#88));
#274=EDGE_LOOP('',(#89));
#275=EDGE_LOOP('',(#90));
#276=EDGE_LOOP('',(#91));
#277=EDGE_LOOP('',(#92));
#278=EDGE_LOOP('',(#93));
#279=EDGE_LOOP('',(#94));
#280=EDGE_LOOP('',(#95));
#281=EDGE_LOOP('',(#96));
#282=EDGE_LOOP('',(#97));
#283=EDGE_LOOP('',(#98));
#284=EDGE_LOOP('',(#99));
#285=EDGE_LOOP('',(#100));
#286=EDGE_LOOP('',(#101));
#287=EDGE_LOOP('',(#102));
#288=EDGE_LOOP('',(#103));
#289=EDGE_LOOP('',(#104));
#290=EDGE_LOOP('',(#105));
#291=EDGE_LOOP('',(#106));
#292=EDGE_LOOP('',(#107));
#293=EDGE_LOOP('',(#108));
#294=EDGE_LOOP('',(#109));
#295=EDGE_LOOP('',(#110));
#296=EDGE_LOOP('',(#111));
#297=EDGE_LOOP('',(#112));
#298=EDGE_LOOP('',(#113));
#299=EDGE_LOOP('',(#114));
#300=EDGE_LOOP('',(#115));
#301=EDGE_LOOP('',(#116));
#302=EDGE_LOOP('',(#117));
#303=EDGE_LOOP('',(#118));
#304=EDGE_LOOP('',(#119));
#305=EDGE_LOOP('',(#120));
#306=EDGE_LOOP('',(#121));
#307=FACE_BOUND('',#233,.T.);
#308=FACE_BOUND('',#234,.T.);
#309=FACE_BOUND('',#235,.T.);
#310=FACE_BOUND('',#236,.T.);
#311=FACE_BOUND('',#237,.T.);
#312=FACE_BOUND('',#238,.T.);
#313=FACE_BOUND('',#239,.T.);
#314=FACE_BOUND('',#240,.T.);
#315=FACE_BOUND('',#241,.T.);
#316=FACE_BOUND('',#242,.T.);
#317=FACE_BOUND('',#243,.T.);
#318=FACE_BOUND('',#244,.T.);
#319=FACE_BOUND('',#245,.T.);
#320=FACE_BOUND('',#246,.T.);
#321=FACE_BOUND('',#247,.T.);
#322=FACE_BOUND('',#248,.T.);
#323=FACE_BOUND('',#249,.T.);
#324=FACE_BOUND('',#250,.T.);
#325=FACE_BOUND('',#251,.T.);
#326=FACE_BOUND('',#252,.T.);
#327=FACE_BOUND('',#253,.T.);
#328=FACE_BOUND('',#254,.T.);
#329=FACE_BOUND('',#255,.T.);
#330=FACE_BOUND('',#256,.T.);
#331=FACE_BOUND('',#257,.T.);
#332=FACE_BOUND('',#258,.T.);
#333=FACE_BOUND('',#259,.T.);
#334=FACE_BOUND('',#260,.T.);
#335=FACE_BOUND('',#261,.T.);
#336=FACE_BOUND('',#262,.T.);
#337=FACE_BOUND('',#263,.T.);
#338=FACE_BOUND('',#264,.T.);
#339=FACE_BOUND('',#265,.T.);
#340=FACE_BOUND('',#266,.T.);
#341=FACE_BOUND('',#267,.T.);
#342=FACE_BOUND('',#268,.T.);
#343=FACE_BOUND('',#269,.T.);
#344=FACE_BOUND('',#270,.T.);
#345=FACE_BOUND('',#271,.T.);
#346=FACE_BOUND('',#272,.T.);
#347=FACE_BOUND('',#273,.T.);
#348=FACE_BOUND('',#274,.T.);
#349=FACE_BOUND('',#275,.T.);
#350=FACE_BOUND('',#276,.T.);
#351=FACE_BOUND('',#277,.T.);
#352=FACE_BOUND('',#278,.T.);
#353=FACE_BOUND('',#279,.T.);
#354=FACE_BOUND('',#280,.T.);
#355=FACE_BOUND('',#281,.T.);
#356=FACE_BOUND('',#282,.T.);
#357=FACE_BOUND('',#283,.T.);
#358=FACE_BOUND('',#284,.T.);
#359=FACE_BOUND('',#285,.T.);
#360=FACE_BOUND('',#286,.T.);
#361=FACE_BOUND('',#287,.T.);
#362=FACE_BOUND('',#288,.T.);
#363=FACE_BOUND('',#289,.T.);
#364=FACE_BOUND('',#290,.T.);
#365=FACE_BOUND('',#291,.T.);
#366=FACE_BOUND('',#292,.T.);
#367=FACE_BOUND('',#293,.T.);
#368=FACE_BOUND('',#294,.T.);
#369=FACE_BOUND('',#295,.T.);
#370=FACE_BOUND('',#296,.T.);
#371=FACE_BOUND('',#297,.T.);
#372=FACE_BOUND('',#298,.T.);
#373=FACE_BOUND('',#299,.T.);
#374=FACE_BOUND('',#300,.T.);
#375=FACE_BOUND('',#301,.T.);
#376=FACE_BOUND('',#302,.T.);
#377=FACE_BOUND('',#303,.T.);
#378=FACE_BOUND('',#304,.T.);
#379=FACE_BOUND('',#305,.T.);
#380=FACE_BOUND('',#306,.T.);
#381=PLANE('',#440);
#382=PLANE('',#449);
#383=PLANE('',#455);
#384=PLANE('',#465);
#385=PLANE('',#483);
#386=PLANE('',#489);
#387=PLANE('',#497);
#388=PLANE('',#503);
#389=PLANE('',#507);
#390=ADVANCED_FACE('',(#307,#308),#381,.F.);
#391=ADVANCED_FACE('',(#309,#310),#37,.T.);
#392=ADVANCED_FACE('',(#311,#312),#26,.T.);
#393=ADVANCED_FACE('',(#313,#314),#38,.T.);
#394=ADVANCED_FACE('',(#315,#316),#382,.F.);
#395=ADVANCED_FACE('',(#317,#318),#39,.F.);
#396=ADVANCED_FACE('',(#319,#320),#27,.T.);
#397=ADVANCED_FACE('',(#321,#322),#383,.F.);
#398=ADVANCED_FACE('',(#323,#324),#20,.T.);
#399=ADVANCED_FACE('',(#325,#326),#28,.T.);
#400=ADVANCED_FACE('',(#327,#328),#21,.T.);
#401=ADVANCED_FACE('',(#329,#330),#29,.T.);
#402=ADVANCED_FACE('',(#331,#332),#384,.F.);
#403=ADVANCED_FACE('',(#333,#334),#30,.T.);
#404=ADVANCED_FACE('',(#335,#336),#40,.T.);
#405=ADVANCED_FACE('',(#337,#338),#22,.T.);
#406=ADVANCED_FACE('',(#339,#340),#41,.F.);
#407=ADVANCED_FACE('',(#341,#342),#31,.T.);
#408=ADVANCED_FACE('',(#343,#344),#42,.T.);
#409=ADVANCED_FACE('',(#345,#346),#23,.T.);
#410=ADVANCED_FACE('',(#347,#348),#43,.T.);
#411=ADVANCED_FACE('',(#349,#350),#385,.F.);
#412=ADVANCED_FACE('',(#351,#352),#44,.F.);
#413=ADVANCED_FACE('',(#353,#354),#32,.T.);
#414=ADVANCED_FACE('',(#355,#356),#386,.F.);
#415=ADVANCED_FACE('',(#357,#358),#45,.T.);
#416=ADVANCED_FACE('',(#359,#360),#33,.T.);
#417=ADVANCED_FACE('',(#361,#362),#46,.T.);
#418=ADVANCED_FACE('',(#363,#364),#387,.F.);
#419=ADVANCED_FACE('',(#365,#366),#47,.T.);
#420=ADVANCED_FACE('',(#367,#368),#34,.F.);
#421=ADVANCED_FACE('',(#369,#370),#388,.T.);
#422=ADVANCED_FACE('',(#371,#372),#35,.F.);
#423=ADVANCED_FACE('',(#373,#374),#389,.T.);
#424=ADVANCED_FACE('',(#375,#376),#24,.F.);
#425=ADVANCED_FACE('',(#377,#378),#25,.F.);
#426=ADVANCED_FACE('',(#379,#380),#36,.F.);
#427=CLOSED_SHELL('',(#390,#391,#392,#393,#394,#395,#396,#397,#398,#399,
#400,#401,#402,#403,#404,#405,#406,#407,#408,#409,#410,#411,#412,#413,#414,
#415,#416,#417,#418,#419,#420,#421,#422,#423,#424,#425,#426));
#428=STYLED_ITEM('',(#429),#436);
#429=PRESENTATION_STYLE_ASSIGNMENT((#430));
#430=SURFACE_STYLE_USAGE(.BOTH.,#431);
#431=SURFACE_SIDE_STYLE('',(#432));
#432=SURFACE_STYLE_FILL_AREA(#433);
#433=FILL_AREA_STYLE('',(#434));
#434=FILL_AREA_STYLE_COLOUR('',#435);
#435=COLOUR_RGB('',0.310000002384186,0.310000002384186,0.310000002384186);
#436=MANIFOLD_SOLID_BREP('196231 CQ-28H-22',#427);
#437=SHAPE_DEFINITION_REPRESENTATION(#782,#438);
#438=SHAPE_REPRESENTATION('196231 CQ-28H-22',(#439),#777);
#439=AXIS2_PLACEMENT_3D('',#664,#514,#515);
#440=AXIS2_PLACEMENT_3D('',#665,#516,#517);
#441=AXIS2_PLACEMENT_3D('',#666,#518,#519);
#442=AXIS2_PLACEMENT_3D('',#668,#520,#521);
#443=AXIS2_PLACEMENT_3D('',#670,#522,#523);
#444=AXIS2_PLACEMENT_3D('',#671,#524,#525);
#445=AXIS2_PLACEMENT_3D('',#673,#526,#527);
#446=AXIS2_PLACEMENT_3D('',#674,#528,#529);
#447=AXIS2_PLACEMENT_3D('',#676,#530,#531);
#448=AXIS2_PLACEMENT_3D('',#677,#532,#533);
#449=AXIS2_PLACEMENT_3D('',#679,#534,#535);
#450=AXIS2_PLACEMENT_3D('',#680,#536,#537);
#451=AXIS2_PLACEMENT_3D('',#682,#538,#539);
#452=AXIS2_PLACEMENT_3D('',#683,#540,#541);
#453=AXIS2_PLACEMENT_3D('',#685,#542,#543);
#454=AXIS2_PLACEMENT_3D('',#686,#544,#545);
#455=AXIS2_PLACEMENT_3D('',#688,#546,#547);
#456=AXIS2_PLACEMENT_3D('',#689,#548,#549);
#457=AXIS2_PLACEMENT_3D('',#691,#550,#551);
#458=AXIS2_PLACEMENT_3D('',#692,#552,#553);
#459=AXIS2_PLACEMENT_3D('',#694,#554,#555);
#460=AXIS2_PLACEMENT_3D('',#695,#556,#557);
#461=AXIS2_PLACEMENT_3D('',#697,#558,#559);
#462=AXIS2_PLACEMENT_3D('',#698,#560,#561);
#463=AXIS2_PLACEMENT_3D('',#700,#562,#563);
#464=AXIS2_PLACEMENT_3D('',#701,#564,#565);
#465=AXIS2_PLACEMENT_3D('',#703,#566,#567);
#466=AXIS2_PLACEMENT_3D('',#704,#568,#569);
#467=AXIS2_PLACEMENT_3D('',#706,#570,#571);
#468=AXIS2_PLACEMENT_3D('',#707,#572,#573);
#469=AXIS2_PLACEMENT_3D('',#709,#574,#575);
#470=AXIS2_PLACEMENT_3D('',#710,#576,#577);
#471=AXIS2_PLACEMENT_3D('',#712,#578,#579);
#472=AXIS2_PLACEMENT_3D('',#713,#580,#581);
#473=AXIS2_PLACEMENT_3D('',#715,#582,#583);
#474=AXIS2_PLACEMENT_3D('',#716,#584,#585);
#475=AXIS2_PLACEMENT_3D('',#718,#586,#587);
#476=AXIS2_PLACEMENT_3D('',#719,#588,#589);
#477=AXIS2_PLACEMENT_3D('',#721,#590,#591);
#478=AXIS2_PLACEMENT_3D('',#722,#592,#593);
#479=AXIS2_PLACEMENT_3D('',#724,#594,#595);
#480=AXIS2_PLACEMENT_3D('',#725,#596,#597);
#481=AXIS2_PLACEMENT_3D('',#727,#598,#599);
#482=AXIS2_PLACEMENT_3D('',#728,#600,#601);
#483=AXIS2_PLACEMENT_3D('',#730,#602,#603);
#484=AXIS2_PLACEMENT_3D('',#731,#604,#605);
#485=AXIS2_PLACEMENT_3D('',#733,#606,#607);
#486=AXIS2_PLACEMENT_3D('',#734,#608,#609);
#487=AXIS2_PLACEMENT_3D('',#736,#610,#611);
#488=AXIS2_PLACEMENT_3D('',#737,#612,#613);
#489=AXIS2_PLACEMENT_3D('',#739,#614,#615);
#490=AXIS2_PLACEMENT_3D('',#740,#616,#617);
#491=AXIS2_PLACEMENT_3D('',#742,#618,#619);
#492=AXIS2_PLACEMENT_3D('',#743,#620,#621);
#493=AXIS2_PLACEMENT_3D('',#745,#622,#623);
#494=AXIS2_PLACEMENT_3D('',#746,#624,#625);
#495=AXIS2_PLACEMENT_3D('',#748,#626,#627);
#496=AXIS2_PLACEMENT_3D('',#749,#628,#629);
#497=AXIS2_PLACEMENT_3D('',#751,#630,#631);
#498=AXIS2_PLACEMENT_3D('',#752,#632,#633);
#499=AXIS2_PLACEMENT_3D('',#754,#634,#635);
#500=AXIS2_PLACEMENT_3D('',#755,#636,#637);
#501=AXIS2_PLACEMENT_3D('',#757,#638,#639);
#502=AXIS2_PLACEMENT_3D('',#758,#640,#641);
#503=AXIS2_PLACEMENT_3D('',#760,#642,#643);
#504=AXIS2_PLACEMENT_3D('',#761,#644,#645);
#505=AXIS2_PLACEMENT_3D('',#763,#646,#647);
#506=AXIS2_PLACEMENT_3D('',#764,#648,#649);
#507=AXIS2_PLACEMENT_3D('',#766,#650,#651);
#508=AXIS2_PLACEMENT_3D('',#767,#652,#653);
#509=AXIS2_PLACEMENT_3D('',#769,#654,#655);
#510=AXIS2_PLACEMENT_3D('',#770,#656,#657);
#511=AXIS2_PLACEMENT_3D('',#772,#658,#659);
#512=AXIS2_PLACEMENT_3D('',#773,#660,#661);
#513=AXIS2_PLACEMENT_3D('',#775,#662,#663);
#514=DIRECTION('',(0.,0.,1.));
#515=DIRECTION('',(1.,0.,0.));
#516=DIRECTION('',(0.,0.,-1.));
#517=DIRECTION('',(-1.,0.,0.));
#518=DIRECTION('',(0.,0.,-1.));
#519=DIRECTION('',(-1.,0.,0.));
#520=DIRECTION('',(0.,0.,-1.));
#521=DIRECTION('',(-1.,0.,0.));
#522=DIRECTION('',(0.,0.,-1.));
#523=DIRECTION('',(-1.,0.,0.));
#524=DIRECTION('',(0.,0.,-1.));
#525=DIRECTION('',(-1.,0.,0.));
#526=DIRECTION('',(0.,0.,-1.));
#527=DIRECTION('',(-1.,0.,0.));
#528=DIRECTION('',(0.,0.,-1.));
#529=DIRECTION('',(-1.,0.,0.));
#530=DIRECTION('',(0.,0.,-1.));
#531=DIRECTION('',(-1.,0.,0.));
#532=DIRECTION('',(0.,0.,-1.));
#533=DIRECTION('',(-1.,0.,0.));
#534=DIRECTION('',(0.,0.,1.));
#535=DIRECTION('',(1.,0.,0.));
#536=DIRECTION('',(0.,0.,-1.));
#537=DIRECTION('',(-1.,0.,0.));
#538=DIRECTION('',(0.,0.,-1.));
#539=DIRECTION('',(-1.,0.,0.));
#540=DIRECTION('',(0.,0.,-1.));
#541=DIRECTION('',(-1.,0.,0.));
#542=DIRECTION('',(0.,0.,-1.));
#543=DIRECTION('',(-1.,0.,0.));
#544=DIRECTION('',(0.,0.,-1.));
#545=DIRECTION('',(-1.,0.,0.));
#546=DIRECTION('',(0.,0.,-1.));
#547=DIRECTION('',(-1.,0.,0.));
#548=DIRECTION('',(0.,0.,-1.));
#549=DIRECTION('',(-1.,0.,0.));
#550=DIRECTION('',(0.,0.,-1.));
#551=DIRECTION('',(-1.,0.,0.));
#552=DIRECTION('',(0.,0.,-1.));
#553=DIRECTION('',(-1.,0.,0.));
#554=DIRECTION('',(0.,0.,-1.));
#555=DIRECTION('',(-1.,0.,0.));
#556=DIRECTION('',(0.,0.,-1.));
#557=DIRECTION('',(-1.,0.,0.));
#558=DIRECTION('',(0.,0.,1.));
#559=DIRECTION('',(1.,0.,0.));
#560=DIRECTION('',(0.,0.,-1.));
#561=DIRECTION('',(-1.,0.,0.));
#562=DIRECTION('',(0.,0.,-1.));
#563=DIRECTION('',(-1.,0.,0.));
#564=DIRECTION('',(0.,0.,-1.));
#565=DIRECTION('',(-1.,0.,0.));
#566=DIRECTION('',(0.,0.,-1.));
#567=DIRECTION('',(-1.,0.,0.));
#568=DIRECTION('',(0.,0.,-1.));
#569=DIRECTION('',(-1.,0.,0.));
#570=DIRECTION('',(0.,0.,-1.));
#571=DIRECTION('',(-1.,0.,0.));
#572=DIRECTION('',(0.,0.,-1.));
#573=DIRECTION('',(-1.,0.,0.));
#574=DIRECTION('',(0.,0.,-1.));
#575=DIRECTION('',(-1.,0.,0.));
#576=DIRECTION('',(0.,0.,-1.));
#577=DIRECTION('',(-1.,0.,0.));
#578=DIRECTION('',(0.,0.,1.));
#579=DIRECTION('',(1.,0.,0.));
#580=DIRECTION('',(0.,0.,-1.));
#581=DIRECTION('',(-1.,0.,0.));
#582=DIRECTION('',(0.,0.,-1.));
#583=DIRECTION('',(-1.,0.,0.));
#584=DIRECTION('',(0.,0.,-1.));
#585=DIRECTION('',(-1.,0.,0.));
#586=DIRECTION('',(0.,0.,-1.));
#587=DIRECTION('',(-1.,0.,0.));
#588=DIRECTION('',(0.,0.,-1.));
#589=DIRECTION('',(-1.,0.,0.));
#590=DIRECTION('',(0.,0.,-1.));
#591=DIRECTION('',(-1.,0.,0.));
#592=DIRECTION('',(0.,0.,-1.));
#593=DIRECTION('',(-1.,0.,0.));
#594=DIRECTION('',(0.,0.,1.));
#595=DIRECTION('',(1.,0.,0.));
#596=DIRECTION('',(0.,0.,-1.));
#597=DIRECTION('',(-1.,0.,0.));
#598=DIRECTION('',(0.,0.,-1.));
#599=DIRECTION('',(-1.,0.,0.));
#600=DIRECTION('',(0.,0.,-1.));
#601=DIRECTION('',(-1.,0.,0.));
#602=DIRECTION('',(0.,0.,1.));
#603=DIRECTION('',(1.,0.,0.));
#604=DIRECTION('',(0.,0.,-1.));
#605=DIRECTION('',(-1.,0.,0.));
#606=DIRECTION('',(0.,0.,-1.));
#607=DIRECTION('',(-1.,0.,0.));
#608=DIRECTION('',(0.,0.,-1.));
#609=DIRECTION('',(-1.,0.,0.));
#610=DIRECTION('',(0.,0.,-1.));
#611=DIRECTION('',(-1.,0.,0.));
#612=DIRECTION('',(0.,0.,-1.));
#613=DIRECTION('',(-1.,0.,0.));
#614=DIRECTION('',(0.,0.,-1.));
#615=DIRECTION('',(-1.,0.,0.));
#616=DIRECTION('',(0.,0.,-1.));
#617=DIRECTION('',(-1.,0.,0.));
#618=DIRECTION('',(0.,0.,-1.));
#619=DIRECTION('',(-1.,0.,0.));
#620=DIRECTION('',(0.,0.,-1.));
#621=DIRECTION('',(-1.,0.,0.));
#622=DIRECTION('',(0.,0.,-1.));
#623=DIRECTION('',(-1.,0.,0.));
#624=DIRECTION('',(0.,0.,-1.));
#625=DIRECTION('',(-1.,0.,0.));
#626=DIRECTION('',(0.,0.,-1.));
#627=DIRECTION('',(-1.,0.,0.));
#628=DIRECTION('',(0.,0.,-1.));
#629=DIRECTION('',(-1.,0.,0.));
#630=DIRECTION('',(0.,0.,1.));
#631=DIRECTION('',(1.,0.,0.));
#632=DIRECTION('',(0.,0.,-1.));
#633=DIRECTION('',(-1.,0.,0.));
#634=DIRECTION('',(0.,0.,-1.));
#635=DIRECTION('',(-1.,0.,0.));
#636=DIRECTION('',(0.,0.,-1.));
#637=DIRECTION('',(-1.,0.,0.));
#638=DIRECTION('',(0.,0.,-1.));
#639=DIRECTION('',(-1.,0.,0.));
#640=DIRECTION('',(0.,0.,-1.));
#641=DIRECTION('',(-1.,0.,0.));
#642=DIRECTION('',(0.,0.,1.));
#643=DIRECTION('',(1.,0.,0.));
#644=DIRECTION('',(0.,0.,-1.));
#645=DIRECTION('',(-1.,0.,0.));
#646=DIRECTION('',(0.,0.,-1.));
#647=DIRECTION('',(-1.,0.,0.));
#648=DIRECTION('',(0.,0.,-1.));
#649=DIRECTION('',(-1.,0.,0.));
#650=DIRECTION('',(0.,0.,-1.));
#651=DIRECTION('',(-1.,0.,0.));
#652=DIRECTION('',(0.,0.,-1.));
#653=DIRECTION('',(-1.,0.,0.));
#654=DIRECTION('',(0.,0.,-1.));
#655=DIRECTION('',(-1.,0.,0.));
#656=DIRECTION('',(0.,0.,-1.));
#657=DIRECTION('',(-1.,0.,0.));
#658=DIRECTION('',(0.,0.,-1.));
#659=DIRECTION('',(-1.,0.,0.));
#660=DIRECTION('',(0.,0.,-1.));
#661=DIRECTION('',(-1.,0.,0.));
#662=DIRECTION('',(0.,0.,-1.));
#663=DIRECTION('',(-1.,0.,0.));
#664=CARTESIAN_POINT('',(0.,0.,0.));
#665=CARTESIAN_POINT('',(0.,0.,0.));
#666=CARTESIAN_POINT('',(0.,0.,0.));
#667=CARTESIAN_POINT('',(-13.275,0.,0.));
#668=CARTESIAN_POINT('',(0.,0.,0.));
#669=CARTESIAN_POINT('',(-11.75,0.,0.));
#670=CARTESIAN_POINT('',(0.,0.,-0.999999999999997));
#671=CARTESIAN_POINT('',(0.,0.,-1.));
#672=CARTESIAN_POINT('',(-14.275,0.,-1.));
#673=CARTESIAN_POINT('',(0.,0.,-81.8));
#674=CARTESIAN_POINT('',(0.,0.,-1.75));
#675=CARTESIAN_POINT('',(-14.275,0.,-1.75));
#676=CARTESIAN_POINT('',(0.,0.,-1.75));
#677=CARTESIAN_POINT('',(0.,0.,-2.));
#678=CARTESIAN_POINT('',(-14.025,0.,-2.));
#679=CARTESIAN_POINT('',(0.,14.025,-2.));
#680=CARTESIAN_POINT('',(0.,0.,-2.));
#681=CARTESIAN_POINT('',(-12.475,0.,-2.));
#682=CARTESIAN_POINT('',(0.,0.,-2.5));
#683=CARTESIAN_POINT('',(0.,0.,-2.5));
#684=CARTESIAN_POINT('',(-11.975,0.,-2.5));
#685=CARTESIAN_POINT('',(0.,0.,-81.8));
#686=CARTESIAN_POINT('',(0.,0.,-2.68));
#687=CARTESIAN_POINT('',(-11.975,0.,-2.68));
#688=CARTESIAN_POINT('',(0.,11.975,-2.68));
#689=CARTESIAN_POINT('',(0.,0.,-2.68));
#690=CARTESIAN_POINT('',(-15.9,0.,-2.68));
#691=CARTESIAN_POINT('',(0.,0.,-2.68));
#692=CARTESIAN_POINT('',(0.,0.,-3.68));
#693=CARTESIAN_POINT('',(-16.9,0.,-3.68));
#694=CARTESIAN_POINT('',(0.,0.,-81.8));
#695=CARTESIAN_POINT('',(0.,0.,-6.8));
#696=CARTESIAN_POINT('',(-16.9,0.,-6.8));
#697=CARTESIAN_POINT('',(0.,0.,-6.8));
#698=CARTESIAN_POINT('',(0.,0.,-7.2));
#699=CARTESIAN_POINT('',(-16.5,0.,-7.2));
#700=CARTESIAN_POINT('',(0.,0.,-81.8));
#701=CARTESIAN_POINT('',(0.,0.,-7.8));
#702=CARTESIAN_POINT('',(-16.5,0.,-7.8));
#703=CARTESIAN_POINT('',(0.,16.5,-7.8));
#704=CARTESIAN_POINT('',(0.,0.,-7.8));
#705=CARTESIAN_POINT('',(-17.75,0.,-7.8));
#706=CARTESIAN_POINT('',(0.,0.,-81.8));
#707=CARTESIAN_POINT('',(0.,0.,-15.5928932188134));
#708=CARTESIAN_POINT('',(-17.75,0.,-15.5928932188134));
#709=CARTESIAN_POINT('',(0.,0.,-15.5928932188134));
#710=CARTESIAN_POINT('',(0.,0.,-15.9464466094067));
#711=CARTESIAN_POINT('',(-17.6035533905933,0.,-15.9464466094067));
#712=CARTESIAN_POINT('',(0.,0.,-15.9464466094067));
#713=CARTESIAN_POINT('',(0.,0.,-16.7535533905933));
#714=CARTESIAN_POINT('',(-16.7964466094067,0.,-16.7535533905933));
#715=CARTESIAN_POINT('',(0.,0.,-17.1071067811865));
#716=CARTESIAN_POINT('',(0.,0.,-17.1071067811865));
#717=CARTESIAN_POINT('',(-16.65,0.,-17.1071067811865));
#718=CARTESIAN_POINT('',(0.,0.,-81.8));
#719=CARTESIAN_POINT('',(0.,0.,-25.0928932188135));
#720=CARTESIAN_POINT('',(-16.65,0.,-25.0928932188135));
#721=CARTESIAN_POINT('',(0.,0.,-25.0928932188134));
#722=CARTESIAN_POINT('',(0.,0.,-25.4464466094067));
#723=CARTESIAN_POINT('',(-16.5035533905933,0.,-25.4464466094067));
#724=CARTESIAN_POINT('',(0.,0.,-25.4464466094067));
#725=CARTESIAN_POINT('',(0.,0.,-26.6535533905933));
#726=CARTESIAN_POINT('',(-15.2964466094067,0.,-26.6535533905933));
#727=CARTESIAN_POINT('',(0.,0.,-26.3));
#728=CARTESIAN_POINT('',(0.,0.,-26.8));
#729=CARTESIAN_POINT('',(-14.9428932188135,0.,-26.8));
#730=CARTESIAN_POINT('',(0.,14.9428932188135,-26.8));
#731=CARTESIAN_POINT('',(0.,0.,-26.8));
#732=CARTESIAN_POINT('',(-14.25,0.,-26.8));
#733=CARTESIAN_POINT('',(0.,0.,-27.3));
#734=CARTESIAN_POINT('',(0.,0.,-27.3));
#735=CARTESIAN_POINT('',(-13.75,0.,-27.3));
#736=CARTESIAN_POINT('',(0.,0.,-81.8));
#737=CARTESIAN_POINT('',(0.,0.,-34.));
#738=CARTESIAN_POINT('',(-13.75,0.,-34.));
#739=CARTESIAN_POINT('',(0.,13.75,-34.));
#740=CARTESIAN_POINT('',(0.,0.,-34.));
#741=CARTESIAN_POINT('',(-13.89,0.,-34.));
#742=CARTESIAN_POINT('',(0.,0.,-34.3));
#743=CARTESIAN_POINT('',(0.,0.,-34.5791057147391));
#744=CARTESIAN_POINT('',(-14.,0.,-34.5791057147391));
#745=CARTESIAN_POINT('',(0.,0.,-81.8));
#746=CARTESIAN_POINT('',(0.,0.,-80.8));
#747=CARTESIAN_POINT('',(-14.,0.,-80.8));
#748=CARTESIAN_POINT('',(0.,0.,-80.8));
#749=CARTESIAN_POINT('',(0.,0.,-81.8));
#750=CARTESIAN_POINT('',(-13.,0.,-81.8));
#751=CARTESIAN_POINT('',(0.,13.,-81.8));
#752=CARTESIAN_POINT('',(0.,0.,-81.8));
#753=CARTESIAN_POINT('',(-11.375,0.,-81.8));
#754=CARTESIAN_POINT('',(0.,0.,-0.750000000000001));
#755=CARTESIAN_POINT('',(0.,0.,-0.750000000000001));
#756=CARTESIAN_POINT('',(-11.,0.,-0.750000000000001));
#757=CARTESIAN_POINT('',(0.,0.,-81.8));
#758=CARTESIAN_POINT('',(0.,0.,-33.));
#759=CARTESIAN_POINT('',(-11.,0.,-33.));
#760=CARTESIAN_POINT('',(0.,11.,-33.));
#761=CARTESIAN_POINT('',(0.,0.,-33.));
#762=CARTESIAN_POINT('',(-9.6,0.,-33.));
#763=CARTESIAN_POINT('',(0.,0.,-81.8));
#764=CARTESIAN_POINT('',(0.,0.,-37.3));
#765=CARTESIAN_POINT('',(-9.6,0.,-37.3));
#766=CARTESIAN_POINT('',(0.,9.6,-37.3));
#767=CARTESIAN_POINT('',(0.,0.,-37.3));
#768=CARTESIAN_POINT('',(-9.75,0.,-37.3));
#769=CARTESIAN_POINT('',(0.,0.,-37.3));
#770=CARTESIAN_POINT('',(0.,0.,-73.7844555433772));
#771=CARTESIAN_POINT('',(-10.5,0.,-73.7844555433772));
#772=CARTESIAN_POINT('',(0.,0.,-73.7844555433772));
#773=CARTESIAN_POINT('',(0.,0.,-75.3));
#774=CARTESIAN_POINT('',(-11.375,0.,-75.3));
#775=CARTESIAN_POINT('',(0.,0.,-81.8));
#776=MECHANICAL_DESIGN_GEOMETRIC_PRESENTATION_REPRESENTATION('',(#428),
#777);
#777=(
GEOMETRIC_REPRESENTATION_CONTEXT(3)
GLOBAL_UNCERTAINTY_ASSIGNED_CONTEXT((#778))
GLOBAL_UNIT_ASSIGNED_CONTEXT((#781,#780,#779))
REPRESENTATION_CONTEXT('196231 CQ-28H-22','TOP_LEVEL_ASSEMBLY_PART')
);
#778=UNCERTAINTY_MEASURE_WITH_UNIT(LENGTH_MEASURE(0.005),#781,
'DISTANCE_ACCURACY_VALUE','Maximum Tolerance applied to model');
#779=(
NAMED_UNIT(*)
SI_UNIT($,.STERADIAN.)
SOLID_ANGLE_UNIT()
);
#780=(
NAMED_UNIT(*)
PLANE_ANGLE_UNIT()
SI_UNIT($,.RADIAN.)
);
#781=(
LENGTH_UNIT()
NAMED_UNIT(*)
SI_UNIT(.MILLI.,.METRE.)
);
#782=PRODUCT_DEFINITION_SHAPE('','',#783);
#783=PRODUCT_DEFINITION('','',#785,#784);
#784=PRODUCT_DEFINITION_CONTEXT('',#791,'design');
#785=PRODUCT_DEFINITION_FORMATION_WITH_SPECIFIED_SOURCE('','',#787,
 .NOT_KNOWN.);
#786=PRODUCT_RELATED_PRODUCT_CATEGORY('','',(#787));
#787=PRODUCT('196231 CQ-28H-22','196231 CQ-28H-22','196231 CQ-28H-22',(#789));
#788=PRODUCT_CATEGORY('','');
#789=PRODUCT_CONTEXT('',#791,'mechanical');
#790=APPLICATION_PROTOCOL_DEFINITION('international standard',
'automotive_design',2010,#791);
#791=APPLICATION_CONTEXT(
'core data for automotive mechanical design processes');
ENDSEC;
END-ISO-10303-21;
