ISO-10303-21;
HEADER;
/* Generated by software containing ST-Developer
 * from STEP Tools, Inc. (www.steptools.com) 
 */
/* OPTION: using custom renumber hook */

FILE_DESCRIPTION(
/* description */ ('STEP AP214'),
/* implementation_level */ '2;1');

FILE_NAME(
/* name */ '196984_CQA-28',
/* time_stamp */ '2024-08-07T22:02:45+02:00',
/* author */ ('License CC BY-ND 4.0'),
/* organization */ ('CADENAS'),
/* preprocessor_version */ 'ST-DEVELOPER v19.3',
/* originating_system */ 'PARTsolutions',
/* authorisation */ '  ');

FILE_SCHEMA (('AUTOMOTIVE_DESIGN {1 0 10303 214 3 1 1}'));
ENDSEC;

DATA;
#10=PROPERTY_DEFINITION_REPRESENTATION(#14,#12);
#11=PROPERTY_DEFINITION_REPRESENTATION(#15,#13);
#12=REPRESENTATION('',(#16),#457);
#13=REPRESENTATION('',(#17),#457);
#14=PROPERTY_DEFINITION('pmi validation property','',#462);
#15=PROPERTY_DEFINITION('pmi validation property','',#462);
#16=VALUE_REPRESENTATION_ITEM('number of annotations',COUNT_MEASURE(0.));
#17=VALUE_REPRESENTATION_ITEM('number of views',COUNT_MEASURE(0.));
#18=SHAPE_REPRESENTATION_RELATIONSHIP('','',#262,#19);
#19=ADVANCED_BREP_SHAPE_REPRESENTATION('',(#260),#457);
#20=TOROIDAL_SURFACE('',#274,10.5,0.500000000000004);
#21=TOROIDAL_SURFACE('',#280,11.75,0.499999999999999);
#22=TOROIDAL_SURFACE('',#288,11.75,0.500000000000006);
#23=TOROIDAL_SURFACE('',#294,13.,1.);
#24=TOROIDAL_SURFACE('',#298,13.5,0.499999999999999);
#25=TOROIDAL_SURFACE('',#304,10.775,0.5);
#26=TOROIDAL_SURFACE('',#305,11.75,0.8);
#27=PLANE('',#267);
#28=PLANE('',#272);
#29=PLANE('',#278);
#30=PLANE('',#282);
#31=PLANE('',#286);
#32=PLANE('',#292);
#33=PLANE('',#300);
#34=ORIENTED_EDGE('',*,*,#76,.F.);
#35=ORIENTED_EDGE('',*,*,#77,.F.);
#36=ORIENTED_EDGE('',*,*,#78,.T.);
#37=ORIENTED_EDGE('',*,*,#79,.F.);
#38=ORIENTED_EDGE('',*,*,#80,.T.);
#39=ORIENTED_EDGE('',*,*,#78,.F.);
#40=ORIENTED_EDGE('',*,*,#81,.T.);
#41=ORIENTED_EDGE('',*,*,#80,.F.);
#42=ORIENTED_EDGE('',*,*,#82,.T.);
#43=ORIENTED_EDGE('',*,*,#81,.F.);
#44=ORIENTED_EDGE('',*,*,#83,.T.);
#45=ORIENTED_EDGE('',*,*,#82,.F.);
#46=ORIENTED_EDGE('',*,*,#84,.T.);
#47=ORIENTED_EDGE('',*,*,#83,.F.);
#48=ORIENTED_EDGE('',*,*,#85,.T.);
#49=ORIENTED_EDGE('',*,*,#84,.F.);
#50=ORIENTED_EDGE('',*,*,#77,.T.);
#51=ORIENTED_EDGE('',*,*,#85,.F.);
#52=ORIENTED_EDGE('',*,*,#86,.T.);
#53=ORIENTED_EDGE('',*,*,#87,.F.);
#54=ORIENTED_EDGE('',*,*,#88,.T.);
#55=ORIENTED_EDGE('',*,*,#86,.F.);
#56=ORIENTED_EDGE('',*,*,#89,.T.);
#57=ORIENTED_EDGE('',*,*,#88,.F.);
#58=ORIENTED_EDGE('',*,*,#90,.T.);
#59=ORIENTED_EDGE('',*,*,#89,.F.);
#60=ORIENTED_EDGE('',*,*,#91,.T.);
#61=ORIENTED_EDGE('',*,*,#90,.F.);
#62=ORIENTED_EDGE('',*,*,#92,.T.);
#63=ORIENTED_EDGE('',*,*,#91,.F.);
#64=ORIENTED_EDGE('',*,*,#93,.T.);
#65=ORIENTED_EDGE('',*,*,#92,.F.);
#66=ORIENTED_EDGE('',*,*,#94,.T.);
#67=ORIENTED_EDGE('',*,*,#93,.F.);
#68=ORIENTED_EDGE('',*,*,#95,.T.);
#69=ORIENTED_EDGE('',*,*,#94,.F.);
#70=ORIENTED_EDGE('',*,*,#96,.T.);
#71=ORIENTED_EDGE('',*,*,#95,.F.);
#72=ORIENTED_EDGE('',*,*,#79,.T.);
#73=ORIENTED_EDGE('',*,*,#96,.F.);
#74=ORIENTED_EDGE('',*,*,#87,.T.);
#75=ORIENTED_EDGE('',*,*,#76,.T.);
#76=EDGE_CURVE('',#97,#97,#118,.T.);
#77=EDGE_CURVE('',#98,#98,#119,.T.);
#78=EDGE_CURVE('',#99,#99,#120,.T.);
#79=EDGE_CURVE('',#100,#100,#121,.T.);
#80=EDGE_CURVE('',#101,#101,#122,.T.);
#81=EDGE_CURVE('',#102,#102,#123,.T.);
#82=EDGE_CURVE('',#103,#103,#124,.T.);
#83=EDGE_CURVE('',#104,#104,#125,.T.);
#84=EDGE_CURVE('',#105,#105,#126,.T.);
#85=EDGE_CURVE('',#106,#106,#127,.T.);
#86=EDGE_CURVE('',#107,#107,#128,.T.);
#87=EDGE_CURVE('',#108,#108,#129,.T.);
#88=EDGE_CURVE('',#109,#109,#130,.T.);
#89=EDGE_CURVE('',#110,#110,#131,.T.);
#90=EDGE_CURVE('',#111,#111,#132,.T.);
#91=EDGE_CURVE('',#112,#112,#133,.T.);
#92=EDGE_CURVE('',#113,#113,#134,.T.);
#93=EDGE_CURVE('',#114,#114,#135,.T.);
#94=EDGE_CURVE('',#115,#115,#136,.T.);
#95=EDGE_CURVE('',#116,#116,#137,.T.);
#96=EDGE_CURVE('',#117,#117,#138,.T.);
#97=VERTEX_POINT('',#395);
#98=VERTEX_POINT('',#397);
#99=VERTEX_POINT('',#400);
#100=VERTEX_POINT('',#402);
#101=VERTEX_POINT('',#405);
#102=VERTEX_POINT('',#408);
#103=VERTEX_POINT('',#411);
#104=VERTEX_POINT('',#414);
#105=VERTEX_POINT('',#417);
#106=VERTEX_POINT('',#420);
#107=VERTEX_POINT('',#424);
#108=VERTEX_POINT('',#426);
#109=VERTEX_POINT('',#429);
#110=VERTEX_POINT('',#432);
#111=VERTEX_POINT('',#435);
#112=VERTEX_POINT('',#438);
#113=VERTEX_POINT('',#441);
#114=VERTEX_POINT('',#444);
#115=VERTEX_POINT('',#447);
#116=VERTEX_POINT('',#450);
#117=VERTEX_POINT('',#453);
#118=CIRCLE('',#265,11.);
#119=CIRCLE('',#266,11.);
#120=CIRCLE('',#268,10.);
#121=CIRCLE('',#269,10.775);
#122=CIRCLE('',#271,10.);
#123=CIRCLE('',#273,10.5);
#124=CIRCLE('',#275,11.);
#125=CIRCLE('',#277,11.);
#126=CIRCLE('',#279,11.75);
#127=CIRCLE('',#281,11.75);
#128=CIRCLE('',#284,11.);
#129=CIRCLE('',#285,11.);
#130=CIRCLE('',#287,11.75);
#131=CIRCLE('',#289,12.25);
#132=CIRCLE('',#291,12.25);
#133=CIRCLE('',#293,13.);
#134=CIRCLE('',#295,14.);
#135=CIRCLE('',#297,14.);
#136=CIRCLE('',#299,13.5);
#137=CIRCLE('',#301,11.275);
#138=CIRCLE('',#303,11.275);
#139=EDGE_LOOP('',(#34));
#140=EDGE_LOOP('',(#35));
#141=EDGE_LOOP('',(#36));
#142=EDGE_LOOP('',(#37));
#143=EDGE_LOOP('',(#38));
#144=EDGE_LOOP('',(#39));
#145=EDGE_LOOP('',(#40));
#146=EDGE_LOOP('',(#41));
#147=EDGE_LOOP('',(#42));
#148=EDGE_LOOP('',(#43));
#149=EDGE_LOOP('',(#44));
#150=EDGE_LOOP('',(#45));
#151=EDGE_LOOP('',(#46));
#152=EDGE_LOOP('',(#47));
#153=EDGE_LOOP('',(#48));
#154=EDGE_LOOP('',(#49));
#155=EDGE_LOOP('',(#50));
#156=EDGE_LOOP('',(#51));
#157=EDGE_LOOP('',(#52));
#158=EDGE_LOOP('',(#53));
#159=EDGE_LOOP('',(#54));
#160=EDGE_LOOP('',(#55));
#161=EDGE_LOOP('',(#56));
#162=EDGE_LOOP('',(#57));
#163=EDGE_LOOP('',(#58));
#164=EDGE_LOOP('',(#59));
#165=EDGE_LOOP('',(#60));
#166=EDGE_LOOP('',(#61));
#167=EDGE_LOOP('',(#62));
#168=EDGE_LOOP('',(#63));
#169=EDGE_LOOP('',(#64));
#170=EDGE_LOOP('',(#65));
#171=EDGE_LOOP('',(#66));
#172=EDGE_LOOP('',(#67));
#173=EDGE_LOOP('',(#68));
#174=EDGE_LOOP('',(#69));
#175=EDGE_LOOP('',(#70));
#176=EDGE_LOOP('',(#71));
#177=EDGE_LOOP('',(#72));
#178=EDGE_LOOP('',(#73));
#179=EDGE_LOOP('',(#74));
#180=EDGE_LOOP('',(#75));
#181=FACE_BOUND('',#139,.T.);
#182=FACE_BOUND('',#140,.T.);
#183=FACE_BOUND('',#141,.T.);
#184=FACE_BOUND('',#142,.T.);
#185=FACE_BOUND('',#143,.T.);
#186=FACE_BOUND('',#144,.T.);
#187=FACE_BOUND('',#145,.T.);
#188=FACE_BOUND('',#146,.T.);
#189=FACE_BOUND('',#147,.T.);
#190=FACE_BOUND('',#148,.T.);
#191=FACE_BOUND('',#149,.T.);
#192=FACE_BOUND('',#150,.T.);
#193=FACE_BOUND('',#151,.T.);
#194=FACE_BOUND('',#152,.T.);
#195=FACE_BOUND('',#153,.T.);
#196=FACE_BOUND('',#154,.T.);
#197=FACE_BOUND('',#155,.T.);
#198=FACE_BOUND('',#156,.T.);
#199=FACE_BOUND('',#157,.T.);
#200=FACE_BOUND('',#158,.T.);
#201=FACE_BOUND('',#159,.T.);
#202=FACE_BOUND('',#160,.T.);
#203=FACE_BOUND('',#161,.T.);
#204=FACE_BOUND('',#162,.T.);
#205=FACE_BOUND('',#163,.T.);
#206=FACE_BOUND('',#164,.T.);
#207=FACE_BOUND('',#165,.T.);
#208=FACE_BOUND('',#166,.T.);
#209=FACE_BOUND('',#167,.T.);
#210=FACE_BOUND('',#168,.T.);
#211=FACE_BOUND('',#169,.T.);
#212=FACE_BOUND('',#170,.T.);
#213=FACE_BOUND('',#171,.T.);
#214=FACE_BOUND('',#172,.T.);
#215=FACE_BOUND('',#173,.T.);
#216=FACE_BOUND('',#174,.T.);
#217=FACE_BOUND('',#175,.T.);
#218=FACE_BOUND('',#176,.T.);
#219=FACE_BOUND('',#177,.T.);
#220=FACE_BOUND('',#178,.T.);
#221=FACE_BOUND('',#179,.T.);
#222=FACE_BOUND('',#180,.T.);
#223=CYLINDRICAL_SURFACE('',#264,11.);
#224=CYLINDRICAL_SURFACE('',#270,10.);
#225=CYLINDRICAL_SURFACE('',#276,11.);
#226=CYLINDRICAL_SURFACE('',#283,11.);
#227=CYLINDRICAL_SURFACE('',#290,12.25);
#228=CYLINDRICAL_SURFACE('',#296,14.);
#229=CYLINDRICAL_SURFACE('',#302,11.275);
#230=ADVANCED_FACE('',(#181,#182),#223,.T.);
#231=ADVANCED_FACE('',(#183,#184),#27,.T.);
#232=ADVANCED_FACE('',(#185,#186),#224,.F.);
#233=ADVANCED_FACE('',(#187,#188),#28,.T.);
#234=ADVANCED_FACE('',(#189,#190),#20,.T.);
#235=ADVANCED_FACE('',(#191,#192),#225,.T.);
#236=ADVANCED_FACE('',(#193,#194),#29,.T.);
#237=ADVANCED_FACE('',(#195,#196),#21,.T.);
#238=ADVANCED_FACE('',(#197,#198),#30,.T.);
#239=ADVANCED_FACE('',(#199,#200),#226,.T.);
#240=ADVANCED_FACE('',(#201,#202),#31,.T.);
#241=ADVANCED_FACE('',(#203,#204),#22,.T.);
#242=ADVANCED_FACE('',(#205,#206),#227,.T.);
#243=ADVANCED_FACE('',(#207,#208),#32,.T.);
#244=ADVANCED_FACE('',(#209,#210),#23,.T.);
#245=ADVANCED_FACE('',(#211,#212),#228,.T.);
#246=ADVANCED_FACE('',(#213,#214),#24,.T.);
#247=ADVANCED_FACE('',(#215,#216),#33,.T.);
#248=ADVANCED_FACE('',(#217,#218),#229,.T.);
#249=ADVANCED_FACE('',(#219,#220),#25,.T.);
#250=ADVANCED_FACE('',(#221,#222),#26,.T.);
#251=CLOSED_SHELL('',(#230,#231,#232,#233,#234,#235,#236,#237,#238,#239,
#240,#241,#242,#243,#244,#245,#246,#247,#248,#249,#250));
#252=STYLED_ITEM('',(#253),#260);
#253=PRESENTATION_STYLE_ASSIGNMENT((#254));
#254=SURFACE_STYLE_USAGE(.BOTH.,#255);
#255=SURFACE_SIDE_STYLE('',(#256));
#256=SURFACE_STYLE_FILL_AREA(#257);
#257=FILL_AREA_STYLE('',(#258));
#258=FILL_AREA_STYLE_COLOUR('',#259);
#259=COLOUR_RGB('',0.310000002384186,0.310000002384186,0.310000002384186);
#260=MANIFOLD_SOLID_BREP('196984 CQA-28',#251);
#261=SHAPE_DEFINITION_REPRESENTATION(#462,#262);
#262=SHAPE_REPRESENTATION('196984 CQA-28',(#263),#457);
#263=AXIS2_PLACEMENT_3D('',#392,#306,#307);
#264=AXIS2_PLACEMENT_3D('',#393,#308,#309);
#265=AXIS2_PLACEMENT_3D('',#394,#310,#311);
#266=AXIS2_PLACEMENT_3D('',#396,#312,#313);
#267=AXIS2_PLACEMENT_3D('',#398,#314,#315);
#268=AXIS2_PLACEMENT_3D('',#399,#316,#317);
#269=AXIS2_PLACEMENT_3D('',#401,#318,#319);
#270=AXIS2_PLACEMENT_3D('',#403,#320,#321);
#271=AXIS2_PLACEMENT_3D('',#404,#322,#323);
#272=AXIS2_PLACEMENT_3D('',#406,#324,#325);
#273=AXIS2_PLACEMENT_3D('',#407,#326,#327);
#274=AXIS2_PLACEMENT_3D('',#409,#328,#329);
#275=AXIS2_PLACEMENT_3D('',#410,#330,#331);
#276=AXIS2_PLACEMENT_3D('',#412,#332,#333);
#277=AXIS2_PLACEMENT_3D('',#413,#334,#335);
#278=AXIS2_PLACEMENT_3D('',#415,#336,#337);
#279=AXIS2_PLACEMENT_3D('',#416,#338,#339);
#280=AXIS2_PLACEMENT_3D('',#418,#340,#341);
#281=AXIS2_PLACEMENT_3D('',#419,#342,#343);
#282=AXIS2_PLACEMENT_3D('',#421,#344,#345);
#283=AXIS2_PLACEMENT_3D('',#422,#346,#347);
#284=AXIS2_PLACEMENT_3D('',#423,#348,#349);
#285=AXIS2_PLACEMENT_3D('',#425,#350,#351);
#286=AXIS2_PLACEMENT_3D('',#427,#352,#353);
#287=AXIS2_PLACEMENT_3D('',#428,#354,#355);
#288=AXIS2_PLACEMENT_3D('',#430,#356,#357);
#289=AXIS2_PLACEMENT_3D('',#431,#358,#359);
#290=AXIS2_PLACEMENT_3D('',#433,#360,#361);
#291=AXIS2_PLACEMENT_3D('',#434,#362,#363);
#292=AXIS2_PLACEMENT_3D('',#436,#364,#365);
#293=AXIS2_PLACEMENT_3D('',#437,#366,#367);
#294=AXIS2_PLACEMENT_3D('',#439,#368,#369);
#295=AXIS2_PLACEMENT_3D('',#440,#370,#371);
#296=AXIS2_PLACEMENT_3D('',#442,#372,#373);
#297=AXIS2_PLACEMENT_3D('',#443,#374,#375);
#298=AXIS2_PLACEMENT_3D('',#445,#376,#377);
#299=AXIS2_PLACEMENT_3D('',#446,#378,#379);
#300=AXIS2_PLACEMENT_3D('',#448,#380,#381);
#301=AXIS2_PLACEMENT_3D('',#449,#382,#383);
#302=AXIS2_PLACEMENT_3D('',#451,#384,#385);
#303=AXIS2_PLACEMENT_3D('',#452,#386,#387);
#304=AXIS2_PLACEMENT_3D('',#454,#388,#389);
#305=AXIS2_PLACEMENT_3D('',#455,#390,#391);
#306=DIRECTION('',(0.,0.,1.));
#307=DIRECTION('',(1.,0.,0.));
#308=DIRECTION('',(0.,0.,-1.));
#309=DIRECTION('',(-1.,0.,0.));
#310=DIRECTION('',(0.,0.,1.));
#311=DIRECTION('',(1.,0.,0.));
#312=DIRECTION('',(0.,0.,-1.));
#313=DIRECTION('',(-1.,0.,0.));
#314=DIRECTION('',(0.,0.,1.));
#315=DIRECTION('',(1.,0.,0.));
#316=DIRECTION('',(0.,0.,-1.));
#317=DIRECTION('',(-1.,0.,0.));
#318=DIRECTION('',(0.,0.,-1.));
#319=DIRECTION('',(-1.,0.,0.));
#320=DIRECTION('',(0.,0.,-1.));
#321=DIRECTION('',(-1.,0.,0.));
#322=DIRECTION('',(0.,0.,-1.));
#323=DIRECTION('',(-1.,0.,0.));
#324=DIRECTION('',(0.,0.,-1.));
#325=DIRECTION('',(-1.,0.,0.));
#326=DIRECTION('',(0.,0.,-1.));
#327=DIRECTION('',(-1.,0.,0.));
#328=DIRECTION('',(0.,0.,-1.));
#329=DIRECTION('',(-1.,0.,0.));
#330=DIRECTION('',(0.,0.,-1.));
#331=DIRECTION('',(-1.,0.,0.));
#332=DIRECTION('',(0.,0.,-1.));
#333=DIRECTION('',(-1.,0.,0.));
#334=DIRECTION('',(0.,0.,-1.));
#335=DIRECTION('',(-1.,0.,0.));
#336=DIRECTION('',(0.,0.,-1.));
#337=DIRECTION('',(-1.,0.,0.));
#338=DIRECTION('',(0.,0.,-1.));
#339=DIRECTION('',(-1.,0.,0.));
#340=DIRECTION('',(0.,0.,-1.));
#341=DIRECTION('',(-1.,0.,0.));
#342=DIRECTION('',(0.,0.,-1.));
#343=DIRECTION('',(-1.,0.,0.));
#344=DIRECTION('',(0.,0.,1.));
#345=DIRECTION('',(1.,0.,0.));
#346=DIRECTION('',(0.,0.,-1.));
#347=DIRECTION('',(-1.,0.,0.));
#348=DIRECTION('',(0.,0.,-1.));
#349=DIRECTION('',(-1.,0.,0.));
#350=DIRECTION('',(0.,0.,-1.));
#351=DIRECTION('',(-1.,0.,0.));
#352=DIRECTION('',(0.,0.,-1.));
#353=DIRECTION('',(-1.,0.,0.));
#354=DIRECTION('',(0.,0.,-1.));
#355=DIRECTION('',(-1.,0.,0.));
#356=DIRECTION('',(0.,0.,-1.));
#357=DIRECTION('',(-1.,0.,0.));
#358=DIRECTION('',(0.,0.,-1.));
#359=DIRECTION('',(-1.,0.,0.));
#360=DIRECTION('',(0.,0.,-1.));
#361=DIRECTION('',(-1.,0.,0.));
#362=DIRECTION('',(0.,0.,-1.));
#363=DIRECTION('',(-1.,0.,0.));
#364=DIRECTION('',(0.,0.,-1.));
#365=DIRECTION('',(-1.,0.,0.));
#366=DIRECTION('',(0.,0.,-1.));
#367=DIRECTION('',(-1.,0.,0.));
#368=DIRECTION('',(0.,0.,-1.));
#369=DIRECTION('',(-1.,0.,0.));
#370=DIRECTION('',(0.,0.,-1.));
#371=DIRECTION('',(-1.,0.,0.));
#372=DIRECTION('',(0.,0.,-1.));
#373=DIRECTION('',(-1.,0.,0.));
#374=DIRECTION('',(0.,0.,-1.));
#375=DIRECTION('',(-1.,0.,0.));
#376=DIRECTION('',(0.,0.,-1.));
#377=DIRECTION('',(-1.,0.,0.));
#378=DIRECTION('',(0.,0.,-1.));
#379=DIRECTION('',(-1.,0.,0.));
#380=DIRECTION('',(0.,0.,1.));
#381=DIRECTION('',(1.,0.,0.));
#382=DIRECTION('',(0.,0.,-1.));
#383=DIRECTION('',(-1.,0.,0.));
#384=DIRECTION('',(0.,0.,-1.));
#385=DIRECTION('',(-1.,0.,0.));
#386=DIRECTION('',(0.,0.,-1.));
#387=DIRECTION('',(-1.,0.,0.));
#388=DIRECTION('',(0.,0.,-1.));
#389=DIRECTION('',(-1.,0.,0.));
#390=DIRECTION('',(0.,0.,-1.));
#391=DIRECTION('',(-1.,0.,0.));
#392=CARTESIAN_POINT('',(0.,0.,0.));
#393=CARTESIAN_POINT('',(0.,0.,-24.8));
#394=CARTESIAN_POINT('',(0.,0.,-10.4783882181415));
#395=CARTESIAN_POINT('',(11.,0.,-10.4783882181415));
#396=CARTESIAN_POINT('',(0.,0.,-11.3));
#397=CARTESIAN_POINT('',(-11.,0.,-11.3));
#398=CARTESIAN_POINT('',(0.,10.775,4.33680868994202E-16));
#399=CARTESIAN_POINT('',(0.,0.,0.));
#400=CARTESIAN_POINT('',(-10.,0.,0.));
#401=CARTESIAN_POINT('',(0.,0.,0.));
#402=CARTESIAN_POINT('',(-10.775,0.,0.));
#403=CARTESIAN_POINT('',(0.,0.,-24.8));
#404=CARTESIAN_POINT('',(0.,0.,-24.8));
#405=CARTESIAN_POINT('',(-10.,0.,-24.8));
#406=CARTESIAN_POINT('',(0.,10.,-24.8));
#407=CARTESIAN_POINT('',(0.,0.,-24.8));
#408=CARTESIAN_POINT('',(-10.5,0.,-24.8));
#409=CARTESIAN_POINT('',(0.,0.,-24.3));
#410=CARTESIAN_POINT('',(0.,0.,-24.3));
#411=CARTESIAN_POINT('',(-11.,0.,-24.3));
#412=CARTESIAN_POINT('',(0.,0.,-24.8));
#413=CARTESIAN_POINT('',(0.,0.,-12.3));
#414=CARTESIAN_POINT('',(-11.,0.,-12.3));
#415=CARTESIAN_POINT('',(0.,11.,-12.3));
#416=CARTESIAN_POINT('',(0.,0.,-12.3));
#417=CARTESIAN_POINT('',(-11.75,0.,-12.3));
#418=CARTESIAN_POINT('',(0.,0.,-11.8));
#419=CARTESIAN_POINT('',(0.,0.,-11.3));
#420=CARTESIAN_POINT('',(-11.75,0.,-11.3));
#421=CARTESIAN_POINT('',(0.,11.75,-11.3));
#422=CARTESIAN_POINT('',(0.,0.,-24.8));
#423=CARTESIAN_POINT('',(0.,0.,-9.1));
#424=CARTESIAN_POINT('',(-11.,0.,-9.1));
#425=CARTESIAN_POINT('',(0.,0.,-9.9216117818585));
#426=CARTESIAN_POINT('',(-11.,0.,-9.9216117818585));
#427=CARTESIAN_POINT('',(0.,11.,-9.1));
#428=CARTESIAN_POINT('',(0.,0.,-9.1));
#429=CARTESIAN_POINT('',(-11.75,0.,-9.1));
#430=CARTESIAN_POINT('',(0.,0.,-8.59999999999999));
#431=CARTESIAN_POINT('',(0.,0.,-8.6));
#432=CARTESIAN_POINT('',(-12.25,0.,-8.6));
#433=CARTESIAN_POINT('',(0.,0.,-24.8));
#434=CARTESIAN_POINT('',(0.,0.,-8.));
#435=CARTESIAN_POINT('',(-12.25,0.,-8.));
#436=CARTESIAN_POINT('',(0.,12.25,-8.));
#437=CARTESIAN_POINT('',(0.,0.,-8.));
#438=CARTESIAN_POINT('',(-13.,0.,-8.));
#439=CARTESIAN_POINT('',(0.,0.,-7.));
#440=CARTESIAN_POINT('',(0.,0.,-7.));
#441=CARTESIAN_POINT('',(-14.,0.,-7.));
#442=CARTESIAN_POINT('',(0.,0.,-24.8));
#443=CARTESIAN_POINT('',(0.,0.,-6.5));
#444=CARTESIAN_POINT('',(-14.,0.,-6.5));
#445=CARTESIAN_POINT('',(0.,0.,-6.5));
#446=CARTESIAN_POINT('',(0.,0.,-6.));
#447=CARTESIAN_POINT('',(-13.5,0.,-6.));
#448=CARTESIAN_POINT('',(0.,13.5,-6.));
#449=CARTESIAN_POINT('',(0.,0.,-6.));
#450=CARTESIAN_POINT('',(-11.275,0.,-6.));
#451=CARTESIAN_POINT('',(0.,0.,-24.8));
#452=CARTESIAN_POINT('',(0.,0.,-0.5));
#453=CARTESIAN_POINT('',(-11.275,0.,-0.5));
#454=CARTESIAN_POINT('',(0.,0.,-0.5));
#455=CARTESIAN_POINT('',(0.,0.,-10.2));
#456=MECHANICAL_DESIGN_GEOMETRIC_PRESENTATION_REPRESENTATION('',(#252),
#457);
#457=(
GEOMETRIC_REPRESENTATION_CONTEXT(3)
GLOBAL_UNCERTAINTY_ASSIGNED_CONTEXT((#458))
GLOBAL_UNIT_ASSIGNED_CONTEXT((#461,#460,#459))
REPRESENTATION_CONTEXT('196984 CQA-28','TOP_LEVEL_ASSEMBLY_PART')
);
#458=UNCERTAINTY_MEASURE_WITH_UNIT(LENGTH_MEASURE(0.005),#461,
'DISTANCE_ACCURACY_VALUE','Maximum Tolerance applied to model');
#459=(
NAMED_UNIT(*)
SI_UNIT($,.STERADIAN.)
SOLID_ANGLE_UNIT()
);
#460=(
NAMED_UNIT(*)
PLANE_ANGLE_UNIT()
SI_UNIT($,.RADIAN.)
);
#461=(
LENGTH_UNIT()
NAMED_UNIT(*)
SI_UNIT(.MILLI.,.METRE.)
);
#462=PRODUCT_DEFINITION_SHAPE('','',#463);
#463=PRODUCT_DEFINITION('','',#465,#464);
#464=PRODUCT_DEFINITION_CONTEXT('',#471,'design');
#465=PRODUCT_DEFINITION_FORMATION_WITH_SPECIFIED_SOURCE('','',#467,
 .NOT_KNOWN.);
#466=PRODUCT_RELATED_PRODUCT_CATEGORY('','',(#467));
#467=PRODUCT('196984 CQA-28','196984 CQA-28','196984 CQA-28',(#469));
#468=PRODUCT_CATEGORY('','');
#469=PRODUCT_CONTEXT('',#471,'mechanical');
#470=APPLICATION_PROTOCOL_DEFINITION('international standard',
'automotive_design',2010,#471);
#471=APPLICATION_CONTEXT(
'core data for automotive mechanical design processes');
ENDSEC;
END-ISO-10303-21;
