ISO-10303-21;
HEADER;
/* Generated by software containing ST-Developer
 * from STEP Tools, Inc. (www.steptools.com) 
 */
/* OPTION: using custom renumber hook */

FILE_DESCRIPTION(
/* description */ ('STEP AP214'),
/* implementation_level */ '2;1');

FILE_NAME(
/* name */ '197326_CR-M30X15',
/* time_stamp */ '2024-08-08T18:54:19+02:00',
/* author */ ('License CC BY-ND 4.0'),
/* organization */ ('CADENAS'),
/* preprocessor_version */ 'ST-DEVELOPER v19.3',
/* originating_system */ 'PARTsolutions',
/* authorisation */ '  ');

FILE_SCHEMA (('AUTOMOTIVE_DESIGN {1 0 10303 214 3 1 1}'));
ENDSEC;

DATA;
#10=PROPERTY_DEFINITION_REPRESENTATION(#14,#12);
#11=PROPERTY_DEFINITION_REPRESENTATION(#15,#13);
#12=REPRESENTATION('',(#16),#703);
#13=REPRESENTATION('',(#17),#703);
#14=PROPERTY_DEFINITION('pmi validation property','',#708);
#15=PROPERTY_DEFINITION('pmi validation property','',#708);
#16=VALUE_REPRESENTATION_ITEM('number of annotations',COUNT_MEASURE(0.));
#17=VALUE_REPRESENTATION_ITEM('number of views',COUNT_MEASURE(0.));
#18=SHAPE_REPRESENTATION_RELATIONSHIP('','',#431,#19);
#19=ADVANCED_BREP_SHAPE_REPRESENTATION('',(#429),#703);
#20=CONICAL_SURFACE('',#453,15.,1.0471975511966);
#21=CONICAL_SURFACE('',#457,14.188,0.785398163397447);
#22=PLANE('',#442);
#23=PLANE('',#447);
#24=PLANE('',#451);
#25=PLANE('',#458);
#26=PLANE('',#459);
#27=PLANE('',#460);
#28=PLANE('',#461);
#29=PLANE('',#462);
#30=PLANE('',#463);
#31=PLANE('',#464);
#32=PLANE('',#465);
#33=PLANE('',#466);
#34=PLANE('',#467);
#35=PLANE('',#468);
#36=PLANE('',#469);
#37=LINE('',#591,#77);
#38=LINE('',#595,#78);
#39=LINE('',#600,#79);
#40=LINE('',#604,#80);
#41=LINE('',#609,#81);
#42=LINE('',#613,#82);
#43=LINE('',#623,#83);
#44=LINE('',#626,#84);
#45=LINE('',#630,#85);
#46=LINE('',#632,#86);
#47=LINE('',#634,#87);
#48=LINE('',#635,#88);
#49=LINE('',#637,#89);
#50=LINE('',#639,#90);
#51=LINE('',#640,#91);
#52=LINE('',#642,#92);
#53=LINE('',#644,#93);
#54=LINE('',#645,#94);
#55=LINE('',#647,#95);
#56=LINE('',#651,#96);
#57=LINE('',#655,#97);
#58=LINE('',#657,#98);
#59=LINE('',#659,#99);
#60=LINE('',#660,#100);
#61=LINE('',#662,#101);
#62=LINE('',#664,#102);
#63=LINE('',#665,#103);
#64=LINE('',#667,#104);
#65=LINE('',#669,#105);
#66=LINE('',#670,#106);
#67=LINE('',#672,#107);
#68=LINE('',#674,#108);
#69=LINE('',#683,#109);
#70=LINE('',#685,#110);
#71=LINE('',#688,#111);
#72=LINE('',#690,#112);
#73=LINE('',#693,#113);
#74=LINE('',#695,#114);
#75=LINE('',#698,#115);
#76=LINE('',#700,#116);
#77=VECTOR('',#476,1000.);
#78=VECTOR('',#479,1000.);
#79=VECTOR('',#484,1000.);
#80=VECTOR('',#487,1000.);
#81=VECTOR('',#492,1000.);
#82=VECTOR('',#495,1000.);
#83=VECTOR('',#508,1000.);
#84=VECTOR('',#509,1000.);
#85=VECTOR('',#512,1000.);
#86=VECTOR('',#513,1000.);
#87=VECTOR('',#514,1000.);
#88=VECTOR('',#515,1000.);
#89=VECTOR('',#516,1000.);
#90=VECTOR('',#517,1000.);
#91=VECTOR('',#518,1000.);
#92=VECTOR('',#519,1000.);
#93=VECTOR('',#520,1000.);
#94=VECTOR('',#521,1000.);
#95=VECTOR('',#524,1000.);
#96=VECTOR('',#527,1000.);
#97=VECTOR('',#532,1000.);
#98=VECTOR('',#533,1000.);
#99=VECTOR('',#534,1000.);
#100=VECTOR('',#535,1000.);
#101=VECTOR('',#536,1000.);
#102=VECTOR('',#537,1000.);
#103=VECTOR('',#538,1000.);
#104=VECTOR('',#539,1000.);
#105=VECTOR('',#540,1000.);
#106=VECTOR('',#541,1000.);
#107=VECTOR('',#542,1000.);
#108=VECTOR('',#543,1000.);
#109=VECTOR('',#556,1000.);
#110=VECTOR('',#559,1000.);
#111=VECTOR('',#564,1000.);
#112=VECTOR('',#567,1000.);
#113=VECTOR('',#572,1000.);
#114=VECTOR('',#575,1000.);
#115=VECTOR('',#580,1000.);
#116=VECTOR('',#583,1000.);
#117=ORIENTED_EDGE('',*,*,#225,.F.);
#118=ORIENTED_EDGE('',*,*,#226,.F.);
#119=ORIENTED_EDGE('',*,*,#227,.T.);
#120=ORIENTED_EDGE('',*,*,#228,.T.);
#121=ORIENTED_EDGE('',*,*,#229,.F.);
#122=ORIENTED_EDGE('',*,*,#230,.F.);
#123=ORIENTED_EDGE('',*,*,#231,.T.);
#124=ORIENTED_EDGE('',*,*,#232,.T.);
#125=ORIENTED_EDGE('',*,*,#233,.F.);
#126=ORIENTED_EDGE('',*,*,#234,.F.);
#127=ORIENTED_EDGE('',*,*,#235,.T.);
#128=ORIENTED_EDGE('',*,*,#236,.T.);
#129=ORIENTED_EDGE('',*,*,#237,.F.);
#130=ORIENTED_EDGE('',*,*,#238,.T.);
#131=ORIENTED_EDGE('',*,*,#239,.F.);
#132=ORIENTED_EDGE('',*,*,#237,.T.);
#133=ORIENTED_EDGE('',*,*,#240,.T.);
#134=ORIENTED_EDGE('',*,*,#241,.T.);
#135=ORIENTED_EDGE('',*,*,#242,.F.);
#136=ORIENTED_EDGE('',*,*,#243,.T.);
#137=ORIENTED_EDGE('',*,*,#244,.T.);
#138=ORIENTED_EDGE('',*,*,#245,.T.);
#139=ORIENTED_EDGE('',*,*,#235,.F.);
#140=ORIENTED_EDGE('',*,*,#246,.T.);
#141=ORIENTED_EDGE('',*,*,#247,.T.);
#142=ORIENTED_EDGE('',*,*,#248,.T.);
#143=ORIENTED_EDGE('',*,*,#231,.F.);
#144=ORIENTED_EDGE('',*,*,#249,.T.);
#145=ORIENTED_EDGE('',*,*,#250,.T.);
#146=ORIENTED_EDGE('',*,*,#251,.T.);
#147=ORIENTED_EDGE('',*,*,#227,.F.);
#148=ORIENTED_EDGE('',*,*,#252,.T.);
#149=ORIENTED_EDGE('',*,*,#239,.T.);
#150=ORIENTED_EDGE('',*,*,#242,.T.);
#151=ORIENTED_EDGE('',*,*,#253,.T.);
#152=ORIENTED_EDGE('',*,*,#254,.F.);
#153=ORIENTED_EDGE('',*,*,#255,.F.);
#154=ORIENTED_EDGE('',*,*,#256,.F.);
#155=ORIENTED_EDGE('',*,*,#254,.T.);
#156=ORIENTED_EDGE('',*,*,#257,.F.);
#157=ORIENTED_EDGE('',*,*,#258,.T.);
#158=ORIENTED_EDGE('',*,*,#259,.F.);
#159=ORIENTED_EDGE('',*,*,#225,.T.);
#160=ORIENTED_EDGE('',*,*,#260,.F.);
#161=ORIENTED_EDGE('',*,*,#261,.F.);
#162=ORIENTED_EDGE('',*,*,#262,.F.);
#163=ORIENTED_EDGE('',*,*,#229,.T.);
#164=ORIENTED_EDGE('',*,*,#263,.F.);
#165=ORIENTED_EDGE('',*,*,#264,.F.);
#166=ORIENTED_EDGE('',*,*,#265,.F.);
#167=ORIENTED_EDGE('',*,*,#233,.T.);
#168=ORIENTED_EDGE('',*,*,#266,.F.);
#169=ORIENTED_EDGE('',*,*,#267,.F.);
#170=ORIENTED_EDGE('',*,*,#268,.F.);
#171=ORIENTED_EDGE('',*,*,#269,.T.);
#172=ORIENTED_EDGE('',*,*,#238,.F.);
#173=ORIENTED_EDGE('',*,*,#270,.T.);
#174=ORIENTED_EDGE('',*,*,#269,.F.);
#175=ORIENTED_EDGE('',*,*,#256,.T.);
#176=ORIENTED_EDGE('',*,*,#270,.F.);
#177=ORIENTED_EDGE('',*,*,#255,.T.);
#178=ORIENTED_EDGE('',*,*,#268,.T.);
#179=ORIENTED_EDGE('',*,*,#271,.F.);
#180=ORIENTED_EDGE('',*,*,#243,.F.);
#181=ORIENTED_EDGE('',*,*,#271,.T.);
#182=ORIENTED_EDGE('',*,*,#267,.T.);
#183=ORIENTED_EDGE('',*,*,#272,.F.);
#184=ORIENTED_EDGE('',*,*,#244,.F.);
#185=ORIENTED_EDGE('',*,*,#272,.T.);
#186=ORIENTED_EDGE('',*,*,#266,.T.);
#187=ORIENTED_EDGE('',*,*,#236,.F.);
#188=ORIENTED_EDGE('',*,*,#245,.F.);
#189=ORIENTED_EDGE('',*,*,#234,.T.);
#190=ORIENTED_EDGE('',*,*,#265,.T.);
#191=ORIENTED_EDGE('',*,*,#273,.F.);
#192=ORIENTED_EDGE('',*,*,#246,.F.);
#193=ORIENTED_EDGE('',*,*,#273,.T.);
#194=ORIENTED_EDGE('',*,*,#264,.T.);
#195=ORIENTED_EDGE('',*,*,#274,.F.);
#196=ORIENTED_EDGE('',*,*,#247,.F.);
#197=ORIENTED_EDGE('',*,*,#274,.T.);
#198=ORIENTED_EDGE('',*,*,#263,.T.);
#199=ORIENTED_EDGE('',*,*,#232,.F.);
#200=ORIENTED_EDGE('',*,*,#248,.F.);
#201=ORIENTED_EDGE('',*,*,#230,.T.);
#202=ORIENTED_EDGE('',*,*,#262,.T.);
#203=ORIENTED_EDGE('',*,*,#275,.F.);
#204=ORIENTED_EDGE('',*,*,#249,.F.);
#205=ORIENTED_EDGE('',*,*,#275,.T.);
#206=ORIENTED_EDGE('',*,*,#261,.T.);
#207=ORIENTED_EDGE('',*,*,#276,.F.);
#208=ORIENTED_EDGE('',*,*,#250,.F.);
#209=ORIENTED_EDGE('',*,*,#276,.T.);
#210=ORIENTED_EDGE('',*,*,#260,.T.);
#211=ORIENTED_EDGE('',*,*,#228,.F.);
#212=ORIENTED_EDGE('',*,*,#251,.F.);
#213=ORIENTED_EDGE('',*,*,#277,.T.);
#214=ORIENTED_EDGE('',*,*,#257,.T.);
#215=ORIENTED_EDGE('',*,*,#253,.F.);
#216=ORIENTED_EDGE('',*,*,#241,.F.);
#217=ORIENTED_EDGE('',*,*,#278,.T.);
#218=ORIENTED_EDGE('',*,*,#258,.F.);
#219=ORIENTED_EDGE('',*,*,#277,.F.);
#220=ORIENTED_EDGE('',*,*,#240,.F.);
#221=ORIENTED_EDGE('',*,*,#226,.T.);
#222=ORIENTED_EDGE('',*,*,#259,.T.);
#223=ORIENTED_EDGE('',*,*,#278,.F.);
#224=ORIENTED_EDGE('',*,*,#252,.F.);
#225=EDGE_CURVE('',#279,#280,#317,.T.);
#226=EDGE_CURVE('',#281,#279,#37,.T.);
#227=EDGE_CURVE('',#281,#282,#318,.T.);
#228=EDGE_CURVE('',#282,#280,#38,.T.);
#229=EDGE_CURVE('',#283,#284,#319,.T.);
#230=EDGE_CURVE('',#285,#283,#39,.T.);
#231=EDGE_CURVE('',#285,#286,#320,.T.);
#232=EDGE_CURVE('',#286,#284,#40,.T.);
#233=EDGE_CURVE('',#287,#288,#321,.T.);
#234=EDGE_CURVE('',#289,#287,#41,.T.);
#235=EDGE_CURVE('',#289,#290,#322,.T.);
#236=EDGE_CURVE('',#290,#288,#42,.T.);
#237=EDGE_CURVE('',#291,#291,#323,.T.);
#238=EDGE_CURVE('',#292,#292,#324,.T.);
#239=EDGE_CURVE('',#293,#293,#325,.T.);
#240=EDGE_CURVE('',#294,#295,#43,.T.);
#241=EDGE_CURVE('',#295,#296,#44,.T.);
#242=EDGE_CURVE('',#297,#296,#326,.T.);
#243=EDGE_CURVE('',#297,#298,#45,.T.);
#244=EDGE_CURVE('',#298,#299,#46,.T.);
#245=EDGE_CURVE('',#299,#290,#47,.T.);
#246=EDGE_CURVE('',#289,#300,#48,.T.);
#247=EDGE_CURVE('',#300,#301,#49,.T.);
#248=EDGE_CURVE('',#301,#286,#50,.T.);
#249=EDGE_CURVE('',#285,#302,#51,.T.);
#250=EDGE_CURVE('',#302,#303,#52,.T.);
#251=EDGE_CURVE('',#303,#282,#53,.T.);
#252=EDGE_CURVE('',#281,#294,#54,.T.);
#253=EDGE_CURVE('',#296,#304,#55,.T.);
#254=EDGE_CURVE('',#305,#304,#327,.T.);
#255=EDGE_CURVE('',#297,#305,#56,.T.);
#256=EDGE_CURVE('',#306,#306,#328,.T.);
#257=EDGE_CURVE('',#307,#304,#57,.T.);
#258=EDGE_CURVE('',#307,#308,#58,.T.);
#259=EDGE_CURVE('',#279,#308,#59,.T.);
#260=EDGE_CURVE('',#309,#280,#60,.T.);
#261=EDGE_CURVE('',#310,#309,#61,.T.);
#262=EDGE_CURVE('',#283,#310,#62,.T.);
#263=EDGE_CURVE('',#311,#284,#63,.T.);
#264=EDGE_CURVE('',#312,#311,#64,.T.);
#265=EDGE_CURVE('',#287,#312,#65,.T.);
#266=EDGE_CURVE('',#313,#288,#66,.T.);
#267=EDGE_CURVE('',#314,#313,#67,.T.);
#268=EDGE_CURVE('',#305,#314,#68,.T.);
#269=EDGE_CURVE('',#315,#315,#329,.T.);
#270=EDGE_CURVE('',#316,#316,#330,.T.);
#271=EDGE_CURVE('',#298,#314,#69,.T.);
#272=EDGE_CURVE('',#299,#313,#70,.T.);
#273=EDGE_CURVE('',#300,#312,#71,.T.);
#274=EDGE_CURVE('',#301,#311,#72,.T.);
#275=EDGE_CURVE('',#302,#310,#73,.T.);
#276=EDGE_CURVE('',#303,#309,#74,.T.);
#277=EDGE_CURVE('',#295,#307,#75,.T.);
#278=EDGE_CURVE('',#294,#308,#76,.T.);
#279=VERTEX_POINT('',#589);
#280=VERTEX_POINT('',#590);
#281=VERTEX_POINT('',#592);
#282=VERTEX_POINT('',#594);
#283=VERTEX_POINT('',#598);
#284=VERTEX_POINT('',#599);
#285=VERTEX_POINT('',#601);
#286=VERTEX_POINT('',#603);
#287=VERTEX_POINT('',#607);
#288=VERTEX_POINT('',#608);
#289=VERTEX_POINT('',#610);
#290=VERTEX_POINT('',#612);
#291=VERTEX_POINT('',#616);
#292=VERTEX_POINT('',#618);
#293=VERTEX_POINT('',#621);
#294=VERTEX_POINT('',#624);
#295=VERTEX_POINT('',#625);
#296=VERTEX_POINT('',#627);
#297=VERTEX_POINT('',#629);
#298=VERTEX_POINT('',#631);
#299=VERTEX_POINT('',#633);
#300=VERTEX_POINT('',#636);
#301=VERTEX_POINT('',#638);
#302=VERTEX_POINT('',#641);
#303=VERTEX_POINT('',#643);
#304=VERTEX_POINT('',#648);
#305=VERTEX_POINT('',#650);
#306=VERTEX_POINT('',#654);
#307=VERTEX_POINT('',#656);
#308=VERTEX_POINT('',#658);
#309=VERTEX_POINT('',#661);
#310=VERTEX_POINT('',#663);
#311=VERTEX_POINT('',#666);
#312=VERTEX_POINT('',#668);
#313=VERTEX_POINT('',#671);
#314=VERTEX_POINT('',#673);
#315=VERTEX_POINT('',#677);
#316=VERTEX_POINT('',#680);
#317=CIRCLE('',#434,21.);
#318=CIRCLE('',#435,21.);
#319=CIRCLE('',#437,21.);
#320=CIRCLE('',#438,21.);
#321=CIRCLE('',#440,21.);
#322=CIRCLE('',#441,21.);
#323=CIRCLE('',#443,18.);
#324=CIRCLE('',#444,15.);
#325=CIRCLE('',#446,18.);
#326=CIRCLE('',#448,21.);
#327=CIRCLE('',#450,21.);
#328=CIRCLE('',#452,15.);
#329=CIRCLE('',#454,14.188);
#330=CIRCLE('',#456,14.188);
#331=EDGE_LOOP('',(#117,#118,#119,#120));
#332=EDGE_LOOP('',(#121,#122,#123,#124));
#333=EDGE_LOOP('',(#125,#126,#127,#128));
#334=EDGE_LOOP('',(#129));
#335=EDGE_LOOP('',(#130));
#336=EDGE_LOOP('',(#131));
#337=EDGE_LOOP('',(#132));
#338=EDGE_LOOP('',(#133,#134,#135,#136,#137,#138,#139,#140,#141,#142,#143,
#144,#145,#146,#147,#148));
#339=EDGE_LOOP('',(#149));
#340=EDGE_LOOP('',(#150,#151,#152,#153));
#341=EDGE_LOOP('',(#154));
#342=EDGE_LOOP('',(#155,#156,#157,#158,#159,#160,#161,#162,#163,#164,#165,
#166,#167,#168,#169,#170));
#343=EDGE_LOOP('',(#171));
#344=EDGE_LOOP('',(#172));
#345=EDGE_LOOP('',(#173));
#346=EDGE_LOOP('',(#174));
#347=EDGE_LOOP('',(#175));
#348=EDGE_LOOP('',(#176));
#349=EDGE_LOOP('',(#177,#178,#179,#180));
#350=EDGE_LOOP('',(#181,#182,#183,#184));
#351=EDGE_LOOP('',(#185,#186,#187,#188));
#352=EDGE_LOOP('',(#189,#190,#191,#192));
#353=EDGE_LOOP('',(#193,#194,#195,#196));
#354=EDGE_LOOP('',(#197,#198,#199,#200));
#355=EDGE_LOOP('',(#201,#202,#203,#204));
#356=EDGE_LOOP('',(#205,#206,#207,#208));
#357=EDGE_LOOP('',(#209,#210,#211,#212));
#358=EDGE_LOOP('',(#213,#214,#215,#216));
#359=EDGE_LOOP('',(#217,#218,#219,#220));
#360=EDGE_LOOP('',(#221,#222,#223,#224));
#361=FACE_BOUND('',#331,.T.);
#362=FACE_BOUND('',#332,.T.);
#363=FACE_BOUND('',#333,.T.);
#364=FACE_BOUND('',#334,.T.);
#365=FACE_BOUND('',#335,.T.);
#366=FACE_BOUND('',#336,.T.);
#367=FACE_BOUND('',#337,.T.);
#368=FACE_BOUND('',#338,.T.);
#369=FACE_BOUND('',#339,.T.);
#370=FACE_BOUND('',#340,.T.);
#371=FACE_BOUND('',#341,.T.);
#372=FACE_BOUND('',#342,.T.);
#373=FACE_BOUND('',#343,.T.);
#374=FACE_BOUND('',#344,.T.);
#375=FACE_BOUND('',#345,.T.);
#376=FACE_BOUND('',#346,.T.);
#377=FACE_BOUND('',#347,.T.);
#378=FACE_BOUND('',#348,.T.);
#379=FACE_BOUND('',#349,.T.);
#380=FACE_BOUND('',#350,.T.);
#381=FACE_BOUND('',#351,.T.);
#382=FACE_BOUND('',#352,.T.);
#383=FACE_BOUND('',#353,.T.);
#384=FACE_BOUND('',#354,.T.);
#385=FACE_BOUND('',#355,.T.);
#386=FACE_BOUND('',#356,.T.);
#387=FACE_BOUND('',#357,.T.);
#388=FACE_BOUND('',#358,.T.);
#389=FACE_BOUND('',#359,.T.);
#390=FACE_BOUND('',#360,.T.);
#391=CYLINDRICAL_SURFACE('',#433,21.);
#392=CYLINDRICAL_SURFACE('',#436,21.);
#393=CYLINDRICAL_SURFACE('',#439,21.);
#394=CYLINDRICAL_SURFACE('',#445,18.);
#395=CYLINDRICAL_SURFACE('',#449,21.);
#396=CYLINDRICAL_SURFACE('',#455,14.188);
#397=ADVANCED_FACE('',(#361),#391,.T.);
#398=ADVANCED_FACE('',(#362),#392,.T.);
#399=ADVANCED_FACE('',(#363),#393,.T.);
#400=ADVANCED_FACE('',(#364,#365),#22,.F.);
#401=ADVANCED_FACE('',(#366,#367),#394,.T.);
#402=ADVANCED_FACE('',(#368,#369),#23,.F.);
#403=ADVANCED_FACE('',(#370),#395,.T.);
#404=ADVANCED_FACE('',(#371,#372),#24,.F.);
#405=ADVANCED_FACE('',(#373,#374),#20,.F.);
#406=ADVANCED_FACE('',(#375,#376),#396,.F.);
#407=ADVANCED_FACE('',(#377,#378),#21,.F.);
#408=ADVANCED_FACE('',(#379),#25,.F.);
#409=ADVANCED_FACE('',(#380),#26,.F.);
#410=ADVANCED_FACE('',(#381),#27,.F.);
#411=ADVANCED_FACE('',(#382),#28,.F.);
#412=ADVANCED_FACE('',(#383),#29,.F.);
#413=ADVANCED_FACE('',(#384),#30,.F.);
#414=ADVANCED_FACE('',(#385),#31,.F.);
#415=ADVANCED_FACE('',(#386),#32,.F.);
#416=ADVANCED_FACE('',(#387),#33,.F.);
#417=ADVANCED_FACE('',(#388),#34,.F.);
#418=ADVANCED_FACE('',(#389),#35,.F.);
#419=ADVANCED_FACE('',(#390),#36,.F.);
#420=CLOSED_SHELL('',(#397,#398,#399,#400,#401,#402,#403,#404,#405,#406,
#407,#408,#409,#410,#411,#412,#413,#414,#415,#416,#417,#418,#419));
#421=STYLED_ITEM('',(#422),#429);
#422=PRESENTATION_STYLE_ASSIGNMENT((#423));
#423=SURFACE_STYLE_USAGE(.BOTH.,#424);
#424=SURFACE_SIDE_STYLE('',(#425));
#425=SURFACE_STYLE_FILL_AREA(#426);
#426=FILL_AREA_STYLE('',(#427));
#427=FILL_AREA_STYLE_COLOUR('',#428);
#428=COLOUR_RGB('',0.689999997615814,0.689999997615814,0.689999997615814);
#429=MANIFOLD_SOLID_BREP('197326 CR-M30X1,5',#420);
#430=SHAPE_DEFINITION_REPRESENTATION(#708,#431);
#431=SHAPE_REPRESENTATION('197326 CR-M30X1,5',(#432),#703);
#432=AXIS2_PLACEMENT_3D('',#586,#470,#471);
#433=AXIS2_PLACEMENT_3D('',#587,#472,#473);
#434=AXIS2_PLACEMENT_3D('',#588,#474,#475);
#435=AXIS2_PLACEMENT_3D('',#593,#477,#478);
#436=AXIS2_PLACEMENT_3D('',#596,#480,#481);
#437=AXIS2_PLACEMENT_3D('',#597,#482,#483);
#438=AXIS2_PLACEMENT_3D('',#602,#485,#486);
#439=AXIS2_PLACEMENT_3D('',#605,#488,#489);
#440=AXIS2_PLACEMENT_3D('',#606,#490,#491);
#441=AXIS2_PLACEMENT_3D('',#611,#493,#494);
#442=AXIS2_PLACEMENT_3D('',#614,#496,#497);
#443=AXIS2_PLACEMENT_3D('',#615,#498,#499);
#444=AXIS2_PLACEMENT_3D('',#617,#500,#501);
#445=AXIS2_PLACEMENT_3D('',#619,#502,#503);
#446=AXIS2_PLACEMENT_3D('',#620,#504,#505);
#447=AXIS2_PLACEMENT_3D('',#622,#506,#507);
#448=AXIS2_PLACEMENT_3D('',#628,#510,#511);
#449=AXIS2_PLACEMENT_3D('',#646,#522,#523);
#450=AXIS2_PLACEMENT_3D('',#649,#525,#526);
#451=AXIS2_PLACEMENT_3D('',#652,#528,#529);
#452=AXIS2_PLACEMENT_3D('',#653,#530,#531);
#453=AXIS2_PLACEMENT_3D('',#675,#544,#545);
#454=AXIS2_PLACEMENT_3D('',#676,#546,#547);
#455=AXIS2_PLACEMENT_3D('',#678,#548,#549);
#456=AXIS2_PLACEMENT_3D('',#679,#550,#551);
#457=AXIS2_PLACEMENT_3D('',#681,#552,#553);
#458=AXIS2_PLACEMENT_3D('',#682,#554,#555);
#459=AXIS2_PLACEMENT_3D('',#684,#557,#558);
#460=AXIS2_PLACEMENT_3D('',#686,#560,#561);
#461=AXIS2_PLACEMENT_3D('',#687,#562,#563);
#462=AXIS2_PLACEMENT_3D('',#689,#565,#566);
#463=AXIS2_PLACEMENT_3D('',#691,#568,#569);
#464=AXIS2_PLACEMENT_3D('',#692,#570,#571);
#465=AXIS2_PLACEMENT_3D('',#694,#573,#574);
#466=AXIS2_PLACEMENT_3D('',#696,#576,#577);
#467=AXIS2_PLACEMENT_3D('',#697,#578,#579);
#468=AXIS2_PLACEMENT_3D('',#699,#581,#582);
#469=AXIS2_PLACEMENT_3D('',#701,#584,#585);
#470=DIRECTION('',(0.,0.,1.));
#471=DIRECTION('',(1.,0.,0.));
#472=DIRECTION('',(0.,0.,-1.));
#473=DIRECTION('',(-1.,0.,0.));
#474=DIRECTION('',(0.,0.,-1.));
#475=DIRECTION('',(-1.,0.,0.));
#476=DIRECTION('',(0.,0.,-1.));
#477=DIRECTION('',(0.,0.,-1.));
#478=DIRECTION('',(-1.,0.,0.));
#479=DIRECTION('',(0.,0.,-1.));
#480=DIRECTION('',(0.,0.,-1.));
#481=DIRECTION('',(-1.,0.,0.));
#482=DIRECTION('',(0.,0.,-1.));
#483=DIRECTION('',(-1.,0.,0.));
#484=DIRECTION('',(0.,0.,-1.));
#485=DIRECTION('',(0.,0.,-1.));
#486=DIRECTION('',(-1.,0.,0.));
#487=DIRECTION('',(0.,0.,-1.));
#488=DIRECTION('',(0.,0.,-1.));
#489=DIRECTION('',(-1.,0.,0.));
#490=DIRECTION('',(0.,0.,-1.));
#491=DIRECTION('',(-1.,0.,0.));
#492=DIRECTION('',(0.,0.,-1.));
#493=DIRECTION('',(0.,0.,-1.));
#494=DIRECTION('',(-1.,0.,0.));
#495=DIRECTION('',(0.,0.,-1.));
#496=DIRECTION('',(0.,0.,-1.));
#497=DIRECTION('',(-1.,0.,0.));
#498=DIRECTION('',(0.,0.,-1.));
#499=DIRECTION('',(-1.,0.,0.));
#500=DIRECTION('',(0.,0.,-1.));
#501=DIRECTION('',(-1.,0.,0.));
#502=DIRECTION('',(0.,0.,-1.));
#503=DIRECTION('',(-1.,0.,0.));
#504=DIRECTION('',(0.,0.,-1.));
#505=DIRECTION('',(-1.,0.,0.));
#506=DIRECTION('',(0.,0.,-1.));
#507=DIRECTION('',(-1.,0.,0.));
#508=DIRECTION('',(-1.,0.,0.));
#509=DIRECTION('',(0.,1.,0.));
#510=DIRECTION('',(0.,0.,-1.));
#511=DIRECTION('',(-1.,0.,0.));
#512=DIRECTION('',(1.,0.,0.));
#513=DIRECTION('',(0.,-1.,0.));
#514=DIRECTION('',(-1.,0.,0.));
#515=DIRECTION('',(0.,1.,0.));
#516=DIRECTION('',(1.,0.,0.));
#517=DIRECTION('',(0.,-1.,0.));
#518=DIRECTION('',(-1.,0.,0.));
#519=DIRECTION('',(0.,1.,0.));
#520=DIRECTION('',(1.,0.,0.));
#521=DIRECTION('',(0.,-1.,0.));
#522=DIRECTION('',(0.,0.,-1.));
#523=DIRECTION('',(-1.,0.,0.));
#524=DIRECTION('',(0.,0.,-1.));
#525=DIRECTION('',(0.,0.,-1.));
#526=DIRECTION('',(-1.,0.,0.));
#527=DIRECTION('',(0.,0.,-1.));
#528=DIRECTION('',(0.,0.,1.));
#529=DIRECTION('',(1.,0.,0.));
#530=DIRECTION('',(0.,0.,-1.));
#531=DIRECTION('',(-1.,0.,0.));
#532=DIRECTION('',(0.,1.,0.));
#533=DIRECTION('',(1.,0.,0.));
#534=DIRECTION('',(0.,-1.,0.));
#535=DIRECTION('',(1.,0.,0.));
#536=DIRECTION('',(0.,1.,0.));
#537=DIRECTION('',(-1.,0.,0.));
#538=DIRECTION('',(0.,-1.,0.));
#539=DIRECTION('',(1.,0.,0.));
#540=DIRECTION('',(0.,1.,0.));
#541=DIRECTION('',(-1.,0.,0.));
#542=DIRECTION('',(0.,-1.,0.));
#543=DIRECTION('',(1.,0.,0.));
#544=DIRECTION('',(0.,0.,1.));
#545=DIRECTION('',(1.,0.,0.));
#546=DIRECTION('',(0.,0.,-1.));
#547=DIRECTION('',(-1.,0.,0.));
#548=DIRECTION('',(0.,0.,-1.));
#549=DIRECTION('',(-1.,0.,0.));
#550=DIRECTION('',(0.,0.,-1.));
#551=DIRECTION('',(-1.,0.,0.));
#552=DIRECTION('',(0.,0.,-1.));
#553=DIRECTION('',(-1.,0.,0.));
#554=DIRECTION('',(0.,1.,0.));
#555=DIRECTION('',(0.,0.,1.));
#556=DIRECTION('',(0.,0.,-1.));
#557=DIRECTION('',(1.,0.,0.));
#558=DIRECTION('',(0.,0.,-1.));
#559=DIRECTION('',(0.,0.,-1.));
#560=DIRECTION('',(0.,-1.,0.));
#561=DIRECTION('',(0.,0.,-1.));
#562=DIRECTION('',(-1.,0.,0.));
#563=DIRECTION('',(0.,0.,1.));
#564=DIRECTION('',(0.,0.,-1.));
#565=DIRECTION('',(0.,1.,0.));
#566=DIRECTION('',(0.,0.,1.));
#567=DIRECTION('',(0.,0.,-1.));
#568=DIRECTION('',(1.,0.,0.));
#569=DIRECTION('',(0.,0.,-1.));
#570=DIRECTION('',(0.,-1.,0.));
#571=DIRECTION('',(0.,0.,-1.));
#572=DIRECTION('',(0.,0.,-1.));
#573=DIRECTION('',(-1.,0.,0.));
#574=DIRECTION('',(0.,0.,1.));
#575=DIRECTION('',(0.,0.,-1.));
#576=DIRECTION('',(0.,1.,0.));
#577=DIRECTION('',(0.,0.,1.));
#578=DIRECTION('',(-1.,0.,0.));
#579=DIRECTION('',(0.,0.,1.));
#580=DIRECTION('',(0.,0.,-1.));
#581=DIRECTION('',(0.,-1.,0.));
#582=DIRECTION('',(0.,0.,-1.));
#583=DIRECTION('',(0.,0.,-1.));
#584=DIRECTION('',(1.,0.,0.));
#585=DIRECTION('',(0.,0.,-1.));
#586=CARTESIAN_POINT('',(0.,0.,0.));
#587=CARTESIAN_POINT('',(0.,0.,-4.));
#588=CARTESIAN_POINT('',(0.,0.,-4.));
#589=CARTESIAN_POINT('',(3.,20.7846096908265,-4.));
#590=CARTESIAN_POINT('',(20.7846096908265,3.,-4.));
#591=CARTESIAN_POINT('',(3.,20.7846096908265,4.));
#592=CARTESIAN_POINT('',(3.,20.7846096908265,3.5));
#593=CARTESIAN_POINT('',(0.,0.,3.5));
#594=CARTESIAN_POINT('',(20.7846096908265,3.,3.5));
#595=CARTESIAN_POINT('',(20.7846096908265,3.,4.));
#596=CARTESIAN_POINT('',(0.,0.,-4.));
#597=CARTESIAN_POINT('',(0.,0.,-4.));
#598=CARTESIAN_POINT('',(20.7846096908265,-3.,-4.));
#599=CARTESIAN_POINT('',(3.,-20.7846096908265,-4.));
#600=CARTESIAN_POINT('',(20.7846096908265,-3.,4.));
#601=CARTESIAN_POINT('',(20.7846096908265,-3.,3.5));
#602=CARTESIAN_POINT('',(0.,0.,3.5));
#603=CARTESIAN_POINT('',(3.,-20.7846096908265,3.5));
#604=CARTESIAN_POINT('',(3.,-20.7846096908265,4.));
#605=CARTESIAN_POINT('',(0.,0.,-4.));
#606=CARTESIAN_POINT('',(0.,0.,-4.));
#607=CARTESIAN_POINT('',(-3.00000000000001,-20.7846096908265,-4.));
#608=CARTESIAN_POINT('',(-20.7846096908265,-3.,-4.));
#609=CARTESIAN_POINT('',(-3.00000000000001,-20.7846096908265,4.));
#610=CARTESIAN_POINT('',(-3.00000000000001,-20.7846096908265,3.5));
#611=CARTESIAN_POINT('',(0.,0.,3.5));
#612=CARTESIAN_POINT('',(-20.7846096908265,-3.,3.5));
#613=CARTESIAN_POINT('',(-20.7846096908265,-3.,4.));
#614=CARTESIAN_POINT('',(0.,0.,4.));
#615=CARTESIAN_POINT('',(0.,0.,4.));
#616=CARTESIAN_POINT('',(-18.,0.,4.));
#617=CARTESIAN_POINT('',(0.,0.,4.));
#618=CARTESIAN_POINT('',(-15.,0.,4.));
#619=CARTESIAN_POINT('',(0.,0.,-4.));
#620=CARTESIAN_POINT('',(0.,0.,3.5));
#621=CARTESIAN_POINT('',(-18.,0.,3.5));
#622=CARTESIAN_POINT('',(0.,18.,3.5));
#623=CARTESIAN_POINT('',(0.,18.5,3.5));
#624=CARTESIAN_POINT('',(3.,18.5,3.5));
#625=CARTESIAN_POINT('',(-3.,18.5,3.5));
#626=CARTESIAN_POINT('',(-3.,18.,3.5));
#627=CARTESIAN_POINT('',(-3.,20.7846096908265,3.5));
#628=CARTESIAN_POINT('',(0.,0.,3.5));
#629=CARTESIAN_POINT('',(-20.7846096908265,3.,3.5));
#630=CARTESIAN_POINT('',(0.,3.,3.5));
#631=CARTESIAN_POINT('',(-18.5,3.,3.5));
#632=CARTESIAN_POINT('',(-18.5,18.,3.5));
#633=CARTESIAN_POINT('',(-18.5,-3.,3.5));
#634=CARTESIAN_POINT('',(0.,-3.,3.5));
#635=CARTESIAN_POINT('',(-3.,18.,3.5));
#636=CARTESIAN_POINT('',(-3.,-18.5,3.5));
#637=CARTESIAN_POINT('',(0.,-18.5,3.5));
#638=CARTESIAN_POINT('',(3.,-18.5,3.5));
#639=CARTESIAN_POINT('',(3.,18.,3.5));
#640=CARTESIAN_POINT('',(0.,-3.,3.5));
#641=CARTESIAN_POINT('',(18.5,-3.,3.5));
#642=CARTESIAN_POINT('',(18.5,18.,3.5));
#643=CARTESIAN_POINT('',(18.5,3.,3.5));
#644=CARTESIAN_POINT('',(0.,3.,3.5));
#645=CARTESIAN_POINT('',(3.,18.,3.5));
#646=CARTESIAN_POINT('',(0.,0.,-4.));
#647=CARTESIAN_POINT('',(-3.,20.7846096908265,4.));
#648=CARTESIAN_POINT('',(-3.,20.7846096908265,-4.));
#649=CARTESIAN_POINT('',(0.,0.,-4.));
#650=CARTESIAN_POINT('',(-20.7846096908265,3.,-4.));
#651=CARTESIAN_POINT('',(-20.7846096908265,3.,4.));
#652=CARTESIAN_POINT('',(0.,21.,-4.));
#653=CARTESIAN_POINT('',(0.,0.,-4.));
#654=CARTESIAN_POINT('',(-15.,0.,-4.));
#655=CARTESIAN_POINT('',(-3.,18.5,-4.));
#656=CARTESIAN_POINT('',(-3.,18.5,-4.));
#657=CARTESIAN_POINT('',(0.,18.5,-4.));
#658=CARTESIAN_POINT('',(3.,18.5,-4.));
#659=CARTESIAN_POINT('',(3.,20.7846096908265,-4.));
#660=CARTESIAN_POINT('',(18.5,3.,-4.));
#661=CARTESIAN_POINT('',(18.5,3.,-4.));
#662=CARTESIAN_POINT('',(18.5,-3.,-4.));
#663=CARTESIAN_POINT('',(18.5,-3.,-4.));
#664=CARTESIAN_POINT('',(20.7846096908265,-3.,-4.));
#665=CARTESIAN_POINT('',(3.,-18.5,-4.));
#666=CARTESIAN_POINT('',(3.,-18.5,-4.));
#667=CARTESIAN_POINT('',(-3.,-18.5,-4.));
#668=CARTESIAN_POINT('',(-3.,-18.5,-4.));
#669=CARTESIAN_POINT('',(-3.,-20.7846096908265,-4.));
#670=CARTESIAN_POINT('',(-18.5,-3.,-4.));
#671=CARTESIAN_POINT('',(-18.5,-3.,-4.));
#672=CARTESIAN_POINT('',(-18.5,3.,-4.));
#673=CARTESIAN_POINT('',(-18.5,3.,-4.));
#674=CARTESIAN_POINT('',(-20.7846096908265,3.,-4.));
#675=CARTESIAN_POINT('',(0.,0.,4.));
#676=CARTESIAN_POINT('',(0.,0.,3.53119158141802));
#677=CARTESIAN_POINT('',(-14.188,0.,3.53119158141802));
#678=CARTESIAN_POINT('',(0.,0.,-4.));
#679=CARTESIAN_POINT('',(0.,0.,-3.188));
#680=CARTESIAN_POINT('',(-14.188,0.,-3.188));
#681=CARTESIAN_POINT('',(0.,0.,-3.188));
#682=CARTESIAN_POINT('',(-20.7846096908265,3.,4.));
#683=CARTESIAN_POINT('',(-18.5,3.,4.));
#684=CARTESIAN_POINT('',(-18.5,3.,4.));
#685=CARTESIAN_POINT('',(-18.5,-3.,4.));
#686=CARTESIAN_POINT('',(-18.5,-3.,4.));
#687=CARTESIAN_POINT('',(-3.,-20.7846096908265,4.));
#688=CARTESIAN_POINT('',(-3.,-18.5,4.));
#689=CARTESIAN_POINT('',(-3.,-18.5,4.));
#690=CARTESIAN_POINT('',(3.,-18.5,4.));
#691=CARTESIAN_POINT('',(3.,-18.5,4.));
#692=CARTESIAN_POINT('',(20.7846096908265,-3.,4.));
#693=CARTESIAN_POINT('',(18.5,-3.,4.));
#694=CARTESIAN_POINT('',(18.5,-3.,4.));
#695=CARTESIAN_POINT('',(18.5,3.,4.));
#696=CARTESIAN_POINT('',(18.5,3.,4.));
#697=CARTESIAN_POINT('',(-3.,18.5,4.));
#698=CARTESIAN_POINT('',(-3.,18.5,4.));
#699=CARTESIAN_POINT('',(3.,18.5,4.));
#700=CARTESIAN_POINT('',(3.,18.5,4.));
#701=CARTESIAN_POINT('',(3.,20.7846096908265,4.));
#702=MECHANICAL_DESIGN_GEOMETRIC_PRESENTATION_REPRESENTATION('',(#421),
#703);
#703=(
GEOMETRIC_REPRESENTATION_CONTEXT(3)
GLOBAL_UNCERTAINTY_ASSIGNED_CONTEXT((#704))
GLOBAL_UNIT_ASSIGNED_CONTEXT((#707,#706,#705))
REPRESENTATION_CONTEXT('197326 CR-M30X1,5','TOP_LEVEL_ASSEMBLY_PART')
);
#704=UNCERTAINTY_MEASURE_WITH_UNIT(LENGTH_MEASURE(0.005),#707,
'DISTANCE_ACCURACY_VALUE','Maximum Tolerance applied to model');
#705=(
NAMED_UNIT(*)
SI_UNIT($,.STERADIAN.)
SOLID_ANGLE_UNIT()
);
#706=(
NAMED_UNIT(*)
PLANE_ANGLE_UNIT()
SI_UNIT($,.RADIAN.)
);
#707=(
LENGTH_UNIT()
NAMED_UNIT(*)
SI_UNIT(.MILLI.,.METRE.)
);
#708=PRODUCT_DEFINITION_SHAPE('','',#709);
#709=PRODUCT_DEFINITION('','',#711,#710);
#710=PRODUCT_DEFINITION_CONTEXT('',#717,'design');
#711=PRODUCT_DEFINITION_FORMATION_WITH_SPECIFIED_SOURCE('','',#713,
 .NOT_KNOWN.);
#712=PRODUCT_RELATED_PRODUCT_CATEGORY('','',(#713));
#713=PRODUCT('197326 CR-M30X1,5','197326 CR-M30X1,5',
'197326 CR-M30X1,5',(#715));
#714=PRODUCT_CATEGORY('','');
#715=PRODUCT_CONTEXT('',#717,'mechanical');
#716=APPLICATION_PROTOCOL_DEFINITION('international standard',
'automotive_design',2010,#717);
#717=APPLICATION_CONTEXT(
'core data for automotive mechanical design processes');
ENDSEC;
END-ISO-10303-21;
