ISO-10303-21;
HEADER;
/* Generated by software containing ST-Developer
 * from STEP Tools, Inc. (www.steptools.com) 
 */
/* OPTION: using custom renumber hook */

FILE_DESCRIPTION(
/* description */ ('STEP AP214'),
/* implementation_level */ '2;1');

FILE_NAME(
/* name */ '197582_UO-M7',
/* time_stamp */ '2024-09-15T16:23:59+02:00',
/* author */ ('License CC BY-ND 4.0'),
/* organization */ ('CADENAS'),
/* preprocessor_version */ 'ST-DEVELOPER v19.3',
/* originating_system */ 'PARTsolutions',
/* authorisation */ '  ');

FILE_SCHEMA (('AUTOMOTIVE_DESIGN {1 0 10303 214 3 1 1}'));
ENDSEC;

DATA;
#10=PROPERTY_DEFINITION_REPRESENTATION(#14,#12);
#11=PROPERTY_DEFINITION_REPRESENTATION(#15,#13);
#12=REPRESENTATION('',(#16),#517);
#13=REPRESENTATION('',(#17),#517);
#14=PROPERTY_DEFINITION('pmi validation property','',#522);
#15=PROPERTY_DEFINITION('pmi validation property','',#522);
#16=VALUE_REPRESENTATION_ITEM('number of annotations',COUNT_MEASURE(0.));
#17=VALUE_REPRESENTATION_ITEM('number of views',COUNT_MEASURE(0.));
#18=SHAPE_REPRESENTATION_RELATIONSHIP('','',#349,#19);
#19=ADVANCED_BREP_SHAPE_REPRESENTATION('',(#347),#517);
#20=DEGENERATE_TOROIDAL_SURFACE('',#382,0.000109291314253874,9.0000000000002,
 .F.);
#21=TOROIDAL_SURFACE('',#370,4.5,0.400000000000002);
#22=CYLINDRICAL_SURFACE('',#356,2.75);
#23=CYLINDRICAL_SURFACE('',#362,3.5);
#24=CYLINDRICAL_SURFACE('',#366,4.15);
#25=CYLINDRICAL_SURFACE('',#372,4.9);
#26=CYLINDRICAL_SURFACE('',#376,4.7);
#27=CYLINDRICAL_SURFACE('',#380,4.9);
#28=CYLINDRICAL_SURFACE('',#386,2.1);
#29=PLANE('',#354);
#30=PLANE('',#358);
#31=PLANE('',#364);
#32=PLANE('',#368);
#33=PLANE('',#374);
#34=PLANE('',#378);
#35=ORIENTED_EDGE('',*,*,#71,.T.);
#36=ORIENTED_EDGE('',*,*,#72,.F.);
#37=ORIENTED_EDGE('',*,*,#73,.T.);
#38=ORIENTED_EDGE('',*,*,#71,.F.);
#39=ORIENTED_EDGE('',*,*,#74,.T.);
#40=ORIENTED_EDGE('',*,*,#73,.F.);
#41=ORIENTED_EDGE('',*,*,#75,.T.);
#42=ORIENTED_EDGE('',*,*,#74,.F.);
#43=ORIENTED_EDGE('',*,*,#76,.T.);
#44=ORIENTED_EDGE('',*,*,#75,.F.);
#45=ORIENTED_EDGE('',*,*,#77,.T.);
#46=ORIENTED_EDGE('',*,*,#76,.F.);
#47=ORIENTED_EDGE('',*,*,#78,.T.);
#48=ORIENTED_EDGE('',*,*,#77,.F.);
#49=ORIENTED_EDGE('',*,*,#79,.T.);
#50=ORIENTED_EDGE('',*,*,#78,.F.);
#51=ORIENTED_EDGE('',*,*,#80,.T.);
#52=ORIENTED_EDGE('',*,*,#79,.F.);
#53=ORIENTED_EDGE('',*,*,#81,.T.);
#54=ORIENTED_EDGE('',*,*,#80,.F.);
#55=ORIENTED_EDGE('',*,*,#82,.T.);
#56=ORIENTED_EDGE('',*,*,#81,.F.);
#57=ORIENTED_EDGE('',*,*,#83,.T.);
#58=ORIENTED_EDGE('',*,*,#82,.F.);
#59=ORIENTED_EDGE('',*,*,#84,.T.);
#60=ORIENTED_EDGE('',*,*,#83,.F.);
#61=ORIENTED_EDGE('',*,*,#85,.T.);
#62=ORIENTED_EDGE('',*,*,#84,.F.);
#63=ORIENTED_EDGE('',*,*,#86,.T.);
#64=ORIENTED_EDGE('',*,*,#85,.F.);
#65=ORIENTED_EDGE('',*,*,#87,.T.);
#66=ORIENTED_EDGE('',*,*,#86,.F.);
#67=ORIENTED_EDGE('',*,*,#88,.T.);
#68=ORIENTED_EDGE('',*,*,#87,.F.);
#69=ORIENTED_EDGE('',*,*,#72,.T.);
#70=ORIENTED_EDGE('',*,*,#88,.F.);
#71=EDGE_CURVE('',#89,#89,#107,.T.);
#72=EDGE_CURVE('',#90,#90,#108,.T.);
#73=EDGE_CURVE('',#91,#91,#109,.T.);
#74=EDGE_CURVE('',#92,#92,#110,.T.);
#75=EDGE_CURVE('',#93,#93,#111,.T.);
#76=EDGE_CURVE('',#94,#94,#112,.T.);
#77=EDGE_CURVE('',#95,#95,#113,.T.);
#78=EDGE_CURVE('',#96,#96,#114,.T.);
#79=EDGE_CURVE('',#97,#97,#115,.T.);
#80=EDGE_CURVE('',#98,#98,#116,.T.);
#81=EDGE_CURVE('',#99,#99,#117,.T.);
#82=EDGE_CURVE('',#100,#100,#118,.T.);
#83=EDGE_CURVE('',#101,#101,#119,.T.);
#84=EDGE_CURVE('',#102,#102,#120,.T.);
#85=EDGE_CURVE('',#103,#103,#121,.T.);
#86=EDGE_CURVE('',#104,#104,#122,.T.);
#87=EDGE_CURVE('',#105,#105,#123,.T.);
#88=EDGE_CURVE('',#106,#106,#124,.T.);
#89=VERTEX_POINT('',#464);
#90=VERTEX_POINT('',#466);
#91=VERTEX_POINT('',#469);
#92=VERTEX_POINT('',#472);
#93=VERTEX_POINT('',#475);
#94=VERTEX_POINT('',#478);
#95=VERTEX_POINT('',#481);
#96=VERTEX_POINT('',#484);
#97=VERTEX_POINT('',#487);
#98=VERTEX_POINT('',#490);
#99=VERTEX_POINT('',#493);
#100=VERTEX_POINT('',#496);
#101=VERTEX_POINT('',#499);
#102=VERTEX_POINT('',#502);
#103=VERTEX_POINT('',#505);
#104=VERTEX_POINT('',#508);
#105=VERTEX_POINT('',#511);
#106=VERTEX_POINT('',#514);
#107=CIRCLE('',#352,2.5);
#108=CIRCLE('',#353,2.1);
#109=CIRCLE('',#355,2.75);
#110=CIRCLE('',#357,2.75);
#111=CIRCLE('',#359,2.8865);
#112=CIRCLE('',#361,3.5);
#113=CIRCLE('',#363,3.5);
#114=CIRCLE('',#365,4.15);
#115=CIRCLE('',#367,4.15);
#116=CIRCLE('',#369,4.5);
#117=CIRCLE('',#371,4.9);
#118=CIRCLE('',#373,4.9);
#119=CIRCLE('',#375,4.7);
#120=CIRCLE('',#377,4.7);
#121=CIRCLE('',#379,4.9);
#122=CIRCLE('',#381,4.9);
#123=CIRCLE('',#383,1.50000000000001);
#124=CIRCLE('',#385,2.1);
#125=EDGE_LOOP('',(#35));
#126=EDGE_LOOP('',(#36));
#127=EDGE_LOOP('',(#37));
#128=EDGE_LOOP('',(#38));
#129=EDGE_LOOP('',(#39));
#130=EDGE_LOOP('',(#40));
#131=EDGE_LOOP('',(#41));
#132=EDGE_LOOP('',(#42));
#133=EDGE_LOOP('',(#43));
#134=EDGE_LOOP('',(#44));
#135=EDGE_LOOP('',(#45));
#136=EDGE_LOOP('',(#46));
#137=EDGE_LOOP('',(#47));
#138=EDGE_LOOP('',(#48));
#139=EDGE_LOOP('',(#49));
#140=EDGE_LOOP('',(#50));
#141=EDGE_LOOP('',(#51));
#142=EDGE_LOOP('',(#52));
#143=EDGE_LOOP('',(#53));
#144=EDGE_LOOP('',(#54));
#145=EDGE_LOOP('',(#55));
#146=EDGE_LOOP('',(#56));
#147=EDGE_LOOP('',(#57));
#148=EDGE_LOOP('',(#58));
#149=EDGE_LOOP('',(#59));
#150=EDGE_LOOP('',(#60));
#151=EDGE_LOOP('',(#61));
#152=EDGE_LOOP('',(#62));
#153=EDGE_LOOP('',(#63));
#154=EDGE_LOOP('',(#64));
#155=EDGE_LOOP('',(#65));
#156=EDGE_LOOP('',(#66));
#157=EDGE_LOOP('',(#67));
#158=EDGE_LOOP('',(#68));
#159=EDGE_LOOP('',(#69));
#160=EDGE_LOOP('',(#70));
#161=FACE_BOUND('',#125,.T.);
#162=FACE_BOUND('',#126,.T.);
#163=FACE_BOUND('',#127,.T.);
#164=FACE_BOUND('',#128,.T.);
#165=FACE_BOUND('',#129,.T.);
#166=FACE_BOUND('',#130,.T.);
#167=FACE_BOUND('',#131,.T.);
#168=FACE_BOUND('',#132,.T.);
#169=FACE_BOUND('',#133,.T.);
#170=FACE_BOUND('',#134,.T.);
#171=FACE_BOUND('',#135,.T.);
#172=FACE_BOUND('',#136,.T.);
#173=FACE_BOUND('',#137,.T.);
#174=FACE_BOUND('',#138,.T.);
#175=FACE_BOUND('',#139,.T.);
#176=FACE_BOUND('',#140,.T.);
#177=FACE_BOUND('',#141,.T.);
#178=FACE_BOUND('',#142,.T.);
#179=FACE_BOUND('',#143,.T.);
#180=FACE_BOUND('',#144,.T.);
#181=FACE_BOUND('',#145,.T.);
#182=FACE_BOUND('',#146,.T.);
#183=FACE_BOUND('',#147,.T.);
#184=FACE_BOUND('',#148,.T.);
#185=FACE_BOUND('',#149,.T.);
#186=FACE_BOUND('',#150,.T.);
#187=FACE_BOUND('',#151,.T.);
#188=FACE_BOUND('',#152,.T.);
#189=FACE_BOUND('',#153,.T.);
#190=FACE_BOUND('',#154,.T.);
#191=FACE_BOUND('',#155,.T.);
#192=FACE_BOUND('',#156,.T.);
#193=FACE_BOUND('',#157,.T.);
#194=FACE_BOUND('',#158,.T.);
#195=FACE_BOUND('',#159,.T.);
#196=FACE_BOUND('',#160,.T.);
#197=CONICAL_SURFACE('',#351,2.1,0.78539816339745);
#198=CONICAL_SURFACE('',#360,2.8865,0.785398163397448);
#199=CONICAL_SURFACE('',#384,1.50000000000001,0.0198649362511648);
#200=STYLED_ITEM('',(#218),#328);
#201=STYLED_ITEM('',(#219),#329);
#202=STYLED_ITEM('',(#220),#330);
#203=STYLED_ITEM('',(#221),#331);
#204=STYLED_ITEM('',(#222),#332);
#205=STYLED_ITEM('',(#223),#333);
#206=STYLED_ITEM('',(#224),#334);
#207=STYLED_ITEM('',(#225),#335);
#208=STYLED_ITEM('',(#226),#336);
#209=STYLED_ITEM('',(#227),#337);
#210=STYLED_ITEM('',(#228),#338);
#211=STYLED_ITEM('',(#229),#339);
#212=STYLED_ITEM('',(#230),#340);
#213=STYLED_ITEM('',(#231),#341);
#214=STYLED_ITEM('',(#232),#342);
#215=STYLED_ITEM('',(#233),#343);
#216=STYLED_ITEM('',(#234),#344);
#217=STYLED_ITEM('',(#235),#345);
#218=PRESENTATION_STYLE_ASSIGNMENT((#236));
#219=PRESENTATION_STYLE_ASSIGNMENT((#237));
#220=PRESENTATION_STYLE_ASSIGNMENT((#238));
#221=PRESENTATION_STYLE_ASSIGNMENT((#239));
#222=PRESENTATION_STYLE_ASSIGNMENT((#240));
#223=PRESENTATION_STYLE_ASSIGNMENT((#241));
#224=PRESENTATION_STYLE_ASSIGNMENT((#242));
#225=PRESENTATION_STYLE_ASSIGNMENT((#243));
#226=PRESENTATION_STYLE_ASSIGNMENT((#244));
#227=PRESENTATION_STYLE_ASSIGNMENT((#245));
#228=PRESENTATION_STYLE_ASSIGNMENT((#246));
#229=PRESENTATION_STYLE_ASSIGNMENT((#247));
#230=PRESENTATION_STYLE_ASSIGNMENT((#248));
#231=PRESENTATION_STYLE_ASSIGNMENT((#249));
#232=PRESENTATION_STYLE_ASSIGNMENT((#250));
#233=PRESENTATION_STYLE_ASSIGNMENT((#251));
#234=PRESENTATION_STYLE_ASSIGNMENT((#252));
#235=PRESENTATION_STYLE_ASSIGNMENT((#253));
#236=SURFACE_STYLE_USAGE(.BOTH.,#254);
#237=SURFACE_STYLE_USAGE(.BOTH.,#255);
#238=SURFACE_STYLE_USAGE(.BOTH.,#256);
#239=SURFACE_STYLE_USAGE(.BOTH.,#257);
#240=SURFACE_STYLE_USAGE(.BOTH.,#258);
#241=SURFACE_STYLE_USAGE(.BOTH.,#259);
#242=SURFACE_STYLE_USAGE(.BOTH.,#260);
#243=SURFACE_STYLE_USAGE(.BOTH.,#261);
#244=SURFACE_STYLE_USAGE(.BOTH.,#262);
#245=SURFACE_STYLE_USAGE(.BOTH.,#263);
#246=SURFACE_STYLE_USAGE(.BOTH.,#264);
#247=SURFACE_STYLE_USAGE(.BOTH.,#265);
#248=SURFACE_STYLE_USAGE(.BOTH.,#266);
#249=SURFACE_STYLE_USAGE(.BOTH.,#267);
#250=SURFACE_STYLE_USAGE(.BOTH.,#268);
#251=SURFACE_STYLE_USAGE(.BOTH.,#269);
#252=SURFACE_STYLE_USAGE(.BOTH.,#270);
#253=SURFACE_STYLE_USAGE(.BOTH.,#271);
#254=SURFACE_SIDE_STYLE('',(#272));
#255=SURFACE_SIDE_STYLE('',(#273));
#256=SURFACE_SIDE_STYLE('',(#274));
#257=SURFACE_SIDE_STYLE('',(#275));
#258=SURFACE_SIDE_STYLE('',(#276));
#259=SURFACE_SIDE_STYLE('',(#277));
#260=SURFACE_SIDE_STYLE('',(#278));
#261=SURFACE_SIDE_STYLE('',(#279));
#262=SURFACE_SIDE_STYLE('',(#280));
#263=SURFACE_SIDE_STYLE('',(#281));
#264=SURFACE_SIDE_STYLE('',(#282));
#265=SURFACE_SIDE_STYLE('',(#283));
#266=SURFACE_SIDE_STYLE('',(#284));
#267=SURFACE_SIDE_STYLE('',(#285));
#268=SURFACE_SIDE_STYLE('',(#286));
#269=SURFACE_SIDE_STYLE('',(#287));
#270=SURFACE_SIDE_STYLE('',(#288));
#271=SURFACE_SIDE_STYLE('',(#289));
#272=SURFACE_STYLE_FILL_AREA(#290);
#273=SURFACE_STYLE_FILL_AREA(#291);
#274=SURFACE_STYLE_FILL_AREA(#292);
#275=SURFACE_STYLE_FILL_AREA(#293);
#276=SURFACE_STYLE_FILL_AREA(#294);
#277=SURFACE_STYLE_FILL_AREA(#295);
#278=SURFACE_STYLE_FILL_AREA(#296);
#279=SURFACE_STYLE_FILL_AREA(#297);
#280=SURFACE_STYLE_FILL_AREA(#298);
#281=SURFACE_STYLE_FILL_AREA(#299);
#282=SURFACE_STYLE_FILL_AREA(#300);
#283=SURFACE_STYLE_FILL_AREA(#301);
#284=SURFACE_STYLE_FILL_AREA(#302);
#285=SURFACE_STYLE_FILL_AREA(#303);
#286=SURFACE_STYLE_FILL_AREA(#304);
#287=SURFACE_STYLE_FILL_AREA(#305);
#288=SURFACE_STYLE_FILL_AREA(#306);
#289=SURFACE_STYLE_FILL_AREA(#307);
#290=FILL_AREA_STYLE('',(#308));
#291=FILL_AREA_STYLE('',(#309));
#292=FILL_AREA_STYLE('',(#310));
#293=FILL_AREA_STYLE('',(#311));
#294=FILL_AREA_STYLE('',(#312));
#295=FILL_AREA_STYLE('',(#313));
#296=FILL_AREA_STYLE('',(#314));
#297=FILL_AREA_STYLE('',(#315));
#298=FILL_AREA_STYLE('',(#316));
#299=FILL_AREA_STYLE('',(#317));
#300=FILL_AREA_STYLE('',(#318));
#301=FILL_AREA_STYLE('',(#319));
#302=FILL_AREA_STYLE('',(#320));
#303=FILL_AREA_STYLE('',(#321));
#304=FILL_AREA_STYLE('',(#322));
#305=FILL_AREA_STYLE('',(#323));
#306=FILL_AREA_STYLE('',(#324));
#307=FILL_AREA_STYLE('',(#325));
#308=FILL_AREA_STYLE_COLOUR('',#326);
#309=FILL_AREA_STYLE_COLOUR('',#326);
#310=FILL_AREA_STYLE_COLOUR('',#326);
#311=FILL_AREA_STYLE_COLOUR('',#326);
#312=FILL_AREA_STYLE_COLOUR('',#326);
#313=FILL_AREA_STYLE_COLOUR('',#326);
#314=FILL_AREA_STYLE_COLOUR('',#326);
#315=FILL_AREA_STYLE_COLOUR('',#326);
#316=FILL_AREA_STYLE_COLOUR('',#326);
#317=FILL_AREA_STYLE_COLOUR('',#326);
#318=FILL_AREA_STYLE_COLOUR('',#326);
#319=FILL_AREA_STYLE_COLOUR('',#326);
#320=FILL_AREA_STYLE_COLOUR('',#326);
#321=FILL_AREA_STYLE_COLOUR('',#327);
#322=FILL_AREA_STYLE_COLOUR('',#327);
#323=FILL_AREA_STYLE_COLOUR('',#327);
#324=FILL_AREA_STYLE_COLOUR('',#327);
#325=FILL_AREA_STYLE_COLOUR('',#326);
#326=COLOUR_RGB('',0.,0.60000002384186,1.);
#327=COLOUR_RGB('',0.689999997615814,0.689999997615814,0.689999997615814);
#328=ADVANCED_FACE('',(#161,#162),#197,.F.);
#329=ADVANCED_FACE('',(#163,#164),#29,.T.);
#330=ADVANCED_FACE('',(#165,#166),#22,.T.);
#331=ADVANCED_FACE('',(#167,#168),#30,.T.);
#332=ADVANCED_FACE('',(#169,#170),#198,.T.);
#333=ADVANCED_FACE('',(#171,#172),#23,.T.);
#334=ADVANCED_FACE('',(#173,#174),#31,.T.);
#335=ADVANCED_FACE('',(#175,#176),#24,.T.);
#336=ADVANCED_FACE('',(#177,#178),#32,.T.);
#337=ADVANCED_FACE('',(#179,#180),#21,.T.);
#338=ADVANCED_FACE('',(#181,#182),#25,.T.);
#339=ADVANCED_FACE('',(#183,#184),#33,.T.);
#340=ADVANCED_FACE('',(#185,#186),#26,.T.);
#341=ADVANCED_FACE('',(#187,#188),#34,.T.);
#342=ADVANCED_FACE('',(#189,#190),#27,.T.);
#343=ADVANCED_FACE('',(#191,#192),#20,.F.);
#344=ADVANCED_FACE('',(#193,#194),#199,.F.);
#345=ADVANCED_FACE('',(#195,#196),#28,.F.);
#346=CLOSED_SHELL('',(#328,#329,#330,#331,#332,#333,#334,#335,#336,#337,
#338,#339,#340,#341,#342,#343,#344,#345));
#347=MANIFOLD_SOLID_BREP('197582 UO-M7',#346);
#348=SHAPE_DEFINITION_REPRESENTATION(#522,#349);
#349=SHAPE_REPRESENTATION('197582 UO-M7',(#350),#517);
#350=AXIS2_PLACEMENT_3D('',#461,#387,#388);
#351=AXIS2_PLACEMENT_3D('',#462,#389,#390);
#352=AXIS2_PLACEMENT_3D('',#463,#391,#392);
#353=AXIS2_PLACEMENT_3D('',#465,#393,#394);
#354=AXIS2_PLACEMENT_3D('',#467,#395,#396);
#355=AXIS2_PLACEMENT_3D('',#468,#397,#398);
#356=AXIS2_PLACEMENT_3D('',#470,#399,#400);
#357=AXIS2_PLACEMENT_3D('',#471,#401,#402);
#358=AXIS2_PLACEMENT_3D('',#473,#403,#404);
#359=AXIS2_PLACEMENT_3D('',#474,#405,#406);
#360=AXIS2_PLACEMENT_3D('',#476,#407,#408);
#361=AXIS2_PLACEMENT_3D('',#477,#409,#410);
#362=AXIS2_PLACEMENT_3D('',#479,#411,#412);
#363=AXIS2_PLACEMENT_3D('',#480,#413,#414);
#364=AXIS2_PLACEMENT_3D('',#482,#415,#416);
#365=AXIS2_PLACEMENT_3D('',#483,#417,#418);
#366=AXIS2_PLACEMENT_3D('',#485,#419,#420);
#367=AXIS2_PLACEMENT_3D('',#486,#421,#422);
#368=AXIS2_PLACEMENT_3D('',#488,#423,#424);
#369=AXIS2_PLACEMENT_3D('',#489,#425,#426);
#370=AXIS2_PLACEMENT_3D('',#491,#427,#428);
#371=AXIS2_PLACEMENT_3D('',#492,#429,#430);
#372=AXIS2_PLACEMENT_3D('',#494,#431,#432);
#373=AXIS2_PLACEMENT_3D('',#495,#433,#434);
#374=AXIS2_PLACEMENT_3D('',#497,#435,#436);
#375=AXIS2_PLACEMENT_3D('',#498,#437,#438);
#376=AXIS2_PLACEMENT_3D('',#500,#439,#440);
#377=AXIS2_PLACEMENT_3D('',#501,#441,#442);
#378=AXIS2_PLACEMENT_3D('',#503,#443,#444);
#379=AXIS2_PLACEMENT_3D('',#504,#445,#446);
#380=AXIS2_PLACEMENT_3D('',#506,#447,#448);
#381=AXIS2_PLACEMENT_3D('',#507,#449,#450);
#382=AXIS2_PLACEMENT_3D('',#509,#451,#452);
#383=AXIS2_PLACEMENT_3D('',#510,#453,#454);
#384=AXIS2_PLACEMENT_3D('',#512,#455,#456);
#385=AXIS2_PLACEMENT_3D('',#513,#457,#458);
#386=AXIS2_PLACEMENT_3D('',#515,#459,#460);
#387=DIRECTION('',(0.,0.,1.));
#388=DIRECTION('',(1.,0.,0.));
#389=DIRECTION('',(0.,-6.12323399573677E-17,1.));
#390=DIRECTION('',(0.,-1.,-6.12323399573677E-17));
#391=DIRECTION('',(0.,-6.12323399573677E-17,1.));
#392=DIRECTION('',(0.,-1.,-6.12323399573677E-17));
#393=DIRECTION('',(0.,-6.12323399573677E-17,1.));
#394=DIRECTION('',(0.,-1.,-6.12323399573677E-17));
#395=DIRECTION('',(0.,-6.12323399573677E-17,1.));
#396=DIRECTION('',(0.,-1.,-6.12323399573677E-17));
#397=DIRECTION('',(0.,-6.12323399573677E-17,1.));
#398=DIRECTION('',(0.,-1.,-6.12323399573677E-17));
#399=DIRECTION('',(0.,-6.12323399573677E-17,1.));
#400=DIRECTION('',(0.,-1.,-6.12323399573677E-17));
#401=DIRECTION('',(0.,-6.12323399573677E-17,1.));
#402=DIRECTION('',(0.,-1.,-6.12323399573677E-17));
#403=DIRECTION('',(0.,-6.12323399573677E-17,1.));
#404=DIRECTION('',(0.,-1.,-6.12323399573677E-17));
#405=DIRECTION('',(0.,-6.12323399573677E-17,1.));
#406=DIRECTION('',(0.,-1.,-6.12323399573677E-17));
#407=DIRECTION('',(0.,6.12323399573677E-17,-1.));
#408=DIRECTION('',(0.,1.,6.12323399573677E-17));
#409=DIRECTION('',(0.,-6.12323399573677E-17,1.));
#410=DIRECTION('',(0.,-1.,-6.12323399573677E-17));
#411=DIRECTION('',(0.,-6.12323399573677E-17,1.));
#412=DIRECTION('',(0.,-1.,-6.12323399573677E-17));
#413=DIRECTION('',(0.,-6.12323399573677E-17,1.));
#414=DIRECTION('',(0.,-1.,-6.12323399573677E-17));
#415=DIRECTION('',(0.,-6.12323399573677E-17,1.));
#416=DIRECTION('',(0.,-1.,-6.12323399573677E-17));
#417=DIRECTION('',(0.,-6.12323399573677E-17,1.));
#418=DIRECTION('',(0.,-1.,-6.12323399573677E-17));
#419=DIRECTION('',(0.,-6.12323399573677E-17,1.));
#420=DIRECTION('',(0.,-1.,-6.12323399573677E-17));
#421=DIRECTION('',(0.,-6.12323399573677E-17,1.));
#422=DIRECTION('',(0.,-1.,-6.12323399573677E-17));
#423=DIRECTION('',(0.,-6.12323399573677E-17,1.));
#424=DIRECTION('',(0.,-1.,-6.12323399573677E-17));
#425=DIRECTION('',(0.,-6.12323399573677E-17,1.));
#426=DIRECTION('',(0.,-1.,-6.12323399573677E-17));
#427=DIRECTION('',(0.,-6.12323399573677E-17,1.));
#428=DIRECTION('',(0.,-1.,-6.12323399573677E-17));
#429=DIRECTION('',(0.,-6.12323399573677E-17,1.));
#430=DIRECTION('',(0.,-1.,-6.12323399573677E-17));
#431=DIRECTION('',(0.,-6.12323399573677E-17,1.));
#432=DIRECTION('',(0.,-1.,-6.12323399573677E-17));
#433=DIRECTION('',(0.,-6.12323399573677E-17,1.));
#434=DIRECTION('',(0.,-1.,-6.12323399573677E-17));
#435=DIRECTION('',(0.,6.12323399573677E-17,-1.));
#436=DIRECTION('',(0.,1.,6.12323399573677E-17));
#437=DIRECTION('',(0.,-6.12323399573677E-17,1.));
#438=DIRECTION('',(0.,-1.,-6.12323399573677E-17));
#439=DIRECTION('',(0.,-6.12323399573677E-17,1.));
#440=DIRECTION('',(0.,-1.,-6.12323399573677E-17));
#441=DIRECTION('',(0.,-6.12323399573677E-17,1.));
#442=DIRECTION('',(0.,-1.,-6.12323399573677E-17));
#443=DIRECTION('',(0.,-6.12323399573677E-17,1.));
#444=DIRECTION('',(0.,-1.,-6.12323399573677E-17));
#445=DIRECTION('',(0.,-6.12323399573677E-17,1.));
#446=DIRECTION('',(0.,-1.,-6.12323399573677E-17));
#447=DIRECTION('',(0.,-6.12323399573677E-17,1.));
#448=DIRECTION('',(0.,-1.,-6.12323399573677E-17));
#449=DIRECTION('',(0.,-6.12323399573677E-17,1.));
#450=DIRECTION('',(0.,-1.,-6.12323399573677E-17));
#451=DIRECTION('',(0.,-6.12323399573677E-17,1.));
#452=DIRECTION('',(0.,-1.,-6.12323399573677E-17));
#453=DIRECTION('',(0.,-6.12323399573677E-17,1.));
#454=DIRECTION('',(0.,-1.,-6.12323399573677E-17));
#455=DIRECTION('',(0.,-6.12323399573677E-17,1.));
#456=DIRECTION('',(0.,-1.,-6.12323399573677E-17));
#457=DIRECTION('',(0.,-6.12323399573677E-17,1.));
#458=DIRECTION('',(0.,-1.,-6.12323399573677E-17));
#459=DIRECTION('',(0.,-6.12323399573677E-17,1.));
#460=DIRECTION('',(0.,-1.,-6.12323399573677E-17));
#461=CARTESIAN_POINT('',(0.,0.,0.));
#462=CARTESIAN_POINT('',(0.,2.44929359829469E-17,-0.399999999999998));
#463=CARTESIAN_POINT('',(0.,-4.81482486096809E-32,0.));
#464=CARTESIAN_POINT('',(0.,-2.5,-1.53080849893419E-16));
#465=CARTESIAN_POINT('',(0.,2.44929359829469E-17,-0.399999999999998));
#466=CARTESIAN_POINT('',(0.,-2.1,-0.399999999999999));
#467=CARTESIAN_POINT('',(0.,-2.5,-1.59807151793596E-16));
#468=CARTESIAN_POINT('',(0.,-4.81482486096809E-32,0.));
#469=CARTESIAN_POINT('',(0.,-2.75,-1.68388934882761E-16));
#470=CARTESIAN_POINT('',(0.,3.9801020972289E-16,-6.5));
#471=CARTESIAN_POINT('',(0.,4.28626379701575E-17,-0.700000000000003));
#472=CARTESIAN_POINT('',(0.,-2.75,-0.700000000000003));
#473=CARTESIAN_POINT('',(0.,-2.75,-0.700000000000003));
#474=CARTESIAN_POINT('',(0.,4.28626379701575E-17,-0.700000000000003));
#475=CARTESIAN_POINT('',(0.,-2.8865,-0.700000000000003));
#476=CARTESIAN_POINT('',(0.,4.28626379701575E-17,-0.700000000000003));
#477=CARTESIAN_POINT('',(0.,8.04286785340026E-17,-1.3135));
#478=CARTESIAN_POINT('',(0.,-3.5,-1.3135));
#479=CARTESIAN_POINT('',(0.,3.9801020972289E-16,-6.5));
#480=CARTESIAN_POINT('',(0.,3.36777869765522E-16,-5.5));
#481=CARTESIAN_POINT('',(0.,-3.5,-5.5));
#482=CARTESIAN_POINT('',(0.,-3.5,-5.5));
#483=CARTESIAN_POINT('',(0.,3.36777869765522E-16,-5.5));
#484=CARTESIAN_POINT('',(0.,-4.15,-5.5));
#485=CARTESIAN_POINT('',(0.,3.9801020972289E-16,-6.5));
#486=CARTESIAN_POINT('',(0.,3.61270805748469E-16,-5.9));
#487=CARTESIAN_POINT('',(0.,-4.15,-5.9));
#488=CARTESIAN_POINT('',(0.,-4.15,-5.9));
#489=CARTESIAN_POINT('',(0.,3.61270805748469E-16,-5.9));
#490=CARTESIAN_POINT('',(0.,-4.5,-5.9));
#491=CARTESIAN_POINT('',(0.,0.,-6.3));
#492=CARTESIAN_POINT('',(0.,3.85763741731416E-16,-6.3));
#493=CARTESIAN_POINT('',(0.,-4.9,-6.3));
#494=CARTESIAN_POINT('',(0.,3.9801020972289E-16,-6.5));
#495=CARTESIAN_POINT('',(0.,4.40872847693047E-16,-7.2));
#496=CARTESIAN_POINT('',(0.,-4.9,-7.2));
#497=CARTESIAN_POINT('',(0.,-4.9,-7.2));
#498=CARTESIAN_POINT('',(0.,4.40872847693047E-16,-7.2));
#499=CARTESIAN_POINT('',(0.,-4.7,-7.2));
#500=CARTESIAN_POINT('',(0.,3.9801020972289E-16,-6.5));
#501=CARTESIAN_POINT('',(0.,6.55186037543834E-16,-10.7));
#502=CARTESIAN_POINT('',(0.,-4.7,-10.7));
#503=CARTESIAN_POINT('',(0.,-4.7,-10.7));
#504=CARTESIAN_POINT('',(0.,6.55186037543834E-16,-10.7));
#505=CARTESIAN_POINT('',(0.,-4.9,-10.7));
#506=CARTESIAN_POINT('',(0.,3.9801020972289E-16,-6.5));
#507=CARTESIAN_POINT('',(0.,2.16609402599188E-15,-35.375));
#508=CARTESIAN_POINT('',(0.,-4.9,-35.375));
#509=CARTESIAN_POINT('',(0.,1.70384647807143E-15,-27.8258987996465));
#510=CARTESIAN_POINT('',(0.,2.24722687643539E-15,-36.7));
#511=CARTESIAN_POINT('',(0.,-1.5,-36.7));
#512=CARTESIAN_POINT('',(0.,2.24722687643539E-15,-36.7));
#513=CARTESIAN_POINT('',(0.,3.9801020972289E-16,-6.5));
#514=CARTESIAN_POINT('',(0.,-2.1,-6.5));
#515=CARTESIAN_POINT('',(0.,3.9801020972289E-16,-6.5));
#516=MECHANICAL_DESIGN_GEOMETRIC_PRESENTATION_REPRESENTATION('',(#200,#201,
#202,#203,#204,#205,#206,#207,#208,#209,#210,#211,#212,#213,#214,#215,#216,
#217),#517);
#517=(
GEOMETRIC_REPRESENTATION_CONTEXT(3)
GLOBAL_UNCERTAINTY_ASSIGNED_CONTEXT((#518))
GLOBAL_UNIT_ASSIGNED_CONTEXT((#521,#520,#519))
REPRESENTATION_CONTEXT('197582 UO-M7','TOP_LEVEL_ASSEMBLY_PART')
);
#518=UNCERTAINTY_MEASURE_WITH_UNIT(LENGTH_MEASURE(0.005),#521,
'DISTANCE_ACCURACY_VALUE','Maximum Tolerance applied to model');
#519=(
NAMED_UNIT(*)
SI_UNIT($,.STERADIAN.)
SOLID_ANGLE_UNIT()
);
#520=(
NAMED_UNIT(*)
PLANE_ANGLE_UNIT()
SI_UNIT($,.RADIAN.)
);
#521=(
LENGTH_UNIT()
NAMED_UNIT(*)
SI_UNIT(.MILLI.,.METRE.)
);
#522=PRODUCT_DEFINITION_SHAPE('','',#523);
#523=PRODUCT_DEFINITION('','',#525,#524);
#524=PRODUCT_DEFINITION_CONTEXT('',#531,'design');
#525=PRODUCT_DEFINITION_FORMATION_WITH_SPECIFIED_SOURCE('','',#527,
 .NOT_KNOWN.);
#526=PRODUCT_RELATED_PRODUCT_CATEGORY('','',(#527));
#527=PRODUCT('197582 UO-M7','197582 UO-M7','197582 UO-M7',(#529));
#528=PRODUCT_CATEGORY('','');
#529=PRODUCT_CONTEXT('',#531,'mechanical');
#530=APPLICATION_PROTOCOL_DEFINITION('international standard',
'automotive_design',2010,#531);
#531=APPLICATION_CONTEXT(
'core data for automotive mechanical design processes');
ENDSEC;
END-ISO-10303-21;
