ISO-10303-21;
HEADER;
/* Generated by software containing ST-Developer
 * from STEP Tools, Inc. (www.steptools.com) 
 */
/* OPTION: using custom renumber hook */

FILE_DESCRIPTION(
/* description */ ('STEP AP214'),
/* implementation_level */ '2;1');

FILE_NAME(
/* name */ '197583_UO-1_8',
/* time_stamp */ '2024-09-11T12:30:58+02:00',
/* author */ ('License CC BY-ND 4.0'),
/* organization */ ('CADENAS'),
/* preprocessor_version */ 'ST-DEVELOPER v19.3',
/* originating_system */ 'PARTsolutions',
/* authorisation */ '  ');

FILE_SCHEMA (('AUTOMOTIVE_DESIGN {1 0 10303 214 3 1 1}'));
ENDSEC;

DATA;
#10=PROPERTY_DEFINITION_REPRESENTATION(#14,#12);
#11=PROPERTY_DEFINITION_REPRESENTATION(#15,#13);
#12=REPRESENTATION('',(#16),#544);
#13=REPRESENTATION('',(#17),#544);
#14=PROPERTY_DEFINITION('pmi validation property','',#549);
#15=PROPERTY_DEFINITION('pmi validation property','',#549);
#16=VALUE_REPRESENTATION_ITEM('number of annotations',COUNT_MEASURE(0.));
#17=VALUE_REPRESENTATION_ITEM('number of views',COUNT_MEASURE(0.));
#18=SHAPE_REPRESENTATION_RELATIONSHIP('','',#367,#19);
#19=ADVANCED_BREP_SHAPE_REPRESENTATION('',(#365),#544);
#20=TOROIDAL_SURFACE('',#394,6.4,0.500000000000001);
#21=TOROIDAL_SURFACE('',#406,6.49999999999998,0.400000000000016);
#22=PLANE('',#378);
#23=PLANE('',#382);
#24=PLANE('',#388);
#25=PLANE('',#392);
#26=PLANE('',#398);
#27=PLANE('',#402);
#28=CYLINDRICAL_SURFACE('',#374,3.2);
#29=CYLINDRICAL_SURFACE('',#380,4.15);
#30=CYLINDRICAL_SURFACE('',#386,4.864);
#31=CYLINDRICAL_SURFACE('',#390,5.7);
#32=CYLINDRICAL_SURFACE('',#396,6.9);
#33=CYLINDRICAL_SURFACE('',#400,6.7);
#34=CYLINDRICAL_SURFACE('',#404,6.9);
#35=CONICAL_SURFACE('',#372,1.75000000000004,0.0365077015152741);
#36=CONICAL_SURFACE('',#376,3.2,0.785398163397453);
#37=CONICAL_SURFACE('',#384,4.28300000000001,0.785398163397448);
#38=ORIENTED_EDGE('',*,*,#76,.T.);
#39=ORIENTED_EDGE('',*,*,#77,.F.);
#40=ORIENTED_EDGE('',*,*,#78,.T.);
#41=ORIENTED_EDGE('',*,*,#76,.F.);
#42=ORIENTED_EDGE('',*,*,#79,.T.);
#43=ORIENTED_EDGE('',*,*,#78,.F.);
#44=ORIENTED_EDGE('',*,*,#80,.T.);
#45=ORIENTED_EDGE('',*,*,#79,.F.);
#46=ORIENTED_EDGE('',*,*,#81,.T.);
#47=ORIENTED_EDGE('',*,*,#80,.F.);
#48=ORIENTED_EDGE('',*,*,#82,.T.);
#49=ORIENTED_EDGE('',*,*,#81,.F.);
#50=ORIENTED_EDGE('',*,*,#83,.T.);
#51=ORIENTED_EDGE('',*,*,#82,.F.);
#52=ORIENTED_EDGE('',*,*,#84,.T.);
#53=ORIENTED_EDGE('',*,*,#83,.F.);
#54=ORIENTED_EDGE('',*,*,#85,.T.);
#55=ORIENTED_EDGE('',*,*,#84,.F.);
#56=ORIENTED_EDGE('',*,*,#86,.T.);
#57=ORIENTED_EDGE('',*,*,#85,.F.);
#58=ORIENTED_EDGE('',*,*,#87,.T.);
#59=ORIENTED_EDGE('',*,*,#86,.F.);
#60=ORIENTED_EDGE('',*,*,#88,.T.);
#61=ORIENTED_EDGE('',*,*,#87,.F.);
#62=ORIENTED_EDGE('',*,*,#89,.T.);
#63=ORIENTED_EDGE('',*,*,#88,.F.);
#64=ORIENTED_EDGE('',*,*,#90,.T.);
#65=ORIENTED_EDGE('',*,*,#89,.F.);
#66=ORIENTED_EDGE('',*,*,#91,.T.);
#67=ORIENTED_EDGE('',*,*,#90,.F.);
#68=ORIENTED_EDGE('',*,*,#92,.T.);
#69=ORIENTED_EDGE('',*,*,#91,.F.);
#70=ORIENTED_EDGE('',*,*,#93,.T.);
#71=ORIENTED_EDGE('',*,*,#92,.F.);
#72=ORIENTED_EDGE('',*,*,#94,.T.);
#73=ORIENTED_EDGE('',*,*,#93,.F.);
#74=ORIENTED_EDGE('',*,*,#77,.T.);
#75=ORIENTED_EDGE('',*,*,#94,.F.);
#76=EDGE_CURVE('',#95,#95,#114,.T.);
#77=EDGE_CURVE('',#96,#96,#115,.T.);
#78=EDGE_CURVE('',#97,#97,#116,.T.);
#79=EDGE_CURVE('',#98,#98,#117,.T.);
#80=EDGE_CURVE('',#99,#99,#118,.T.);
#81=EDGE_CURVE('',#100,#100,#119,.T.);
#82=EDGE_CURVE('',#101,#101,#120,.T.);
#83=EDGE_CURVE('',#102,#102,#121,.T.);
#84=EDGE_CURVE('',#103,#103,#122,.T.);
#85=EDGE_CURVE('',#104,#104,#123,.T.);
#86=EDGE_CURVE('',#105,#105,#124,.T.);
#87=EDGE_CURVE('',#106,#106,#125,.T.);
#88=EDGE_CURVE('',#107,#107,#126,.T.);
#89=EDGE_CURVE('',#108,#108,#127,.T.);
#90=EDGE_CURVE('',#109,#109,#128,.T.);
#91=EDGE_CURVE('',#110,#110,#129,.T.);
#92=EDGE_CURVE('',#111,#111,#130,.T.);
#93=EDGE_CURVE('',#112,#112,#131,.T.);
#94=EDGE_CURVE('',#113,#113,#132,.T.);
#95=VERTEX_POINT('',#488);
#96=VERTEX_POINT('',#490);
#97=VERTEX_POINT('',#493);
#98=VERTEX_POINT('',#496);
#99=VERTEX_POINT('',#499);
#100=VERTEX_POINT('',#502);
#101=VERTEX_POINT('',#505);
#102=VERTEX_POINT('',#508);
#103=VERTEX_POINT('',#511);
#104=VERTEX_POINT('',#514);
#105=VERTEX_POINT('',#517);
#106=VERTEX_POINT('',#520);
#107=VERTEX_POINT('',#523);
#108=VERTEX_POINT('',#526);
#109=VERTEX_POINT('',#529);
#110=VERTEX_POINT('',#532);
#111=VERTEX_POINT('',#535);
#112=VERTEX_POINT('',#538);
#113=VERTEX_POINT('',#541);
#114=CIRCLE('',#370,1.75000000000004);
#115=CIRCLE('',#371,6.67816540245108);
#116=CIRCLE('',#373,3.2);
#117=CIRCLE('',#375,3.2);
#118=CIRCLE('',#377,3.6);
#119=CIRCLE('',#379,4.15);
#120=CIRCLE('',#381,4.15);
#121=CIRCLE('',#383,4.28300000000001);
#122=CIRCLE('',#385,4.864);
#123=CIRCLE('',#387,4.864);
#124=CIRCLE('',#389,5.7);
#125=CIRCLE('',#391,5.7);
#126=CIRCLE('',#393,6.4);
#127=CIRCLE('',#395,6.9);
#128=CIRCLE('',#397,6.9);
#129=CIRCLE('',#399,6.7);
#130=CIRCLE('',#401,6.7);
#131=CIRCLE('',#403,6.9);
#132=CIRCLE('',#405,6.9);
#133=EDGE_LOOP('',(#38));
#134=EDGE_LOOP('',(#39));
#135=EDGE_LOOP('',(#40));
#136=EDGE_LOOP('',(#41));
#137=EDGE_LOOP('',(#42));
#138=EDGE_LOOP('',(#43));
#139=EDGE_LOOP('',(#44));
#140=EDGE_LOOP('',(#45));
#141=EDGE_LOOP('',(#46));
#142=EDGE_LOOP('',(#47));
#143=EDGE_LOOP('',(#48));
#144=EDGE_LOOP('',(#49));
#145=EDGE_LOOP('',(#50));
#146=EDGE_LOOP('',(#51));
#147=EDGE_LOOP('',(#52));
#148=EDGE_LOOP('',(#53));
#149=EDGE_LOOP('',(#54));
#150=EDGE_LOOP('',(#55));
#151=EDGE_LOOP('',(#56));
#152=EDGE_LOOP('',(#57));
#153=EDGE_LOOP('',(#58));
#154=EDGE_LOOP('',(#59));
#155=EDGE_LOOP('',(#60));
#156=EDGE_LOOP('',(#61));
#157=EDGE_LOOP('',(#62));
#158=EDGE_LOOP('',(#63));
#159=EDGE_LOOP('',(#64));
#160=EDGE_LOOP('',(#65));
#161=EDGE_LOOP('',(#66));
#162=EDGE_LOOP('',(#67));
#163=EDGE_LOOP('',(#68));
#164=EDGE_LOOP('',(#69));
#165=EDGE_LOOP('',(#70));
#166=EDGE_LOOP('',(#71));
#167=EDGE_LOOP('',(#72));
#168=EDGE_LOOP('',(#73));
#169=EDGE_LOOP('',(#74));
#170=EDGE_LOOP('',(#75));
#171=FACE_BOUND('',#133,.T.);
#172=FACE_BOUND('',#134,.T.);
#173=FACE_BOUND('',#135,.T.);
#174=FACE_BOUND('',#136,.T.);
#175=FACE_BOUND('',#137,.T.);
#176=FACE_BOUND('',#138,.T.);
#177=FACE_BOUND('',#139,.T.);
#178=FACE_BOUND('',#140,.T.);
#179=FACE_BOUND('',#141,.T.);
#180=FACE_BOUND('',#142,.T.);
#181=FACE_BOUND('',#143,.T.);
#182=FACE_BOUND('',#144,.T.);
#183=FACE_BOUND('',#145,.T.);
#184=FACE_BOUND('',#146,.T.);
#185=FACE_BOUND('',#147,.T.);
#186=FACE_BOUND('',#148,.T.);
#187=FACE_BOUND('',#149,.T.);
#188=FACE_BOUND('',#150,.T.);
#189=FACE_BOUND('',#151,.T.);
#190=FACE_BOUND('',#152,.T.);
#191=FACE_BOUND('',#153,.T.);
#192=FACE_BOUND('',#154,.T.);
#193=FACE_BOUND('',#155,.T.);
#194=FACE_BOUND('',#156,.T.);
#195=FACE_BOUND('',#157,.T.);
#196=FACE_BOUND('',#158,.T.);
#197=FACE_BOUND('',#159,.T.);
#198=FACE_BOUND('',#160,.T.);
#199=FACE_BOUND('',#161,.T.);
#200=FACE_BOUND('',#162,.T.);
#201=FACE_BOUND('',#163,.T.);
#202=FACE_BOUND('',#164,.T.);
#203=FACE_BOUND('',#165,.T.);
#204=FACE_BOUND('',#166,.T.);
#205=FACE_BOUND('',#167,.T.);
#206=FACE_BOUND('',#168,.T.);
#207=FACE_BOUND('',#169,.T.);
#208=FACE_BOUND('',#170,.T.);
#209=DEGENERATE_TOROIDAL_SURFACE('',#369,0.0030371894644346,14.9999999999999,
 .F.);
#210=STYLED_ITEM('',(#229),#345);
#211=STYLED_ITEM('',(#230),#346);
#212=STYLED_ITEM('',(#231),#347);
#213=STYLED_ITEM('',(#232),#348);
#214=STYLED_ITEM('',(#233),#349);
#215=STYLED_ITEM('',(#234),#350);
#216=STYLED_ITEM('',(#235),#351);
#217=STYLED_ITEM('',(#236),#352);
#218=STYLED_ITEM('',(#237),#353);
#219=STYLED_ITEM('',(#238),#354);
#220=STYLED_ITEM('',(#239),#355);
#221=STYLED_ITEM('',(#240),#356);
#222=STYLED_ITEM('',(#241),#357);
#223=STYLED_ITEM('',(#242),#358);
#224=STYLED_ITEM('',(#243),#359);
#225=STYLED_ITEM('',(#244),#360);
#226=STYLED_ITEM('',(#245),#361);
#227=STYLED_ITEM('',(#246),#362);
#228=STYLED_ITEM('',(#247),#363);
#229=PRESENTATION_STYLE_ASSIGNMENT((#248));
#230=PRESENTATION_STYLE_ASSIGNMENT((#249));
#231=PRESENTATION_STYLE_ASSIGNMENT((#250));
#232=PRESENTATION_STYLE_ASSIGNMENT((#251));
#233=PRESENTATION_STYLE_ASSIGNMENT((#252));
#234=PRESENTATION_STYLE_ASSIGNMENT((#253));
#235=PRESENTATION_STYLE_ASSIGNMENT((#254));
#236=PRESENTATION_STYLE_ASSIGNMENT((#255));
#237=PRESENTATION_STYLE_ASSIGNMENT((#256));
#238=PRESENTATION_STYLE_ASSIGNMENT((#257));
#239=PRESENTATION_STYLE_ASSIGNMENT((#258));
#240=PRESENTATION_STYLE_ASSIGNMENT((#259));
#241=PRESENTATION_STYLE_ASSIGNMENT((#260));
#242=PRESENTATION_STYLE_ASSIGNMENT((#261));
#243=PRESENTATION_STYLE_ASSIGNMENT((#262));
#244=PRESENTATION_STYLE_ASSIGNMENT((#263));
#245=PRESENTATION_STYLE_ASSIGNMENT((#264));
#246=PRESENTATION_STYLE_ASSIGNMENT((#265));
#247=PRESENTATION_STYLE_ASSIGNMENT((#266));
#248=SURFACE_STYLE_USAGE(.BOTH.,#267);
#249=SURFACE_STYLE_USAGE(.BOTH.,#268);
#250=SURFACE_STYLE_USAGE(.BOTH.,#269);
#251=SURFACE_STYLE_USAGE(.BOTH.,#270);
#252=SURFACE_STYLE_USAGE(.BOTH.,#271);
#253=SURFACE_STYLE_USAGE(.BOTH.,#272);
#254=SURFACE_STYLE_USAGE(.BOTH.,#273);
#255=SURFACE_STYLE_USAGE(.BOTH.,#274);
#256=SURFACE_STYLE_USAGE(.BOTH.,#275);
#257=SURFACE_STYLE_USAGE(.BOTH.,#276);
#258=SURFACE_STYLE_USAGE(.BOTH.,#277);
#259=SURFACE_STYLE_USAGE(.BOTH.,#278);
#260=SURFACE_STYLE_USAGE(.BOTH.,#279);
#261=SURFACE_STYLE_USAGE(.BOTH.,#280);
#262=SURFACE_STYLE_USAGE(.BOTH.,#281);
#263=SURFACE_STYLE_USAGE(.BOTH.,#282);
#264=SURFACE_STYLE_USAGE(.BOTH.,#283);
#265=SURFACE_STYLE_USAGE(.BOTH.,#284);
#266=SURFACE_STYLE_USAGE(.BOTH.,#285);
#267=SURFACE_SIDE_STYLE('',(#286));
#268=SURFACE_SIDE_STYLE('',(#287));
#269=SURFACE_SIDE_STYLE('',(#288));
#270=SURFACE_SIDE_STYLE('',(#289));
#271=SURFACE_SIDE_STYLE('',(#290));
#272=SURFACE_SIDE_STYLE('',(#291));
#273=SURFACE_SIDE_STYLE('',(#292));
#274=SURFACE_SIDE_STYLE('',(#293));
#275=SURFACE_SIDE_STYLE('',(#294));
#276=SURFACE_SIDE_STYLE('',(#295));
#277=SURFACE_SIDE_STYLE('',(#296));
#278=SURFACE_SIDE_STYLE('',(#297));
#279=SURFACE_SIDE_STYLE('',(#298));
#280=SURFACE_SIDE_STYLE('',(#299));
#281=SURFACE_SIDE_STYLE('',(#300));
#282=SURFACE_SIDE_STYLE('',(#301));
#283=SURFACE_SIDE_STYLE('',(#302));
#284=SURFACE_SIDE_STYLE('',(#303));
#285=SURFACE_SIDE_STYLE('',(#304));
#286=SURFACE_STYLE_FILL_AREA(#305);
#287=SURFACE_STYLE_FILL_AREA(#306);
#288=SURFACE_STYLE_FILL_AREA(#307);
#289=SURFACE_STYLE_FILL_AREA(#308);
#290=SURFACE_STYLE_FILL_AREA(#309);
#291=SURFACE_STYLE_FILL_AREA(#310);
#292=SURFACE_STYLE_FILL_AREA(#311);
#293=SURFACE_STYLE_FILL_AREA(#312);
#294=SURFACE_STYLE_FILL_AREA(#313);
#295=SURFACE_STYLE_FILL_AREA(#314);
#296=SURFACE_STYLE_FILL_AREA(#315);
#297=SURFACE_STYLE_FILL_AREA(#316);
#298=SURFACE_STYLE_FILL_AREA(#317);
#299=SURFACE_STYLE_FILL_AREA(#318);
#300=SURFACE_STYLE_FILL_AREA(#319);
#301=SURFACE_STYLE_FILL_AREA(#320);
#302=SURFACE_STYLE_FILL_AREA(#321);
#303=SURFACE_STYLE_FILL_AREA(#322);
#304=SURFACE_STYLE_FILL_AREA(#323);
#305=FILL_AREA_STYLE('',(#324));
#306=FILL_AREA_STYLE('',(#325));
#307=FILL_AREA_STYLE('',(#326));
#308=FILL_AREA_STYLE('',(#327));
#309=FILL_AREA_STYLE('',(#328));
#310=FILL_AREA_STYLE('',(#329));
#311=FILL_AREA_STYLE('',(#330));
#312=FILL_AREA_STYLE('',(#331));
#313=FILL_AREA_STYLE('',(#332));
#314=FILL_AREA_STYLE('',(#333));
#315=FILL_AREA_STYLE('',(#334));
#316=FILL_AREA_STYLE('',(#335));
#317=FILL_AREA_STYLE('',(#336));
#318=FILL_AREA_STYLE('',(#337));
#319=FILL_AREA_STYLE('',(#338));
#320=FILL_AREA_STYLE('',(#339));
#321=FILL_AREA_STYLE('',(#340));
#322=FILL_AREA_STYLE('',(#341));
#323=FILL_AREA_STYLE('',(#342));
#324=FILL_AREA_STYLE_COLOUR('',#343);
#325=FILL_AREA_STYLE_COLOUR('',#343);
#326=FILL_AREA_STYLE_COLOUR('',#344);
#327=FILL_AREA_STYLE_COLOUR('',#344);
#328=FILL_AREA_STYLE_COLOUR('',#344);
#329=FILL_AREA_STYLE_COLOUR('',#344);
#330=FILL_AREA_STYLE_COLOUR('',#344);
#331=FILL_AREA_STYLE_COLOUR('',#344);
#332=FILL_AREA_STYLE_COLOUR('',#344);
#333=FILL_AREA_STYLE_COLOUR('',#344);
#334=FILL_AREA_STYLE_COLOUR('',#344);
#335=FILL_AREA_STYLE_COLOUR('',#344);
#336=FILL_AREA_STYLE_COLOUR('',#344);
#337=FILL_AREA_STYLE_COLOUR('',#344);
#338=FILL_AREA_STYLE_COLOUR('',#344);
#339=FILL_AREA_STYLE_COLOUR('',#344);
#340=FILL_AREA_STYLE_COLOUR('',#344);
#341=FILL_AREA_STYLE_COLOUR('',#343);
#342=FILL_AREA_STYLE_COLOUR('',#343);
#343=COLOUR_RGB('',0.689999997615814,0.689999997615814,0.689999997615814);
#344=COLOUR_RGB('',0.,0.60000002384186,1.);
#345=ADVANCED_FACE('',(#171,#172),#209,.F.);
#346=ADVANCED_FACE('',(#173,#174),#35,.F.);
#347=ADVANCED_FACE('',(#175,#176),#28,.F.);
#348=ADVANCED_FACE('',(#177,#178),#36,.F.);
#349=ADVANCED_FACE('',(#179,#180),#22,.T.);
#350=ADVANCED_FACE('',(#181,#182),#29,.T.);
#351=ADVANCED_FACE('',(#183,#184),#23,.T.);
#352=ADVANCED_FACE('',(#185,#186),#37,.T.);
#353=ADVANCED_FACE('',(#187,#188),#30,.T.);
#354=ADVANCED_FACE('',(#189,#190),#24,.T.);
#355=ADVANCED_FACE('',(#191,#192),#31,.T.);
#356=ADVANCED_FACE('',(#193,#194),#25,.T.);
#357=ADVANCED_FACE('',(#195,#196),#20,.T.);
#358=ADVANCED_FACE('',(#197,#198),#32,.T.);
#359=ADVANCED_FACE('',(#199,#200),#26,.T.);
#360=ADVANCED_FACE('',(#201,#202),#33,.T.);
#361=ADVANCED_FACE('',(#203,#204),#27,.T.);
#362=ADVANCED_FACE('',(#205,#206),#34,.T.);
#363=ADVANCED_FACE('',(#207,#208),#21,.T.);
#364=CLOSED_SHELL('',(#345,#346,#347,#348,#349,#350,#351,#352,#353,#354,
#355,#356,#357,#358,#359,#360,#361,#362,#363));
#365=MANIFOLD_SOLID_BREP('197583 UO-1/8',#364);
#366=SHAPE_DEFINITION_REPRESENTATION(#549,#367);
#367=SHAPE_REPRESENTATION('197583 UO-1/8',(#368),#544);
#368=AXIS2_PLACEMENT_3D('',#485,#407,#408);
#369=AXIS2_PLACEMENT_3D('',#486,#409,#410);
#370=AXIS2_PLACEMENT_3D('',#487,#411,#412);
#371=AXIS2_PLACEMENT_3D('',#489,#413,#414);
#372=AXIS2_PLACEMENT_3D('',#491,#415,#416);
#373=AXIS2_PLACEMENT_3D('',#492,#417,#418);
#374=AXIS2_PLACEMENT_3D('',#494,#419,#420);
#375=AXIS2_PLACEMENT_3D('',#495,#421,#422);
#376=AXIS2_PLACEMENT_3D('',#497,#423,#424);
#377=AXIS2_PLACEMENT_3D('',#498,#425,#426);
#378=AXIS2_PLACEMENT_3D('',#500,#427,#428);
#379=AXIS2_PLACEMENT_3D('',#501,#429,#430);
#380=AXIS2_PLACEMENT_3D('',#503,#431,#432);
#381=AXIS2_PLACEMENT_3D('',#504,#433,#434);
#382=AXIS2_PLACEMENT_3D('',#506,#435,#436);
#383=AXIS2_PLACEMENT_3D('',#507,#437,#438);
#384=AXIS2_PLACEMENT_3D('',#509,#439,#440);
#385=AXIS2_PLACEMENT_3D('',#510,#441,#442);
#386=AXIS2_PLACEMENT_3D('',#512,#443,#444);
#387=AXIS2_PLACEMENT_3D('',#513,#445,#446);
#388=AXIS2_PLACEMENT_3D('',#515,#447,#448);
#389=AXIS2_PLACEMENT_3D('',#516,#449,#450);
#390=AXIS2_PLACEMENT_3D('',#518,#451,#452);
#391=AXIS2_PLACEMENT_3D('',#519,#453,#454);
#392=AXIS2_PLACEMENT_3D('',#521,#455,#456);
#393=AXIS2_PLACEMENT_3D('',#522,#457,#458);
#394=AXIS2_PLACEMENT_3D('',#524,#459,#460);
#395=AXIS2_PLACEMENT_3D('',#525,#461,#462);
#396=AXIS2_PLACEMENT_3D('',#527,#463,#464);
#397=AXIS2_PLACEMENT_3D('',#528,#465,#466);
#398=AXIS2_PLACEMENT_3D('',#530,#467,#468);
#399=AXIS2_PLACEMENT_3D('',#531,#469,#470);
#400=AXIS2_PLACEMENT_3D('',#533,#471,#472);
#401=AXIS2_PLACEMENT_3D('',#534,#473,#474);
#402=AXIS2_PLACEMENT_3D('',#536,#475,#476);
#403=AXIS2_PLACEMENT_3D('',#537,#477,#478);
#404=AXIS2_PLACEMENT_3D('',#539,#479,#480);
#405=AXIS2_PLACEMENT_3D('',#540,#481,#482);
#406=AXIS2_PLACEMENT_3D('',#542,#483,#484);
#407=DIRECTION('',(0.,0.,1.));
#408=DIRECTION('',(1.,0.,0.));
#409=DIRECTION('',(0.,0.,1.));
#410=DIRECTION('',(1.,0.,0.));
#411=DIRECTION('',(0.,0.,1.));
#412=DIRECTION('',(1.,0.,0.));
#413=DIRECTION('',(0.,0.,1.));
#414=DIRECTION('',(1.,0.,0.));
#415=DIRECTION('',(0.,0.,1.));
#416=DIRECTION('',(1.,0.,0.));
#417=DIRECTION('',(0.,0.,1.));
#418=DIRECTION('',(1.,0.,0.));
#419=DIRECTION('',(0.,0.,1.));
#420=DIRECTION('',(1.,0.,0.));
#421=DIRECTION('',(0.,0.,1.));
#422=DIRECTION('',(1.,0.,0.));
#423=DIRECTION('',(0.,0.,1.));
#424=DIRECTION('',(1.,0.,0.));
#425=DIRECTION('',(0.,0.,1.));
#426=DIRECTION('',(1.,0.,0.));
#427=DIRECTION('',(0.,0.,1.));
#428=DIRECTION('',(1.,0.,0.));
#429=DIRECTION('',(0.,0.,1.));
#430=DIRECTION('',(1.,0.,0.));
#431=DIRECTION('',(0.,0.,1.));
#432=DIRECTION('',(1.,0.,0.));
#433=DIRECTION('',(0.,0.,1.));
#434=DIRECTION('',(1.,0.,0.));
#435=DIRECTION('',(0.,0.,1.));
#436=DIRECTION('',(1.,0.,0.));
#437=DIRECTION('',(0.,0.,1.));
#438=DIRECTION('',(1.,0.,0.));
#439=DIRECTION('',(0.,0.,-1.));
#440=DIRECTION('',(-1.,0.,0.));
#441=DIRECTION('',(0.,0.,1.));
#442=DIRECTION('',(1.,0.,0.));
#443=DIRECTION('',(0.,0.,1.));
#444=DIRECTION('',(1.,0.,0.));
#445=DIRECTION('',(0.,0.,1.));
#446=DIRECTION('',(1.,0.,0.));
#447=DIRECTION('',(0.,0.,1.));
#448=DIRECTION('',(1.,0.,0.));
#449=DIRECTION('',(0.,0.,1.));
#450=DIRECTION('',(1.,0.,0.));
#451=DIRECTION('',(0.,0.,1.));
#452=DIRECTION('',(1.,0.,0.));
#453=DIRECTION('',(0.,0.,1.));
#454=DIRECTION('',(1.,0.,0.));
#455=DIRECTION('',(0.,0.,1.));
#456=DIRECTION('',(1.,0.,0.));
#457=DIRECTION('',(0.,0.,1.));
#458=DIRECTION('',(1.,0.,0.));
#459=DIRECTION('',(0.,0.,1.));
#460=DIRECTION('',(1.,0.,0.));
#461=DIRECTION('',(0.,0.,1.));
#462=DIRECTION('',(1.,0.,0.));
#463=DIRECTION('',(0.,0.,1.));
#464=DIRECTION('',(1.,0.,0.));
#465=DIRECTION('',(0.,0.,1.));
#466=DIRECTION('',(1.,0.,0.));
#467=DIRECTION('',(0.,0.,-1.));
#468=DIRECTION('',(-1.,0.,0.));
#469=DIRECTION('',(0.,0.,1.));
#470=DIRECTION('',(1.,0.,0.));
#471=DIRECTION('',(0.,0.,1.));
#472=DIRECTION('',(1.,0.,0.));
#473=DIRECTION('',(0.,0.,1.));
#474=DIRECTION('',(1.,0.,0.));
#475=DIRECTION('',(0.,0.,1.));
#476=DIRECTION('',(1.,0.,0.));
#477=DIRECTION('',(0.,0.,1.));
#478=DIRECTION('',(1.,0.,0.));
#479=DIRECTION('',(0.,0.,1.));
#480=DIRECTION('',(1.,0.,0.));
#481=DIRECTION('',(0.,0.,1.));
#482=DIRECTION('',(1.,0.,0.));
#483=DIRECTION('',(0.,0.,1.));
#484=DIRECTION('',(1.,0.,0.));
#485=CARTESIAN_POINT('',(0.,0.,0.));
#486=CARTESIAN_POINT('',(0.,0.,-33.1027901735811));
#487=CARTESIAN_POINT('',(0.,0.,-48.));
#488=CARTESIAN_POINT('',(1.75000000000004,0.,-48.));
#489=CARTESIAN_POINT('',(0.,0.,-46.5326647793166));
#490=CARTESIAN_POINT('',(6.67816540245108,0.,-46.5326647793166));
#491=CARTESIAN_POINT('',(0.,0.,-48.));
#492=CARTESIAN_POINT('',(0.,0.,-8.3));
#493=CARTESIAN_POINT('',(3.2,0.,-8.3));
#494=CARTESIAN_POINT('',(0.,0.,-8.3));
#495=CARTESIAN_POINT('',(0.,0.,-0.399999999999992));
#496=CARTESIAN_POINT('',(3.2,0.,-0.399999999999992));
#497=CARTESIAN_POINT('',(0.,0.,-0.399999999999992));
#498=CARTESIAN_POINT('',(0.,0.,0.));
#499=CARTESIAN_POINT('',(3.6,0.,0.));
#500=CARTESIAN_POINT('',(3.6,0.,0.));
#501=CARTESIAN_POINT('',(0.,0.,0.));
#502=CARTESIAN_POINT('',(4.15,0.,0.));
#503=CARTESIAN_POINT('',(0.,0.,-8.3));
#504=CARTESIAN_POINT('',(0.,0.,-1.));
#505=CARTESIAN_POINT('',(4.15,0.,-1.));
#506=CARTESIAN_POINT('',(4.15,0.,-1.));
#507=CARTESIAN_POINT('',(0.,0.,-1.));
#508=CARTESIAN_POINT('',(4.28300000000001,0.,-1.));
#509=CARTESIAN_POINT('',(0.,0.,-1.));
#510=CARTESIAN_POINT('',(0.,0.,-1.58099999999999));
#511=CARTESIAN_POINT('',(4.864,0.,-1.58099999999999));
#512=CARTESIAN_POINT('',(0.,0.,-8.3));
#513=CARTESIAN_POINT('',(0.,0.,-6.5));
#514=CARTESIAN_POINT('',(4.864,0.,-6.5));
#515=CARTESIAN_POINT('',(4.864,0.,-6.5));
#516=CARTESIAN_POINT('',(0.,0.,-6.5));
#517=CARTESIAN_POINT('',(5.7,0.,-6.5));
#518=CARTESIAN_POINT('',(0.,0.,-8.3));
#519=CARTESIAN_POINT('',(0.,0.,-7.));
#520=CARTESIAN_POINT('',(5.7,0.,-7.));
#521=CARTESIAN_POINT('',(5.7,0.,-7.));
#522=CARTESIAN_POINT('',(0.,0.,-7.));
#523=CARTESIAN_POINT('',(6.4,0.,-7.));
#524=CARTESIAN_POINT('',(0.,0.,-7.5));
#525=CARTESIAN_POINT('',(0.,0.,-7.5));
#526=CARTESIAN_POINT('',(6.9,0.,-7.5));
#527=CARTESIAN_POINT('',(0.,0.,-8.3));
#528=CARTESIAN_POINT('',(0.,0.,-8.3));
#529=CARTESIAN_POINT('',(6.9,0.,-8.3));
#530=CARTESIAN_POINT('',(6.9,0.,-8.3));
#531=CARTESIAN_POINT('',(0.,0.,-8.3));
#532=CARTESIAN_POINT('',(6.7,0.,-8.3));
#533=CARTESIAN_POINT('',(0.,0.,-8.3));
#534=CARTESIAN_POINT('',(0.,0.,-13.));
#535=CARTESIAN_POINT('',(6.7,0.,-13.));
#536=CARTESIAN_POINT('',(6.7,0.,-13.));
#537=CARTESIAN_POINT('',(0.,0.,-13.));
#538=CARTESIAN_POINT('',(6.9,0.,-13.));
#539=CARTESIAN_POINT('',(0.,0.,-8.3));
#540=CARTESIAN_POINT('',(0.,0.,-46.1745347898303));
#541=CARTESIAN_POINT('',(6.9,0.,-46.1745347898303));
#542=CARTESIAN_POINT('',(0.,0.,-46.1745347898303));
#543=MECHANICAL_DESIGN_GEOMETRIC_PRESENTATION_REPRESENTATION('',(#210,#211,
#212,#213,#214,#215,#216,#217,#218,#219,#220,#221,#222,#223,#224,#225,#226,
#227,#228),#544);
#544=(
GEOMETRIC_REPRESENTATION_CONTEXT(3)
GLOBAL_UNCERTAINTY_ASSIGNED_CONTEXT((#545))
GLOBAL_UNIT_ASSIGNED_CONTEXT((#548,#547,#546))
REPRESENTATION_CONTEXT('197583 UO-1/8','TOP_LEVEL_ASSEMBLY_PART')
);
#545=UNCERTAINTY_MEASURE_WITH_UNIT(LENGTH_MEASURE(0.005),#548,
'DISTANCE_ACCURACY_VALUE','Maximum Tolerance applied to model');
#546=(
NAMED_UNIT(*)
SI_UNIT($,.STERADIAN.)
SOLID_ANGLE_UNIT()
);
#547=(
NAMED_UNIT(*)
PLANE_ANGLE_UNIT()
SI_UNIT($,.RADIAN.)
);
#548=(
LENGTH_UNIT()
NAMED_UNIT(*)
SI_UNIT(.MILLI.,.METRE.)
);
#549=PRODUCT_DEFINITION_SHAPE('','',#550);
#550=PRODUCT_DEFINITION('','',#552,#551);
#551=PRODUCT_DEFINITION_CONTEXT('',#558,'design');
#552=PRODUCT_DEFINITION_FORMATION_WITH_SPECIFIED_SOURCE('','',#554,
 .NOT_KNOWN.);
#553=PRODUCT_RELATED_PRODUCT_CATEGORY('','',(#554));
#554=PRODUCT('197583 UO-1/8','197583 UO-1/8','197583 UO-1/8',(#556));
#555=PRODUCT_CATEGORY('','');
#556=PRODUCT_CONTEXT('',#558,'mechanical');
#557=APPLICATION_PROTOCOL_DEFINITION('international standard',
'automotive_design',2010,#558);
#558=APPLICATION_CONTEXT(
'core data for automotive mechanical design processes');
ENDSEC;
END-ISO-10303-21;
