ISO-10303-21;
HEADER;
/* Generated by software containing ST-Developer
 * from STEP Tools, Inc. (www.steptools.com) 
 */
/* OPTION: using custom renumber hook */

FILE_DESCRIPTION(
/* description */ ('STEP AP214'),
/* implementation_level */ '2;1');

FILE_NAME(
/* name */ '197584_UO-1_4',
/* time_stamp */ '2024-09-15T16:22:26+02:00',
/* author */ ('License CC BY-ND 4.0'),
/* organization */ ('CADENAS'),
/* preprocessor_version */ 'ST-DEVELOPER v19.3',
/* originating_system */ 'PARTsolutions',
/* authorisation */ '  ');

FILE_SCHEMA (('AUTOMOTIVE_DESIGN {1 0 10303 214 3 1 1}'));
ENDSEC;

DATA;
#10=PROPERTY_DEFINITION_REPRESENTATION(#14,#12);
#11=PROPERTY_DEFINITION_REPRESENTATION(#15,#13);
#12=REPRESENTATION('',(#16),#598);
#13=REPRESENTATION('',(#17),#598);
#14=PROPERTY_DEFINITION('pmi validation property','',#603);
#15=PROPERTY_DEFINITION('pmi validation property','',#603);
#16=VALUE_REPRESENTATION_ITEM('number of annotations',COUNT_MEASURE(0.));
#17=VALUE_REPRESENTATION_ITEM('number of views',COUNT_MEASURE(0.));
#18=SHAPE_REPRESENTATION_RELATIONSHIP('','',#403,#19);
#19=ADVANCED_BREP_SHAPE_REPRESENTATION('',(#401),#598);
#20=TOROIDAL_SURFACE('',#426,6.91991698471612,0.399999999999996);
#21=TOROIDAL_SURFACE('',#430,7.77125920269685,0.400000000000002);
#22=TOROIDAL_SURFACE('',#434,8.5,0.399999999999994);
#23=TOROIDAL_SURFACE('',#446,8.4,0.500000000000004);
#24=PLANE('',#414);
#25=PLANE('',#418);
#26=PLANE('',#424);
#27=PLANE('',#432);
#28=PLANE('',#438);
#29=PLANE('',#442);
#30=CYLINDRICAL_SURFACE('',#410,4.5);
#31=CYLINDRICAL_SURFACE('',#416,5.6);
#32=CYLINDRICAL_SURFACE('',#422,6.5785);
#33=CYLINDRICAL_SURFACE('',#436,8.9);
#34=CYLINDRICAL_SURFACE('',#440,8.7);
#35=CYLINDRICAL_SURFACE('',#444,8.9);
#36=CONICAL_SURFACE('',#408,2.65,0.0353581067249376);
#37=CONICAL_SURFACE('',#412,4.5,0.78539816339745);
#38=CONICAL_SURFACE('',#420,5.72250000000001,0.785398163397452);
#39=CONICAL_SURFACE('',#428,7.29579403303048,0.349065850398874);
#40=ORIENTED_EDGE('',*,*,#82,.T.);
#41=ORIENTED_EDGE('',*,*,#83,.F.);
#42=ORIENTED_EDGE('',*,*,#84,.T.);
#43=ORIENTED_EDGE('',*,*,#82,.F.);
#44=ORIENTED_EDGE('',*,*,#85,.T.);
#45=ORIENTED_EDGE('',*,*,#84,.F.);
#46=ORIENTED_EDGE('',*,*,#86,.T.);
#47=ORIENTED_EDGE('',*,*,#85,.F.);
#48=ORIENTED_EDGE('',*,*,#87,.T.);
#49=ORIENTED_EDGE('',*,*,#86,.F.);
#50=ORIENTED_EDGE('',*,*,#88,.T.);
#51=ORIENTED_EDGE('',*,*,#87,.F.);
#52=ORIENTED_EDGE('',*,*,#89,.T.);
#53=ORIENTED_EDGE('',*,*,#88,.F.);
#54=ORIENTED_EDGE('',*,*,#90,.T.);
#55=ORIENTED_EDGE('',*,*,#89,.F.);
#56=ORIENTED_EDGE('',*,*,#91,.T.);
#57=ORIENTED_EDGE('',*,*,#90,.F.);
#58=ORIENTED_EDGE('',*,*,#92,.T.);
#59=ORIENTED_EDGE('',*,*,#91,.F.);
#60=ORIENTED_EDGE('',*,*,#93,.T.);
#61=ORIENTED_EDGE('',*,*,#92,.F.);
#62=ORIENTED_EDGE('',*,*,#94,.T.);
#63=ORIENTED_EDGE('',*,*,#93,.F.);
#64=ORIENTED_EDGE('',*,*,#94,.F.);
#65=ORIENTED_EDGE('',*,*,#95,.T.);
#66=ORIENTED_EDGE('',*,*,#96,.T.);
#67=ORIENTED_EDGE('',*,*,#95,.F.);
#68=ORIENTED_EDGE('',*,*,#97,.T.);
#69=ORIENTED_EDGE('',*,*,#96,.F.);
#70=ORIENTED_EDGE('',*,*,#98,.T.);
#71=ORIENTED_EDGE('',*,*,#97,.F.);
#72=ORIENTED_EDGE('',*,*,#99,.T.);
#73=ORIENTED_EDGE('',*,*,#98,.F.);
#74=ORIENTED_EDGE('',*,*,#100,.T.);
#75=ORIENTED_EDGE('',*,*,#99,.F.);
#76=ORIENTED_EDGE('',*,*,#101,.T.);
#77=ORIENTED_EDGE('',*,*,#100,.F.);
#78=ORIENTED_EDGE('',*,*,#102,.T.);
#79=ORIENTED_EDGE('',*,*,#101,.F.);
#80=ORIENTED_EDGE('',*,*,#83,.T.);
#81=ORIENTED_EDGE('',*,*,#102,.F.);
#82=EDGE_CURVE('',#103,#103,#124,.T.);
#83=EDGE_CURVE('',#104,#104,#125,.T.);
#84=EDGE_CURVE('',#105,#105,#126,.T.);
#85=EDGE_CURVE('',#106,#106,#127,.T.);
#86=EDGE_CURVE('',#107,#107,#128,.T.);
#87=EDGE_CURVE('',#108,#108,#129,.T.);
#88=EDGE_CURVE('',#109,#109,#130,.T.);
#89=EDGE_CURVE('',#110,#110,#131,.T.);
#90=EDGE_CURVE('',#111,#111,#132,.T.);
#91=EDGE_CURVE('',#112,#112,#133,.T.);
#92=EDGE_CURVE('',#113,#113,#134,.T.);
#93=EDGE_CURVE('',#114,#114,#135,.T.);
#94=EDGE_CURVE('',#115,#115,#136,.T.);
#95=EDGE_CURVE('',#116,#116,#137,.T.);
#96=EDGE_CURVE('',#117,#117,#138,.T.);
#97=EDGE_CURVE('',#118,#118,#139,.T.);
#98=EDGE_CURVE('',#119,#119,#140,.T.);
#99=EDGE_CURVE('',#120,#120,#141,.T.);
#100=EDGE_CURVE('',#121,#121,#142,.T.);
#101=EDGE_CURVE('',#122,#122,#143,.T.);
#102=EDGE_CURVE('',#123,#123,#144,.T.);
#103=VERTEX_POINT('',#536);
#104=VERTEX_POINT('',#538);
#105=VERTEX_POINT('',#541);
#106=VERTEX_POINT('',#544);
#107=VERTEX_POINT('',#547);
#108=VERTEX_POINT('',#550);
#109=VERTEX_POINT('',#553);
#110=VERTEX_POINT('',#556);
#111=VERTEX_POINT('',#559);
#112=VERTEX_POINT('',#562);
#113=VERTEX_POINT('',#565);
#114=VERTEX_POINT('',#568);
#115=VERTEX_POINT('',#571);
#116=VERTEX_POINT('',#574);
#117=VERTEX_POINT('',#577);
#118=VERTEX_POINT('',#580);
#119=VERTEX_POINT('',#583);
#120=VERTEX_POINT('',#586);
#121=VERTEX_POINT('',#589);
#122=VERTEX_POINT('',#592);
#123=VERTEX_POINT('',#595);
#124=CIRCLE('',#406,2.65);
#125=CIRCLE('',#407,8.62510101610338);
#126=CIRCLE('',#409,4.5);
#127=CIRCLE('',#411,4.5);
#128=CIRCLE('',#413,5.);
#129=CIRCLE('',#415,5.6);
#130=CIRCLE('',#417,5.6);
#131=CIRCLE('',#419,5.72250000000001);
#132=CIRCLE('',#421,6.5785);
#133=CIRCLE('',#423,6.5785);
#134=CIRCLE('',#425,6.91991698471612);
#135=CIRCLE('',#427,7.29579403303048);
#136=CIRCLE('',#429,7.39538215438249);
#137=CIRCLE('',#431,7.77125920269685);
#138=CIRCLE('',#433,8.5);
#139=CIRCLE('',#435,8.9);
#140=CIRCLE('',#437,8.9);
#141=CIRCLE('',#439,8.7);
#142=CIRCLE('',#441,8.7);
#143=CIRCLE('',#443,8.9);
#144=CIRCLE('',#445,8.9);
#145=EDGE_LOOP('',(#40));
#146=EDGE_LOOP('',(#41));
#147=EDGE_LOOP('',(#42));
#148=EDGE_LOOP('',(#43));
#149=EDGE_LOOP('',(#44));
#150=EDGE_LOOP('',(#45));
#151=EDGE_LOOP('',(#46));
#152=EDGE_LOOP('',(#47));
#153=EDGE_LOOP('',(#48));
#154=EDGE_LOOP('',(#49));
#155=EDGE_LOOP('',(#50));
#156=EDGE_LOOP('',(#51));
#157=EDGE_LOOP('',(#52));
#158=EDGE_LOOP('',(#53));
#159=EDGE_LOOP('',(#54));
#160=EDGE_LOOP('',(#55));
#161=EDGE_LOOP('',(#56));
#162=EDGE_LOOP('',(#57));
#163=EDGE_LOOP('',(#58));
#164=EDGE_LOOP('',(#59));
#165=EDGE_LOOP('',(#60));
#166=EDGE_LOOP('',(#61));
#167=EDGE_LOOP('',(#62));
#168=EDGE_LOOP('',(#63));
#169=EDGE_LOOP('',(#64));
#170=EDGE_LOOP('',(#65));
#171=EDGE_LOOP('',(#66));
#172=EDGE_LOOP('',(#67));
#173=EDGE_LOOP('',(#68));
#174=EDGE_LOOP('',(#69));
#175=EDGE_LOOP('',(#70));
#176=EDGE_LOOP('',(#71));
#177=EDGE_LOOP('',(#72));
#178=EDGE_LOOP('',(#73));
#179=EDGE_LOOP('',(#74));
#180=EDGE_LOOP('',(#75));
#181=EDGE_LOOP('',(#76));
#182=EDGE_LOOP('',(#77));
#183=EDGE_LOOP('',(#78));
#184=EDGE_LOOP('',(#79));
#185=EDGE_LOOP('',(#80));
#186=EDGE_LOOP('',(#81));
#187=FACE_BOUND('',#145,.T.);
#188=FACE_BOUND('',#146,.T.);
#189=FACE_BOUND('',#147,.T.);
#190=FACE_BOUND('',#148,.T.);
#191=FACE_BOUND('',#149,.T.);
#192=FACE_BOUND('',#150,.T.);
#193=FACE_BOUND('',#151,.T.);
#194=FACE_BOUND('',#152,.T.);
#195=FACE_BOUND('',#153,.T.);
#196=FACE_BOUND('',#154,.T.);
#197=FACE_BOUND('',#155,.T.);
#198=FACE_BOUND('',#156,.T.);
#199=FACE_BOUND('',#157,.T.);
#200=FACE_BOUND('',#158,.T.);
#201=FACE_BOUND('',#159,.T.);
#202=FACE_BOUND('',#160,.T.);
#203=FACE_BOUND('',#161,.T.);
#204=FACE_BOUND('',#162,.T.);
#205=FACE_BOUND('',#163,.T.);
#206=FACE_BOUND('',#164,.T.);
#207=FACE_BOUND('',#165,.T.);
#208=FACE_BOUND('',#166,.T.);
#209=FACE_BOUND('',#167,.T.);
#210=FACE_BOUND('',#168,.T.);
#211=FACE_BOUND('',#169,.T.);
#212=FACE_BOUND('',#170,.T.);
#213=FACE_BOUND('',#171,.T.);
#214=FACE_BOUND('',#172,.T.);
#215=FACE_BOUND('',#173,.T.);
#216=FACE_BOUND('',#174,.T.);
#217=FACE_BOUND('',#175,.T.);
#218=FACE_BOUND('',#176,.T.);
#219=FACE_BOUND('',#177,.T.);
#220=FACE_BOUND('',#178,.T.);
#221=FACE_BOUND('',#179,.T.);
#222=FACE_BOUND('',#180,.T.);
#223=FACE_BOUND('',#181,.T.);
#224=FACE_BOUND('',#182,.T.);
#225=FACE_BOUND('',#183,.T.);
#226=FACE_BOUND('',#184,.T.);
#227=FACE_BOUND('',#185,.T.);
#228=FACE_BOUND('',#186,.T.);
#229=DEGENERATE_TOROIDAL_SURFACE('',#405,0.0712594709065305,19.0000000000004,
 .T.);
#230=STYLED_ITEM('',(#251),#379);
#231=STYLED_ITEM('',(#252),#380);
#232=STYLED_ITEM('',(#253),#381);
#233=STYLED_ITEM('',(#254),#382);
#234=STYLED_ITEM('',(#255),#383);
#235=STYLED_ITEM('',(#256),#384);
#236=STYLED_ITEM('',(#257),#385);
#237=STYLED_ITEM('',(#258),#386);
#238=STYLED_ITEM('',(#259),#387);
#239=STYLED_ITEM('',(#260),#388);
#240=STYLED_ITEM('',(#261),#389);
#241=STYLED_ITEM('',(#262),#390);
#242=STYLED_ITEM('',(#263),#391);
#243=STYLED_ITEM('',(#264),#392);
#244=STYLED_ITEM('',(#265),#393);
#245=STYLED_ITEM('',(#266),#394);
#246=STYLED_ITEM('',(#267),#395);
#247=STYLED_ITEM('',(#268),#396);
#248=STYLED_ITEM('',(#269),#397);
#249=STYLED_ITEM('',(#270),#398);
#250=STYLED_ITEM('',(#271),#399);
#251=PRESENTATION_STYLE_ASSIGNMENT((#272));
#252=PRESENTATION_STYLE_ASSIGNMENT((#273));
#253=PRESENTATION_STYLE_ASSIGNMENT((#274));
#254=PRESENTATION_STYLE_ASSIGNMENT((#275));
#255=PRESENTATION_STYLE_ASSIGNMENT((#276));
#256=PRESENTATION_STYLE_ASSIGNMENT((#277));
#257=PRESENTATION_STYLE_ASSIGNMENT((#278));
#258=PRESENTATION_STYLE_ASSIGNMENT((#279));
#259=PRESENTATION_STYLE_ASSIGNMENT((#280));
#260=PRESENTATION_STYLE_ASSIGNMENT((#281));
#261=PRESENTATION_STYLE_ASSIGNMENT((#282));
#262=PRESENTATION_STYLE_ASSIGNMENT((#283));
#263=PRESENTATION_STYLE_ASSIGNMENT((#284));
#264=PRESENTATION_STYLE_ASSIGNMENT((#285));
#265=PRESENTATION_STYLE_ASSIGNMENT((#286));
#266=PRESENTATION_STYLE_ASSIGNMENT((#287));
#267=PRESENTATION_STYLE_ASSIGNMENT((#288));
#268=PRESENTATION_STYLE_ASSIGNMENT((#289));
#269=PRESENTATION_STYLE_ASSIGNMENT((#290));
#270=PRESENTATION_STYLE_ASSIGNMENT((#291));
#271=PRESENTATION_STYLE_ASSIGNMENT((#292));
#272=SURFACE_STYLE_USAGE(.BOTH.,#293);
#273=SURFACE_STYLE_USAGE(.BOTH.,#294);
#274=SURFACE_STYLE_USAGE(.BOTH.,#295);
#275=SURFACE_STYLE_USAGE(.BOTH.,#296);
#276=SURFACE_STYLE_USAGE(.BOTH.,#297);
#277=SURFACE_STYLE_USAGE(.BOTH.,#298);
#278=SURFACE_STYLE_USAGE(.BOTH.,#299);
#279=SURFACE_STYLE_USAGE(.BOTH.,#300);
#280=SURFACE_STYLE_USAGE(.BOTH.,#301);
#281=SURFACE_STYLE_USAGE(.BOTH.,#302);
#282=SURFACE_STYLE_USAGE(.BOTH.,#303);
#283=SURFACE_STYLE_USAGE(.BOTH.,#304);
#284=SURFACE_STYLE_USAGE(.BOTH.,#305);
#285=SURFACE_STYLE_USAGE(.BOTH.,#306);
#286=SURFACE_STYLE_USAGE(.BOTH.,#307);
#287=SURFACE_STYLE_USAGE(.BOTH.,#308);
#288=SURFACE_STYLE_USAGE(.BOTH.,#309);
#289=SURFACE_STYLE_USAGE(.BOTH.,#310);
#290=SURFACE_STYLE_USAGE(.BOTH.,#311);
#291=SURFACE_STYLE_USAGE(.BOTH.,#312);
#292=SURFACE_STYLE_USAGE(.BOTH.,#313);
#293=SURFACE_SIDE_STYLE('',(#314));
#294=SURFACE_SIDE_STYLE('',(#315));
#295=SURFACE_SIDE_STYLE('',(#316));
#296=SURFACE_SIDE_STYLE('',(#317));
#297=SURFACE_SIDE_STYLE('',(#318));
#298=SURFACE_SIDE_STYLE('',(#319));
#299=SURFACE_SIDE_STYLE('',(#320));
#300=SURFACE_SIDE_STYLE('',(#321));
#301=SURFACE_SIDE_STYLE('',(#322));
#302=SURFACE_SIDE_STYLE('',(#323));
#303=SURFACE_SIDE_STYLE('',(#324));
#304=SURFACE_SIDE_STYLE('',(#325));
#305=SURFACE_SIDE_STYLE('',(#326));
#306=SURFACE_SIDE_STYLE('',(#327));
#307=SURFACE_SIDE_STYLE('',(#328));
#308=SURFACE_SIDE_STYLE('',(#329));
#309=SURFACE_SIDE_STYLE('',(#330));
#310=SURFACE_SIDE_STYLE('',(#331));
#311=SURFACE_SIDE_STYLE('',(#332));
#312=SURFACE_SIDE_STYLE('',(#333));
#313=SURFACE_SIDE_STYLE('',(#334));
#314=SURFACE_STYLE_FILL_AREA(#335);
#315=SURFACE_STYLE_FILL_AREA(#336);
#316=SURFACE_STYLE_FILL_AREA(#337);
#317=SURFACE_STYLE_FILL_AREA(#338);
#318=SURFACE_STYLE_FILL_AREA(#339);
#319=SURFACE_STYLE_FILL_AREA(#340);
#320=SURFACE_STYLE_FILL_AREA(#341);
#321=SURFACE_STYLE_FILL_AREA(#342);
#322=SURFACE_STYLE_FILL_AREA(#343);
#323=SURFACE_STYLE_FILL_AREA(#344);
#324=SURFACE_STYLE_FILL_AREA(#345);
#325=SURFACE_STYLE_FILL_AREA(#346);
#326=SURFACE_STYLE_FILL_AREA(#347);
#327=SURFACE_STYLE_FILL_AREA(#348);
#328=SURFACE_STYLE_FILL_AREA(#349);
#329=SURFACE_STYLE_FILL_AREA(#350);
#330=SURFACE_STYLE_FILL_AREA(#351);
#331=SURFACE_STYLE_FILL_AREA(#352);
#332=SURFACE_STYLE_FILL_AREA(#353);
#333=SURFACE_STYLE_FILL_AREA(#354);
#334=SURFACE_STYLE_FILL_AREA(#355);
#335=FILL_AREA_STYLE('',(#356));
#336=FILL_AREA_STYLE('',(#357));
#337=FILL_AREA_STYLE('',(#358));
#338=FILL_AREA_STYLE('',(#359));
#339=FILL_AREA_STYLE('',(#360));
#340=FILL_AREA_STYLE('',(#361));
#341=FILL_AREA_STYLE('',(#362));
#342=FILL_AREA_STYLE('',(#363));
#343=FILL_AREA_STYLE('',(#364));
#344=FILL_AREA_STYLE('',(#365));
#345=FILL_AREA_STYLE('',(#366));
#346=FILL_AREA_STYLE('',(#367));
#347=FILL_AREA_STYLE('',(#368));
#348=FILL_AREA_STYLE('',(#369));
#349=FILL_AREA_STYLE('',(#370));
#350=FILL_AREA_STYLE('',(#371));
#351=FILL_AREA_STYLE('',(#372));
#352=FILL_AREA_STYLE('',(#373));
#353=FILL_AREA_STYLE('',(#374));
#354=FILL_AREA_STYLE('',(#375));
#355=FILL_AREA_STYLE('',(#376));
#356=FILL_AREA_STYLE_COLOUR('',#377);
#357=FILL_AREA_STYLE_COLOUR('',#377);
#358=FILL_AREA_STYLE_COLOUR('',#378);
#359=FILL_AREA_STYLE_COLOUR('',#378);
#360=FILL_AREA_STYLE_COLOUR('',#378);
#361=FILL_AREA_STYLE_COLOUR('',#378);
#362=FILL_AREA_STYLE_COLOUR('',#378);
#363=FILL_AREA_STYLE_COLOUR('',#378);
#364=FILL_AREA_STYLE_COLOUR('',#378);
#365=FILL_AREA_STYLE_COLOUR('',#378);
#366=FILL_AREA_STYLE_COLOUR('',#378);
#367=FILL_AREA_STYLE_COLOUR('',#378);
#368=FILL_AREA_STYLE_COLOUR('',#378);
#369=FILL_AREA_STYLE_COLOUR('',#378);
#370=FILL_AREA_STYLE_COLOUR('',#378);
#371=FILL_AREA_STYLE_COLOUR('',#378);
#372=FILL_AREA_STYLE_COLOUR('',#378);
#373=FILL_AREA_STYLE_COLOUR('',#378);
#374=FILL_AREA_STYLE_COLOUR('',#377);
#375=FILL_AREA_STYLE_COLOUR('',#377);
#376=FILL_AREA_STYLE_COLOUR('',#377);
#377=COLOUR_RGB('',0.689999997615814,0.689999997615814,0.689999997615814);
#378=COLOUR_RGB('',0.,0.60000002384186,1.);
#379=ADVANCED_FACE('',(#187,#188),#229,.T.);
#380=ADVANCED_FACE('',(#189,#190),#36,.F.);
#381=ADVANCED_FACE('',(#191,#192),#30,.F.);
#382=ADVANCED_FACE('',(#193,#194),#37,.F.);
#383=ADVANCED_FACE('',(#195,#196),#24,.T.);
#384=ADVANCED_FACE('',(#197,#198),#31,.T.);
#385=ADVANCED_FACE('',(#199,#200),#25,.T.);
#386=ADVANCED_FACE('',(#201,#202),#38,.T.);
#387=ADVANCED_FACE('',(#203,#204),#32,.T.);
#388=ADVANCED_FACE('',(#205,#206),#26,.T.);
#389=ADVANCED_FACE('',(#207,#208),#20,.T.);
#390=ADVANCED_FACE('',(#209,#210),#39,.T.);
#391=ADVANCED_FACE('',(#211,#212),#21,.F.);
#392=ADVANCED_FACE('',(#213,#214),#27,.T.);
#393=ADVANCED_FACE('',(#215,#216),#22,.T.);
#394=ADVANCED_FACE('',(#217,#218),#33,.T.);
#395=ADVANCED_FACE('',(#219,#220),#28,.T.);
#396=ADVANCED_FACE('',(#221,#222),#34,.T.);
#397=ADVANCED_FACE('',(#223,#224),#29,.T.);
#398=ADVANCED_FACE('',(#225,#226),#35,.T.);
#399=ADVANCED_FACE('',(#227,#228),#23,.T.);
#400=CLOSED_SHELL('',(#379,#380,#381,#382,#383,#384,#385,#386,#387,#388,
#389,#390,#391,#392,#393,#394,#395,#396,#397,#398,#399));
#401=MANIFOLD_SOLID_BREP('197584 UO-1/4',#400);
#402=SHAPE_DEFINITION_REPRESENTATION(#603,#403);
#403=SHAPE_REPRESENTATION('197584 UO-1/4',(#404),#598);
#404=AXIS2_PLACEMENT_3D('',#533,#447,#448);
#405=AXIS2_PLACEMENT_3D('',#534,#449,#450);
#406=AXIS2_PLACEMENT_3D('',#535,#451,#452);
#407=AXIS2_PLACEMENT_3D('',#537,#453,#454);
#408=AXIS2_PLACEMENT_3D('',#539,#455,#456);
#409=AXIS2_PLACEMENT_3D('',#540,#457,#458);
#410=AXIS2_PLACEMENT_3D('',#542,#459,#460);
#411=AXIS2_PLACEMENT_3D('',#543,#461,#462);
#412=AXIS2_PLACEMENT_3D('',#545,#463,#464);
#413=AXIS2_PLACEMENT_3D('',#546,#465,#466);
#414=AXIS2_PLACEMENT_3D('',#548,#467,#468);
#415=AXIS2_PLACEMENT_3D('',#549,#469,#470);
#416=AXIS2_PLACEMENT_3D('',#551,#471,#472);
#417=AXIS2_PLACEMENT_3D('',#552,#473,#474);
#418=AXIS2_PLACEMENT_3D('',#554,#475,#476);
#419=AXIS2_PLACEMENT_3D('',#555,#477,#478);
#420=AXIS2_PLACEMENT_3D('',#557,#479,#480);
#421=AXIS2_PLACEMENT_3D('',#558,#481,#482);
#422=AXIS2_PLACEMENT_3D('',#560,#483,#484);
#423=AXIS2_PLACEMENT_3D('',#561,#485,#486);
#424=AXIS2_PLACEMENT_3D('',#563,#487,#488);
#425=AXIS2_PLACEMENT_3D('',#564,#489,#490);
#426=AXIS2_PLACEMENT_3D('',#566,#491,#492);
#427=AXIS2_PLACEMENT_3D('',#567,#493,#494);
#428=AXIS2_PLACEMENT_3D('',#569,#495,#496);
#429=AXIS2_PLACEMENT_3D('',#570,#497,#498);
#430=AXIS2_PLACEMENT_3D('',#572,#499,#500);
#431=AXIS2_PLACEMENT_3D('',#573,#501,#502);
#432=AXIS2_PLACEMENT_3D('',#575,#503,#504);
#433=AXIS2_PLACEMENT_3D('',#576,#505,#506);
#434=AXIS2_PLACEMENT_3D('',#578,#507,#508);
#435=AXIS2_PLACEMENT_3D('',#579,#509,#510);
#436=AXIS2_PLACEMENT_3D('',#581,#511,#512);
#437=AXIS2_PLACEMENT_3D('',#582,#513,#514);
#438=AXIS2_PLACEMENT_3D('',#584,#515,#516);
#439=AXIS2_PLACEMENT_3D('',#585,#517,#518);
#440=AXIS2_PLACEMENT_3D('',#587,#519,#520);
#441=AXIS2_PLACEMENT_3D('',#588,#521,#522);
#442=AXIS2_PLACEMENT_3D('',#590,#523,#524);
#443=AXIS2_PLACEMENT_3D('',#591,#525,#526);
#444=AXIS2_PLACEMENT_3D('',#593,#527,#528);
#445=AXIS2_PLACEMENT_3D('',#594,#529,#530);
#446=AXIS2_PLACEMENT_3D('',#596,#531,#532);
#447=DIRECTION('',(0.,0.,1.));
#448=DIRECTION('',(1.,0.,0.));
#449=DIRECTION('',(0.,0.,1.));
#450=DIRECTION('',(1.,0.,0.));
#451=DIRECTION('',(0.,0.,1.));
#452=DIRECTION('',(1.,0.,0.));
#453=DIRECTION('',(0.,0.,1.));
#454=DIRECTION('',(1.,0.,0.));
#455=DIRECTION('',(0.,0.,1.));
#456=DIRECTION('',(1.,0.,0.));
#457=DIRECTION('',(0.,0.,1.));
#458=DIRECTION('',(1.,0.,0.));
#459=DIRECTION('',(0.,0.,1.));
#460=DIRECTION('',(1.,0.,0.));
#461=DIRECTION('',(0.,0.,1.));
#462=DIRECTION('',(1.,0.,0.));
#463=DIRECTION('',(0.,0.,1.));
#464=DIRECTION('',(1.,0.,0.));
#465=DIRECTION('',(0.,0.,1.));
#466=DIRECTION('',(1.,0.,0.));
#467=DIRECTION('',(0.,0.,1.));
#468=DIRECTION('',(1.,0.,0.));
#469=DIRECTION('',(0.,0.,1.));
#470=DIRECTION('',(1.,0.,0.));
#471=DIRECTION('',(0.,0.,1.));
#472=DIRECTION('',(1.,0.,0.));
#473=DIRECTION('',(0.,0.,1.));
#474=DIRECTION('',(1.,0.,0.));
#475=DIRECTION('',(0.,0.,1.));
#476=DIRECTION('',(1.,0.,0.));
#477=DIRECTION('',(0.,0.,1.));
#478=DIRECTION('',(1.,0.,0.));
#479=DIRECTION('',(0.,0.,-1.));
#480=DIRECTION('',(-1.,0.,0.));
#481=DIRECTION('',(0.,0.,1.));
#482=DIRECTION('',(1.,0.,0.));
#483=DIRECTION('',(0.,0.,1.));
#484=DIRECTION('',(1.,0.,0.));
#485=DIRECTION('',(0.,0.,1.));
#486=DIRECTION('',(1.,0.,0.));
#487=DIRECTION('',(0.,0.,1.));
#488=DIRECTION('',(1.,0.,0.));
#489=DIRECTION('',(0.,0.,1.));
#490=DIRECTION('',(1.,0.,0.));
#491=DIRECTION('',(0.,0.,1.));
#492=DIRECTION('',(1.,0.,0.));
#493=DIRECTION('',(0.,0.,1.));
#494=DIRECTION('',(1.,0.,0.));
#495=DIRECTION('',(0.,0.,-1.));
#496=DIRECTION('',(-1.,0.,0.));
#497=DIRECTION('',(0.,0.,1.));
#498=DIRECTION('',(1.,0.,0.));
#499=DIRECTION('',(0.,0.,1.));
#500=DIRECTION('',(1.,0.,0.));
#501=DIRECTION('',(0.,0.,1.));
#502=DIRECTION('',(1.,0.,0.));
#503=DIRECTION('',(0.,0.,1.));
#504=DIRECTION('',(1.,0.,0.));
#505=DIRECTION('',(0.,0.,1.));
#506=DIRECTION('',(1.,0.,0.));
#507=DIRECTION('',(0.,0.,1.));
#508=DIRECTION('',(1.,0.,0.));
#509=DIRECTION('',(0.,0.,1.));
#510=DIRECTION('',(1.,0.,0.));
#511=DIRECTION('',(0.,0.,1.));
#512=DIRECTION('',(1.,0.,0.));
#513=DIRECTION('',(0.,0.,1.));
#514=DIRECTION('',(1.,0.,0.));
#515=DIRECTION('',(0.,0.,-1.));
#516=DIRECTION('',(-1.,0.,0.));
#517=DIRECTION('',(0.,0.,1.));
#518=DIRECTION('',(1.,0.,0.));
#519=DIRECTION('',(0.,0.,1.));
#520=DIRECTION('',(1.,0.,0.));
#521=DIRECTION('',(0.,0.,1.));
#522=DIRECTION('',(1.,0.,0.));
#523=DIRECTION('',(0.,0.,1.));
#524=DIRECTION('',(1.,0.,0.));
#525=DIRECTION('',(0.,0.,1.));
#526=DIRECTION('',(1.,0.,0.));
#527=DIRECTION('',(0.,0.,1.));
#528=DIRECTION('',(1.,0.,0.));
#529=DIRECTION('',(0.,0.,1.));
#530=DIRECTION('',(1.,0.,0.));
#531=DIRECTION('',(0.,0.,1.));
#532=DIRECTION('',(1.,0.,0.));
#533=CARTESIAN_POINT('',(0.,0.,0.));
#534=CARTESIAN_POINT('',(0.,0.,-43.4758108465829));
#535=CARTESIAN_POINT('',(0.,0.,-62.3));
#536=CARTESIAN_POINT('',(2.65,0.,-62.3));
#537=CARTESIAN_POINT('',(0.,0.,-60.4414170785948));
#538=CARTESIAN_POINT('',(8.62510101610338,0.,-60.4414170785948));
#539=CARTESIAN_POINT('',(0.,0.,-62.3));
#540=CARTESIAN_POINT('',(0.,0.,-10.));
#541=CARTESIAN_POINT('',(4.5,0.,-10.));
#542=CARTESIAN_POINT('',(0.,0.,-10.));
#543=CARTESIAN_POINT('',(0.,0.,-0.5));
#544=CARTESIAN_POINT('',(4.5,0.,-0.5));
#545=CARTESIAN_POINT('',(0.,0.,-0.5));
#546=CARTESIAN_POINT('',(0.,0.,0.));
#547=CARTESIAN_POINT('',(5.,0.,0.));
#548=CARTESIAN_POINT('',(5.,0.,5.42101086242752E-17));
#549=CARTESIAN_POINT('',(0.,0.,0.));
#550=CARTESIAN_POINT('',(5.6,0.,0.));
#551=CARTESIAN_POINT('',(0.,0.,-10.));
#552=CARTESIAN_POINT('',(0.,0.,-1.20000000000001));
#553=CARTESIAN_POINT('',(5.6,0.,-1.20000000000001));
#554=CARTESIAN_POINT('',(5.6,0.,-1.20000000000001));
#555=CARTESIAN_POINT('',(0.,0.,-1.20000000000001));
#556=CARTESIAN_POINT('',(5.72250000000001,0.,-1.20000000000001));
#557=CARTESIAN_POINT('',(0.,0.,-1.20000000000001));
#558=CARTESIAN_POINT('',(0.,0.,-2.056));
#559=CARTESIAN_POINT('',(6.5785,0.,-2.056));
#560=CARTESIAN_POINT('',(0.,0.,-10.));
#561=CARTESIAN_POINT('',(0.,0.,-8.5));
#562=CARTESIAN_POINT('',(6.5785,0.,-8.5));
#563=CARTESIAN_POINT('',(6.5785,0.,-8.5));
#564=CARTESIAN_POINT('',(0.,0.,-8.5));
#565=CARTESIAN_POINT('',(6.91991698471612,0.,-8.5));
#566=CARTESIAN_POINT('',(0.,0.,-8.9));
#567=CARTESIAN_POINT('',(0.,0.,-8.76319194266974));
#568=CARTESIAN_POINT('',(7.29579403303048,0.,-8.76319194266974));
#569=CARTESIAN_POINT('',(0.,0.,-8.76319194266974));
#570=CARTESIAN_POINT('',(0.,0.,-9.03680805733027));
#571=CARTESIAN_POINT('',(7.39538215438249,0.,-9.03680805733027));
#572=CARTESIAN_POINT('',(0.,0.,-8.9));
#573=CARTESIAN_POINT('',(0.,0.,-9.3));
#574=CARTESIAN_POINT('',(7.77125920269685,0.,-9.3));
#575=CARTESIAN_POINT('',(7.77125920269685,0.,-9.3));
#576=CARTESIAN_POINT('',(0.,0.,-9.3));
#577=CARTESIAN_POINT('',(8.5,0.,-9.3));
#578=CARTESIAN_POINT('',(0.,0.,-9.7));
#579=CARTESIAN_POINT('',(0.,0.,-9.7));
#580=CARTESIAN_POINT('',(8.9,0.,-9.7));
#581=CARTESIAN_POINT('',(0.,0.,-10.));
#582=CARTESIAN_POINT('',(0.,0.,-11.3));
#583=CARTESIAN_POINT('',(8.9,0.,-11.3));
#584=CARTESIAN_POINT('',(8.9,0.,-11.3));
#585=CARTESIAN_POINT('',(0.,0.,-11.3));
#586=CARTESIAN_POINT('',(8.7,0.,-11.3));
#587=CARTESIAN_POINT('',(0.,0.,-10.));
#588=CARTESIAN_POINT('',(0.,0.,-17.3));
#589=CARTESIAN_POINT('',(8.7,0.,-17.3));
#590=CARTESIAN_POINT('',(8.7,0.,-17.3));
#591=CARTESIAN_POINT('',(0.,0.,-17.3));
#592=CARTESIAN_POINT('',(8.9,0.,-17.3));
#593=CARTESIAN_POINT('',(0.,0.,-10.));
#594=CARTESIAN_POINT('',(0.,0.,-59.9949537177809));
#595=CARTESIAN_POINT('',(8.9,0.,-59.9949537177809));
#596=CARTESIAN_POINT('',(0.,0.,-59.9949537177809));
#597=MECHANICAL_DESIGN_GEOMETRIC_PRESENTATION_REPRESENTATION('',(#230,#231,
#232,#233,#234,#235,#236,#237,#238,#239,#240,#241,#242,#243,#244,#245,#246,
#247,#248,#249,#250),#598);
#598=(
GEOMETRIC_REPRESENTATION_CONTEXT(3)
GLOBAL_UNCERTAINTY_ASSIGNED_CONTEXT((#599))
GLOBAL_UNIT_ASSIGNED_CONTEXT((#602,#601,#600))
REPRESENTATION_CONTEXT('197584 UO-1/4','TOP_LEVEL_ASSEMBLY_PART')
);
#599=UNCERTAINTY_MEASURE_WITH_UNIT(LENGTH_MEASURE(0.005),#602,
'DISTANCE_ACCURACY_VALUE','Maximum Tolerance applied to model');
#600=(
NAMED_UNIT(*)
SI_UNIT($,.STERADIAN.)
SOLID_ANGLE_UNIT()
);
#601=(
NAMED_UNIT(*)
PLANE_ANGLE_UNIT()
SI_UNIT($,.RADIAN.)
);
#602=(
LENGTH_UNIT()
NAMED_UNIT(*)
SI_UNIT(.MILLI.,.METRE.)
);
#603=PRODUCT_DEFINITION_SHAPE('','',#604);
#604=PRODUCT_DEFINITION('','',#606,#605);
#605=PRODUCT_DEFINITION_CONTEXT('',#612,'design');
#606=PRODUCT_DEFINITION_FORMATION_WITH_SPECIFIED_SOURCE('','',#608,
 .NOT_KNOWN.);
#607=PRODUCT_RELATED_PRODUCT_CATEGORY('','',(#608));
#608=PRODUCT('197584 UO-1/4','197584 UO-1/4','197584 UO-1/4',(#610));
#609=PRODUCT_CATEGORY('','');
#610=PRODUCT_CONTEXT('',#612,'mechanical');
#611=APPLICATION_PROTOCOL_DEFINITION('international standard',
'automotive_design',2010,#612);
#612=APPLICATION_CONTEXT(
'core data for automotive mechanical design processes');
ENDSEC;
END-ISO-10303-21;
