ISO-10303-21;
HEADER;
/* Generated by software containing ST-Developer
 * from STEP Tools, Inc. (www.steptools.com) 
 */
/* OPTION: using custom renumber hook */

FILE_DESCRIPTION(
/* description */ ('STEP AP214'),
/* implementation_level */ '2;1');

FILE_NAME(
/* name */ '197588_PUN-4X075-S-1-BL',
/* time_stamp */ '2024-09-13T20:38:26+02:00',
/* author */ ('License CC BY-ND 4.0'),
/* organization */ ('CADENAS'),
/* preprocessor_version */ 'ST-DEVELOPER v19.3',
/* originating_system */ 'PARTsolutions',
/* authorisation */ '  ');

FILE_SCHEMA (('AUTOMOTIVE_DESIGN {1 0 10303 214 3 1 1}'));
ENDSEC;

DATA;
#10=PROPERTY_DEFINITION_REPRESENTATION(#14,#12);
#11=PROPERTY_DEFINITION_REPRESENTATION(#15,#13);
#12=REPRESENTATION('',(#16),#441);
#13=REPRESENTATION('',(#17),#441);
#14=PROPERTY_DEFINITION('pmi validation property','',#446);
#15=PROPERTY_DEFINITION('pmi validation property','',#446);
#16=VALUE_REPRESENTATION_ITEM('number of annotations',COUNT_MEASURE(0.));
#17=VALUE_REPRESENTATION_ITEM('number of views',COUNT_MEASURE(0.));
#18=SHAPE_REPRESENTATION_RELATIONSHIP('','',#221,#19);
#19=ADVANCED_BREP_SHAPE_REPRESENTATION('',(#219),#441);
#20=PLANE('',#240);
#21=PLANE('',#250);
#22=CYLINDRICAL_SURFACE('',#227,8.5);
#23=CYLINDRICAL_SURFACE('',#232,12.5);
#24=CYLINDRICAL_SURFACE('',#235,1.3);
#25=CYLINDRICAL_SURFACE('',#238,2.);
#26=CYLINDRICAL_SURFACE('',#245,1.3);
#27=CYLINDRICAL_SURFACE('',#248,2.);
#28=B_SPLINE_CURVE_WITH_KNOTS('',3,(#322,#323,#324,#325,#326,#327,#328,
#329,#330,#331,#332,#333,#334,#335),.UNSPECIFIED.,.F.,.F.,(4,1,1,1,1,1,
1,1,1,1,1,4),(-0.000128454502202675,0.00116212763215815,0.00245270976651898,
0.00374329190087981,0.00503387403524064,0.00567916510242106,0.00632445616960147,
0.00696974723678189,0.0076150383039623,0.00826032937114272,0.00890562043832313,
0.010196202572684),.UNSPECIFIED.);
#29=B_SPLINE_CURVE_WITH_KNOTS('',3,(#347,#348,#349,#350,#351,#352,#353,
#354,#355,#356,#357,#358,#359,#360),.UNSPECIFIED.,.F.,.F.,(4,1,1,1,1,1,
1,1,1,1,1,4),(-0.000128454502202683,0.00116212763215537,0.00245270976651342,
0.00374329190087148,0.00503387403522953,0.00567916510240856,0.00632445616958758,
0.00696974723676661,0.00761503830394564,0.00826032937112466,0.00890562043830369,
0.0101962025726617),.UNSPECIFIED.);
#30=B_SPLINE_CURVE_WITH_KNOTS('',3,(#362,#363,#364,#365,#366),
 .UNSPECIFIED.,.F.,.F.,(4,1,4),(0.000216294063050611,0.00341433803883461,
0.00661238201461862),.UNSPECIFIED.);
#31=B_SPLINE_CURVE_WITH_KNOTS('',3,(#367,#368,#369,#370,#371),
 .UNSPECIFIED.,.F.,.F.,(4,1,4),(0.0002162940630506,0.00341433803883462,
0.00661238201461863),.UNSPECIFIED.);
#32=B_SPLINE_CURVE_WITH_KNOTS('',3,(#385,#386,#387,#388,#389,#390,#391,
#392,#393,#394,#395,#396,#397,#398,#399,#400,#401,#402,#403),
 .UNSPECIFIED.,.T.,.F.,(1,1,1,1,1,1,1,1,1,1,1,1,1,1,1,1,1,1,1,1,1,1,1),
(-0.00198787134648649,-0.00132524756432433,-0.000662623782162163,0.,0.000662623782162162,
0.00132524756432432,0.00198787134648649,0.00265049512864865,0.00331311891081081,
0.00397574269297297,0.00463836647513514,0.0053009902572973,0.00596361403945946,
0.00662623782162162,0.00728886160378378,0.00795148538594595,0.00861410916810811,
0.00927673295027027,0.00993935673243243,0.0106019805145946,0.0112646042967568,
0.0119272280789189,0.0125898518610811),.UNSPECIFIED.);
#33=B_SPLINE_CURVE_WITH_KNOTS('',3,(#419,#420,#421,#422,#423,#424,#425,
#426,#427,#428,#429,#430,#431,#432,#433,#434,#435,#436,#437),
 .UNSPECIFIED.,.T.,.F.,(1,1,1,1,1,1,1,1,1,1,1,1,1,1,1,1,1,1,1,1,1,1,1),
(-0.00199791826469016,-0.00133194550979344,-0.000665972754896722,0.,0.000665972754896721,
0.00133194550979344,0.00199791826469016,0.00266389101958689,0.00332986377448361,
0.00399583652938033,0.00466180928427705,0.00532778203917377,0.00599375479407049,
0.00665972754896721,0.00732570030386394,0.00799167305876066,0.00865764581365738,
0.0093236185685541,0.00998959132345082,0.0106555640783475,0.0113215368332443,
0.011987509588141,0.0126534823430377),.UNSPECIFIED.);
#34=ORIENTED_EDGE('',*,*,#74,.T.);
#35=ORIENTED_EDGE('',*,*,#75,.F.);
#36=ORIENTED_EDGE('',*,*,#76,.F.);
#37=ORIENTED_EDGE('',*,*,#77,.T.);
#38=ORIENTED_EDGE('',*,*,#78,.T.);
#39=ORIENTED_EDGE('',*,*,#74,.F.);
#40=ORIENTED_EDGE('',*,*,#79,.T.);
#41=ORIENTED_EDGE('',*,*,#80,.T.);
#42=ORIENTED_EDGE('',*,*,#81,.F.);
#43=ORIENTED_EDGE('',*,*,#78,.F.);
#44=ORIENTED_EDGE('',*,*,#82,.F.);
#45=ORIENTED_EDGE('',*,*,#75,.T.);
#46=ORIENTED_EDGE('',*,*,#83,.F.);
#47=ORIENTED_EDGE('',*,*,#80,.F.);
#48=ORIENTED_EDGE('',*,*,#84,.F.);
#49=ORIENTED_EDGE('',*,*,#77,.F.);
#50=ORIENTED_EDGE('',*,*,#76,.T.);
#51=ORIENTED_EDGE('',*,*,#82,.T.);
#52=ORIENTED_EDGE('',*,*,#85,.T.);
#53=ORIENTED_EDGE('',*,*,#86,.T.);
#54=ORIENTED_EDGE('',*,*,#87,.F.);
#55=ORIENTED_EDGE('',*,*,#84,.T.);
#56=ORIENTED_EDGE('',*,*,#85,.F.);
#57=ORIENTED_EDGE('',*,*,#87,.T.);
#58=ORIENTED_EDGE('',*,*,#88,.T.);
#59=ORIENTED_EDGE('',*,*,#88,.F.);
#60=ORIENTED_EDGE('',*,*,#86,.F.);
#61=ORIENTED_EDGE('',*,*,#89,.F.);
#62=ORIENTED_EDGE('',*,*,#79,.F.);
#63=ORIENTED_EDGE('',*,*,#81,.T.);
#64=ORIENTED_EDGE('',*,*,#83,.T.);
#65=ORIENTED_EDGE('',*,*,#90,.T.);
#66=ORIENTED_EDGE('',*,*,#91,.T.);
#67=ORIENTED_EDGE('',*,*,#92,.F.);
#68=ORIENTED_EDGE('',*,*,#89,.T.);
#69=ORIENTED_EDGE('',*,*,#90,.F.);
#70=ORIENTED_EDGE('',*,*,#92,.T.);
#71=ORIENTED_EDGE('',*,*,#93,.T.);
#72=ORIENTED_EDGE('',*,*,#93,.F.);
#73=ORIENTED_EDGE('',*,*,#91,.F.);
#74=EDGE_CURVE('',#94,#94,#112,.T.);
#75=EDGE_CURVE('',#95,#96,#113,.T.);
#76=EDGE_CURVE('',#97,#95,#28,.T.);
#77=EDGE_CURVE('',#97,#96,#114,.T.);
#78=EDGE_CURVE('',#98,#98,#115,.T.);
#79=EDGE_CURVE('',#99,#100,#116,.T.);
#80=EDGE_CURVE('',#100,#101,#117,.T.);
#81=EDGE_CURVE('',#99,#101,#29,.T.);
#82=EDGE_CURVE('',#95,#96,#30,.T.);
#83=EDGE_CURVE('',#101,#100,#31,.T.);
#84=EDGE_CURVE('',#102,#102,#118,.T.);
#85=EDGE_CURVE('',#103,#103,#119,.T.);
#86=EDGE_CURVE('',#104,#104,#120,.T.);
#87=EDGE_CURVE('',#105,#105,#121,.T.);
#88=EDGE_CURVE('',#106,#106,#32,.T.);
#89=EDGE_CURVE('',#107,#107,#122,.T.);
#90=EDGE_CURVE('',#108,#108,#123,.T.);
#91=EDGE_CURVE('',#109,#109,#124,.T.);
#92=EDGE_CURVE('',#110,#110,#125,.T.);
#93=EDGE_CURVE('',#111,#111,#33,.T.);
#94=VERTEX_POINT('',#318);
#95=VERTEX_POINT('',#320);
#96=VERTEX_POINT('',#321);
#97=VERTEX_POINT('',#336);
#98=VERTEX_POINT('',#340);
#99=VERTEX_POINT('',#343);
#100=VERTEX_POINT('',#344);
#101=VERTEX_POINT('',#346);
#102=VERTEX_POINT('',#374);
#103=VERTEX_POINT('',#377);
#104=VERTEX_POINT('',#379);
#105=VERTEX_POINT('',#382);
#106=VERTEX_POINT('',#404);
#107=VERTEX_POINT('',#408);
#108=VERTEX_POINT('',#411);
#109=VERTEX_POINT('',#413);
#110=VERTEX_POINT('',#416);
#111=VERTEX_POINT('',#438);
#112=CIRCLE('',#224,8.5);
#113=CIRCLE('',#225,12.5);
#114=CIRCLE('',#226,2.);
#115=CIRCLE('',#228,8.5);
#116=CIRCLE('',#230,2.);
#117=CIRCLE('',#231,12.5);
#118=CIRCLE('',#234,2.);
#119=CIRCLE('',#236,1.3);
#120=CIRCLE('',#237,1.3);
#121=CIRCLE('',#239,2.);
#122=CIRCLE('',#244,2.);
#123=CIRCLE('',#246,1.3);
#124=CIRCLE('',#247,1.3);
#125=CIRCLE('',#249,2.);
#126=EDGE_LOOP('',(#34));
#127=EDGE_LOOP('',(#35,#36,#37));
#128=EDGE_LOOP('',(#38));
#129=EDGE_LOOP('',(#39));
#130=EDGE_LOOP('',(#40,#41,#42));
#131=EDGE_LOOP('',(#43));
#132=EDGE_LOOP('',(#44,#45));
#133=EDGE_LOOP('',(#46,#47));
#134=EDGE_LOOP('',(#48));
#135=EDGE_LOOP('',(#49,#50,#51));
#136=EDGE_LOOP('',(#52));
#137=EDGE_LOOP('',(#53));
#138=EDGE_LOOP('',(#54));
#139=EDGE_LOOP('',(#55));
#140=EDGE_LOOP('',(#56));
#141=EDGE_LOOP('',(#57));
#142=EDGE_LOOP('',(#58));
#143=EDGE_LOOP('',(#59));
#144=EDGE_LOOP('',(#60));
#145=EDGE_LOOP('',(#61));
#146=EDGE_LOOP('',(#62,#63,#64));
#147=EDGE_LOOP('',(#65));
#148=EDGE_LOOP('',(#66));
#149=EDGE_LOOP('',(#67));
#150=EDGE_LOOP('',(#68));
#151=EDGE_LOOP('',(#69));
#152=EDGE_LOOP('',(#70));
#153=EDGE_LOOP('',(#71));
#154=EDGE_LOOP('',(#72));
#155=EDGE_LOOP('',(#73));
#156=FACE_BOUND('',#126,.T.);
#157=FACE_BOUND('',#127,.T.);
#158=FACE_BOUND('',#128,.T.);
#159=FACE_BOUND('',#129,.T.);
#160=FACE_BOUND('',#130,.T.);
#161=FACE_BOUND('',#131,.T.);
#162=FACE_BOUND('',#132,.T.);
#163=FACE_BOUND('',#133,.T.);
#164=FACE_BOUND('',#134,.T.);
#165=FACE_BOUND('',#135,.T.);
#166=FACE_BOUND('',#136,.T.);
#167=FACE_BOUND('',#137,.T.);
#168=FACE_BOUND('',#138,.T.);
#169=FACE_BOUND('',#139,.T.);
#170=FACE_BOUND('',#140,.T.);
#171=FACE_BOUND('',#141,.T.);
#172=FACE_BOUND('',#142,.T.);
#173=FACE_BOUND('',#143,.T.);
#174=FACE_BOUND('',#144,.T.);
#175=FACE_BOUND('',#145,.T.);
#176=FACE_BOUND('',#146,.T.);
#177=FACE_BOUND('',#147,.T.);
#178=FACE_BOUND('',#148,.T.);
#179=FACE_BOUND('',#149,.T.);
#180=FACE_BOUND('',#150,.T.);
#181=FACE_BOUND('',#151,.T.);
#182=FACE_BOUND('',#152,.T.);
#183=FACE_BOUND('',#153,.T.);
#184=FACE_BOUND('',#154,.T.);
#185=FACE_BOUND('',#155,.T.);
#186=TOROIDAL_SURFACE('',#223,10.5,2.);
#187=TOROIDAL_SURFACE('',#229,10.5,1.99999999999997);
#188=TOROIDAL_SURFACE('',#233,8.25,2.);
#189=TOROIDAL_SURFACE('',#241,10.5,2.);
#190=TOROIDAL_SURFACE('',#242,8.25,1.3);
#191=TOROIDAL_SURFACE('',#243,8.25,2.);
#192=TOROIDAL_SURFACE('',#251,10.5,1.99999999999997);
#193=TOROIDAL_SURFACE('',#252,8.25,1.3);
#194=ADVANCED_FACE('',(#156,#157),#186,.T.);
#195=ADVANCED_FACE('',(#158,#159),#22,.F.);
#196=ADVANCED_FACE('',(#160,#161),#187,.T.);
#197=ADVANCED_FACE('',(#162,#163),#23,.T.);
#198=ADVANCED_FACE('',(#164,#165),#188,.T.);
#199=ADVANCED_FACE('',(#166,#167),#24,.F.);
#200=ADVANCED_FACE('',(#168,#169),#25,.T.);
#201=ADVANCED_FACE('',(#170,#171),#20,.T.);
#202=ADVANCED_FACE('',(#172),#189,.T.);
#203=ADVANCED_FACE('',(#173,#174),#190,.F.);
#204=ADVANCED_FACE('',(#175,#176),#191,.T.);
#205=ADVANCED_FACE('',(#177,#178),#26,.F.);
#206=ADVANCED_FACE('',(#179,#180),#27,.T.);
#207=ADVANCED_FACE('',(#181,#182),#21,.T.);
#208=ADVANCED_FACE('',(#183),#192,.T.);
#209=ADVANCED_FACE('',(#184,#185),#193,.F.);
#210=CLOSED_SHELL('',(#194,#195,#196,#197,#198,#199,#200,#201,#202,#203,
#204,#205,#206,#207,#208,#209));
#211=STYLED_ITEM('',(#212),#219);
#212=PRESENTATION_STYLE_ASSIGNMENT((#213));
#213=SURFACE_STYLE_USAGE(.BOTH.,#214);
#214=SURFACE_SIDE_STYLE('',(#215));
#215=SURFACE_STYLE_FILL_AREA(#216);
#216=FILL_AREA_STYLE('',(#217));
#217=FILL_AREA_STYLE_COLOUR('',#218);
#218=COLOUR_RGB('',0.,0.569999992847443,0.860000014305115);
#219=MANIFOLD_SOLID_BREP('197588 PUN-4X0,75-S-1-BL---(284)',#210);
#220=SHAPE_DEFINITION_REPRESENTATION(#446,#221);
#221=SHAPE_REPRESENTATION('197588 PUN-4X0,75-S-1-BL---(284)',(#222),#441);
#222=AXIS2_PLACEMENT_3D('',#315,#253,#254);
#223=AXIS2_PLACEMENT_3D('',#316,#255,#256);
#224=AXIS2_PLACEMENT_3D('',#317,#257,#258);
#225=AXIS2_PLACEMENT_3D('',#319,#259,#260);
#226=AXIS2_PLACEMENT_3D('',#337,#261,#262);
#227=AXIS2_PLACEMENT_3D('',#338,#263,#264);
#228=AXIS2_PLACEMENT_3D('',#339,#265,#266);
#229=AXIS2_PLACEMENT_3D('',#341,#267,#268);
#230=AXIS2_PLACEMENT_3D('',#342,#269,#270);
#231=AXIS2_PLACEMENT_3D('',#345,#271,#272);
#232=AXIS2_PLACEMENT_3D('',#361,#273,#274);
#233=AXIS2_PLACEMENT_3D('',#372,#275,#276);
#234=AXIS2_PLACEMENT_3D('',#373,#277,#278);
#235=AXIS2_PLACEMENT_3D('',#375,#279,#280);
#236=AXIS2_PLACEMENT_3D('',#376,#281,#282);
#237=AXIS2_PLACEMENT_3D('',#378,#283,#284);
#238=AXIS2_PLACEMENT_3D('',#380,#285,#286);
#239=AXIS2_PLACEMENT_3D('',#381,#287,#288);
#240=AXIS2_PLACEMENT_3D('',#383,#289,#290);
#241=AXIS2_PLACEMENT_3D('',#384,#291,#292);
#242=AXIS2_PLACEMENT_3D('',#405,#293,#294);
#243=AXIS2_PLACEMENT_3D('',#406,#295,#296);
#244=AXIS2_PLACEMENT_3D('',#407,#297,#298);
#245=AXIS2_PLACEMENT_3D('',#409,#299,#300);
#246=AXIS2_PLACEMENT_3D('',#410,#301,#302);
#247=AXIS2_PLACEMENT_3D('',#412,#303,#304);
#248=AXIS2_PLACEMENT_3D('',#414,#305,#306);
#249=AXIS2_PLACEMENT_3D('',#415,#307,#308);
#250=AXIS2_PLACEMENT_3D('',#417,#309,#310);
#251=AXIS2_PLACEMENT_3D('',#418,#311,#312);
#252=AXIS2_PLACEMENT_3D('',#439,#313,#314);
#253=DIRECTION('',(0.,0.,1.));
#254=DIRECTION('',(1.,0.,0.));
#255=DIRECTION('',(0.,0.,-1.));
#256=DIRECTION('',(-1.,0.,0.));
#257=DIRECTION('',(0.,0.,-1.));
#258=DIRECTION('',(-1.,0.,0.));
#259=DIRECTION('',(0.,0.,-1.));
#260=DIRECTION('',(-1.,0.,0.));
#261=DIRECTION('',(0.,1.,0.));
#262=DIRECTION('',(1.,0.,0.));
#263=DIRECTION('',(0.,0.,-1.));
#264=DIRECTION('',(-1.,0.,0.));
#265=DIRECTION('',(0.,0.,-1.));
#266=DIRECTION('',(-1.,0.,0.));
#267=DIRECTION('',(0.,0.,-1.));
#268=DIRECTION('',(-1.,0.,0.));
#269=DIRECTION('',(0.,1.,0.));
#270=DIRECTION('',(1.,0.,0.));
#271=DIRECTION('',(0.,0.,-1.));
#272=DIRECTION('',(-1.,0.,0.));
#273=DIRECTION('',(0.,0.,-1.));
#274=DIRECTION('',(-1.,0.,0.));
#275=DIRECTION('',(1.,0.,0.));
#276=DIRECTION('',(0.,0.,-1.));
#277=DIRECTION('',(0.,0.,1.));
#278=DIRECTION('',(-1.,0.,0.));
#279=DIRECTION('',(0.,0.,-1.));
#280=DIRECTION('',(-1.,0.,0.));
#281=DIRECTION('',(0.,0.,1.));
#282=DIRECTION('',(-1.,0.,0.));
#283=DIRECTION('',(0.,6.12323399573677E-17,-1.));
#284=DIRECTION('',(1.,0.,0.));
#285=DIRECTION('',(0.,0.,-1.));
#286=DIRECTION('',(-1.,0.,0.));
#287=DIRECTION('',(0.,0.,1.));
#288=DIRECTION('',(-1.,0.,0.));
#289=DIRECTION('',(0.,0.,1.));
#290=DIRECTION('',(1.,0.,0.));
#291=DIRECTION('',(0.,0.,-1.));
#292=DIRECTION('',(-1.,0.,0.));
#293=DIRECTION('',(1.,0.,0.));
#294=DIRECTION('',(0.,0.,-1.));
#295=DIRECTION('',(-1.,0.,0.));
#296=DIRECTION('',(0.,0.,1.));
#297=DIRECTION('',(0.,0.,-1.));
#298=DIRECTION('',(-1.,0.,0.));
#299=DIRECTION('',(0.,0.,1.));
#300=DIRECTION('',(1.,0.,0.));
#301=DIRECTION('',(0.,0.,-1.));
#302=DIRECTION('',(-1.,0.,0.));
#303=DIRECTION('',(0.,6.12323399573677E-17,1.));
#304=DIRECTION('',(1.,0.,0.));
#305=DIRECTION('',(0.,0.,1.));
#306=DIRECTION('',(1.,0.,0.));
#307=DIRECTION('',(0.,0.,-1.));
#308=DIRECTION('',(-1.,0.,0.));
#309=DIRECTION('',(0.,0.,-1.));
#310=DIRECTION('',(-1.,0.,0.));
#311=DIRECTION('',(0.,0.,-1.));
#312=DIRECTION('',(-1.,0.,0.));
#313=DIRECTION('',(-1.,0.,0.));
#314=DIRECTION('',(0.,0.,1.));
#315=CARTESIAN_POINT('',(0.,0.,0.));
#316=CARTESIAN_POINT('',(0.,12.5,-2.));
#317=CARTESIAN_POINT('',(0.,12.5,-2.));
#318=CARTESIAN_POINT('',(-8.5,12.5,-2.));
#319=CARTESIAN_POINT('',(0.,12.5,-2.00000000000003));
#320=CARTESIAN_POINT('',(10.9731861198738,6.51341613450476,-2.00000000000003));
#321=CARTESIAN_POINT('',(12.5,12.5,-2.));
#322=CARTESIAN_POINT('',(8.92736332235516,12.5,-0.764356896136193));
#323=CARTESIAN_POINT('',(8.92772944930025,12.0697994826048,-0.763890916387891));
#324=CARTESIAN_POINT('',(8.89518517750077,11.2091257205841,-0.724187173979094));
#325=CARTESIAN_POINT('',(8.76747648943079,9.93644968655082,-0.556271123738865));
#326=CARTESIAN_POINT('',(8.60353562444425,8.67824643373612,-0.318940675483154));
#327=CARTESIAN_POINT('',(8.49512481705605,7.62896188181547,-0.111766790471238));
#328=CARTESIAN_POINT('',(8.49940077054446,6.77616827009609,-0.00359651518802395));
#329=CARTESIAN_POINT('',(8.59108497709229,6.11943049692482,0.0130341926669246));
#330=CARTESIAN_POINT('',(8.86333816804374,5.50196461187632,-0.122434401882626));
#331=CARTESIAN_POINT('',(9.36977109450505,5.20202945259201,-0.501714035881755));
#332=CARTESIAN_POINT('',(9.87657065701758,5.30153273877458,-0.939857106223635));
#333=CARTESIAN_POINT('',(10.4544668957711,5.69970597725589,-1.47509314474752));
#334=CARTESIAN_POINT('',(10.7868058965058,6.1717880998807,-1.80817360127383));
#335=CARTESIAN_POINT('',(10.9731861198738,6.51341613450476,-2.00000000000003));
#336=CARTESIAN_POINT('',(8.92736332235516,12.5,-0.764356896136193));
#337=CARTESIAN_POINT('',(10.5,12.5,-2.));
#338=CARTESIAN_POINT('',(0.,12.5,-184.));
#339=CARTESIAN_POINT('',(0.,12.5,-182.));
#340=CARTESIAN_POINT('',(-8.5,12.5,-182.));
#341=CARTESIAN_POINT('',(0.,12.5,-182.));
#342=CARTESIAN_POINT('',(-10.5,12.5,-182.));
#343=CARTESIAN_POINT('',(-8.92736332235515,12.5,-183.235643103864));
#344=CARTESIAN_POINT('',(-12.5,12.5,-182.));
#345=CARTESIAN_POINT('',(0.,12.5,-182.));
#346=CARTESIAN_POINT('',(-10.9731861198738,6.51341613450472,-182.));
#347=CARTESIAN_POINT('',(-8.92736332235515,12.5,-183.235643103864));
#348=CARTESIAN_POINT('',(-8.92772944931147,12.0697994826058,-183.236109083626));
#349=CARTESIAN_POINT('',(-8.89518517749578,11.2091257205868,-183.275812826014));
#350=CARTESIAN_POINT('',(-8.76747648943281,9.9364496865561,-183.443728876262));
#351=CARTESIAN_POINT('',(-8.60353562444489,8.67824643374419,-183.681059324515));
#352=CARTESIAN_POINT('',(-8.49512481705697,7.62896188182536,-183.888233209527));
#353=CARTESIAN_POINT('',(-8.4994007705437,6.77616827010965,-183.996403484811));
#354=CARTESIAN_POINT('',(-8.59108497708901,6.11943049693819,-184.013034192668));
#355=CARTESIAN_POINT('',(-8.86333816803582,5.50196461188615,-183.877565598123));
#356=CARTESIAN_POINT('',(-9.36977109449546,5.20202945259291,-183.498285964126));
#357=CARTESIAN_POINT('',(-9.87657065701027,5.30153273877102,-183.060142893783));
#358=CARTESIAN_POINT('',(-10.454466895766,5.69970597725033,-182.524906855257));
#359=CARTESIAN_POINT('',(-10.7868058965021,6.17178809987395,-182.19182639873));
#360=CARTESIAN_POINT('',(-10.9731861198738,6.51341613450473,-182.));
#361=CARTESIAN_POINT('',(0.,12.5,-184.));
#362=CARTESIAN_POINT('',(10.9731861198739,6.51341613450473,-2.00000000000006));
#363=CARTESIAN_POINT('',(11.4349824855669,7.35987173991896,-2.47529041533994));
#364=CARTESIAN_POINT('',(12.2516588906421,9.3657470332862,-2.89201343290735));
#365=CARTESIAN_POINT('',(12.5,11.5098008912023,-2.39483370431827));
#366=CARTESIAN_POINT('',(12.5,12.5,-2.));
#367=CARTESIAN_POINT('',(-10.9731861198738,6.51341613450471,-182.));
#368=CARTESIAN_POINT('',(-11.4349824855669,7.35987173991893,-181.52470958466));
#369=CARTESIAN_POINT('',(-12.2516588906421,9.36574703328629,-181.107986567092));
#370=CARTESIAN_POINT('',(-12.5,11.5098008912021,-181.605166295682));
#371=CARTESIAN_POINT('',(-12.5,12.5,-182.));
#372=CARTESIAN_POINT('',(10.5,12.5,6.25));
#373=CARTESIAN_POINT('',(10.5,4.25,6.25));
#374=CARTESIAN_POINT('',(8.5,4.25,6.25));
#375=CARTESIAN_POINT('',(10.5,4.25,50.));
#376=CARTESIAN_POINT('',(10.5,4.25,50.));
#377=CARTESIAN_POINT('',(9.2,4.25,50.));
#378=CARTESIAN_POINT('',(10.5,4.25,6.25));
#379=CARTESIAN_POINT('',(11.8,4.25,6.25));
#380=CARTESIAN_POINT('',(10.5,4.25,50.));
#381=CARTESIAN_POINT('',(10.5,4.25,50.));
#382=CARTESIAN_POINT('',(8.5,4.25,50.));
#383=CARTESIAN_POINT('',(10.5,4.25,50.));
#384=CARTESIAN_POINT('',(0.,12.5,-2.));
#385=CARTESIAN_POINT('',(11.1428574124497,9.68819444582457,-0.217858379636946));
#386=CARTESIAN_POINT('',(10.4857809145035,9.59526733206784,-0.00981752853271838));
#387=CARTESIAN_POINT('',(9.91521892953614,9.21863081045545,0.0056870716115357));
#388=CARTESIAN_POINT('',(9.53857378449426,8.66004064051493,-0.0132998335176657));
#389=CARTESIAN_POINT('',(9.30919351522596,8.03724425624953,-0.00718590121186976));
#390=CARTESIAN_POINT('',(9.19133997553401,7.3819362381957,0.00488563631952099));
#391=CARTESIAN_POINT('',(9.1928180416154,6.71682366378504,-0.0145695815752101));
#392=CARTESIAN_POINT('',(9.43805108155505,6.06064436647045,-0.182051036888629));
#393=CARTESIAN_POINT('',(10.0133463588518,5.91831671737576,-0.611948809939463));
#394=CARTESIAN_POINT('',(10.5033544928445,6.22152517482696,-0.981778395863671));
#395=CARTESIAN_POINT('',(10.9090448339142,6.66846147438402,-1.26191809521198));
#396=CARTESIAN_POINT('',(11.2493017940057,7.21313907355465,-1.44900327644222));
#397=CARTESIAN_POINT('',(11.5317496769666,7.81160808714069,-1.5245402441545));
#398=CARTESIAN_POINT('',(11.7502204593943,8.443601898387,-1.45075685983216));
#399=CARTESIAN_POINT('',(11.8435473408901,9.05432679724292,-1.15467376576077));
#400=CARTESIAN_POINT('',(11.651555129873,9.50402634865079,-0.656678424391726));
#401=CARTESIAN_POINT('',(11.1428574124497,9.68819444582457,-0.217858379636946));
#402=CARTESIAN_POINT('',(10.4857809145035,9.59526733206784,-0.00981752853271838));
#403=CARTESIAN_POINT('',(9.91521892953614,9.21863081045545,0.0056870716115357));
#404=CARTESIAN_POINT('',(10.5002,9.54798243075856,-0.041906903692714));
#405=CARTESIAN_POINT('',(10.5,12.5,6.25));
#406=CARTESIAN_POINT('',(-10.5,12.5,-190.25));
#407=CARTESIAN_POINT('',(-10.5,4.25,-190.25));
#408=CARTESIAN_POINT('',(-12.5,4.25,-190.25));
#409=CARTESIAN_POINT('',(-10.5,4.25,-234.));
#410=CARTESIAN_POINT('',(-10.5,4.25,-234.));
#411=CARTESIAN_POINT('',(-11.8,4.25,-234.));
#412=CARTESIAN_POINT('',(-10.5,4.25,-190.25));
#413=CARTESIAN_POINT('',(-9.2,4.25,-190.25));
#414=CARTESIAN_POINT('',(-10.5,4.25,-234.));
#415=CARTESIAN_POINT('',(-10.5,4.25,-234.));
#416=CARTESIAN_POINT('',(-12.5,4.25,-234.));
#417=CARTESIAN_POINT('',(-10.5,4.25,-234.));
#418=CARTESIAN_POINT('',(0.,12.5,-182.));
#419=CARTESIAN_POINT('',(-9.23626062565062,6.46431962232037,-183.956767332328));
#420=CARTESIAN_POINT('',(-9.63411214216332,5.92254198368564,-183.675046333238));
#421=CARTESIAN_POINT('',(-10.2078820062305,6.00608795493292,-183.239220840743));
#422=CARTESIAN_POINT('',(-10.6596615154014,6.37066871113213,-182.906072404178));
#423=CARTESIAN_POINT('',(-11.0396304376443,6.85805408773668,-182.658663113737));
#424=CARTESIAN_POINT('',(-11.3581435121444,7.4247298317499,-182.509302864517));
#425=CARTESIAN_POINT('',(-11.6201204626857,8.03989913951236,-182.482083242677));
#426=CARTESIAN_POINT('',(-11.8055474903477,8.67294304419291,-182.626600652506));
#427=CARTESIAN_POINT('',(-11.814233470129,9.24702022407596,-183.015307423916));
#428=CARTESIAN_POINT('',(-11.4964501265583,9.602008513177,-183.52350328577));
#429=CARTESIAN_POINT('',(-10.9084391103267,9.68806866894652,-183.887411028939));
#430=CARTESIAN_POINT('',(-10.2575839494948,9.4882865553694,-184.009619021779));
#431=CARTESIAN_POINT('',(-9.75666199839015,9.02841408301796,-183.996690912957));
#432=CARTESIAN_POINT('',(-9.44107755578279,8.4373394382602,-183.98621323423));
#433=CARTESIAN_POINT('',(-9.25288260409895,7.79998342905562,-183.998692319747));
#434=CARTESIAN_POINT('',(-9.17779473082281,7.14292910459444,-184.002921325145));
#435=CARTESIAN_POINT('',(-9.23626062565062,6.46431962232037,-183.956767332328));
#436=CARTESIAN_POINT('',(-9.63411214216332,5.92254198368564,-183.675046333238));
#437=CARTESIAN_POINT('',(-10.2078820062305,6.00608795493292,-183.239220840743));
#438=CARTESIAN_POINT('',(-9.66343186675573,6.02676258533264,-183.649362251004));
#439=CARTESIAN_POINT('',(-10.5,12.5,-190.25));
#440=MECHANICAL_DESIGN_GEOMETRIC_PRESENTATION_REPRESENTATION('',(#211),
#441);
#441=(
GEOMETRIC_REPRESENTATION_CONTEXT(3)
GLOBAL_UNCERTAINTY_ASSIGNED_CONTEXT((#442))
GLOBAL_UNIT_ASSIGNED_CONTEXT((#445,#444,#443))
REPRESENTATION_CONTEXT('197588 PUN-4X0,75-S-1-BL---(284)',
'TOP_LEVEL_ASSEMBLY_PART')
);
#442=UNCERTAINTY_MEASURE_WITH_UNIT(LENGTH_MEASURE(0.005),#445,
'DISTANCE_ACCURACY_VALUE','Maximum Tolerance applied to model');
#443=(
NAMED_UNIT(*)
SI_UNIT($,.STERADIAN.)
SOLID_ANGLE_UNIT()
);
#444=(
NAMED_UNIT(*)
PLANE_ANGLE_UNIT()
SI_UNIT($,.RADIAN.)
);
#445=(
LENGTH_UNIT()
NAMED_UNIT(*)
SI_UNIT(.MILLI.,.METRE.)
);
#446=PRODUCT_DEFINITION_SHAPE('','',#447);
#447=PRODUCT_DEFINITION('','',#449,#448);
#448=PRODUCT_DEFINITION_CONTEXT('',#455,'design');
#449=PRODUCT_DEFINITION_FORMATION_WITH_SPECIFIED_SOURCE('','',#451,
 .NOT_KNOWN.);
#450=PRODUCT_RELATED_PRODUCT_CATEGORY('','',(#451));
#451=PRODUCT('197588 PUN-4X0,75-S-1-BL---(284)',
'197588 PUN-4X0,75-S-1-BL---(284)','197588 PUN-4X0,75-S-1-BL---(284)',(#453));
#452=PRODUCT_CATEGORY('','');
#453=PRODUCT_CONTEXT('',#455,'mechanical');
#454=APPLICATION_PROTOCOL_DEFINITION('international standard',
'automotive_design',2010,#455);
#455=APPLICATION_CONTEXT(
'core data for automotive mechanical design processes');
ENDSEC;
END-ISO-10303-21;
