ISO-10303-21;
HEADER;
/* Generated by software containing ST-Developer
 * from STEP Tools, Inc. (www.steptools.com) 
 */
/* OPTION: using custom renumber hook */

FILE_DESCRIPTION(
/* description */ ('STEP AP214'),
/* implementation_level */ '2;1');

FILE_NAME(
/* name */ '197592_PUN-6X1-S-6-BL',
/* time_stamp */ '2024-09-13T20:44:49+02:00',
/* author */ ('License CC BY-ND 4.0'),
/* organization */ ('CADENAS'),
/* preprocessor_version */ 'ST-DEVELOPER v19.3',
/* originating_system */ 'PARTsolutions',
/* authorisation */ '  ');

FILE_SCHEMA (('AUTOMOTIVE_DESIGN {1 0 10303 214 3 1 1}'));
ENDSEC;

DATA;
#10=PROPERTY_DEFINITION_REPRESENTATION(#14,#12);
#11=PROPERTY_DEFINITION_REPRESENTATION(#15,#13);
#12=REPRESENTATION('',(#16),#447);
#13=REPRESENTATION('',(#17),#447);
#14=PROPERTY_DEFINITION('pmi validation property','',#452);
#15=PROPERTY_DEFINITION('pmi validation property','',#452);
#16=VALUE_REPRESENTATION_ITEM('number of annotations',COUNT_MEASURE(0.));
#17=VALUE_REPRESENTATION_ITEM('number of views',COUNT_MEASURE(0.));
#18=SHAPE_REPRESENTATION_RELATIONSHIP('','',#221,#19);
#19=ADVANCED_BREP_SHAPE_REPRESENTATION('',(#219),#447);
#20=PLANE('',#240);
#21=PLANE('',#250);
#22=CYLINDRICAL_SURFACE('',#227,14.);
#23=CYLINDRICAL_SURFACE('',#232,20.);
#24=CYLINDRICAL_SURFACE('',#235,2.);
#25=CYLINDRICAL_SURFACE('',#238,3.);
#26=CYLINDRICAL_SURFACE('',#245,2.);
#27=CYLINDRICAL_SURFACE('',#248,3.);
#28=B_SPLINE_CURVE_WITH_KNOTS('',3,(#322,#323,#324,#325,#326,#327,#328,
#329,#330,#331,#332,#333,#334,#335,#336),.UNSPECIFIED.,.F.,.F.,(4,1,1,1,
1,1,1,1,1,1,1,1,4),(-0.000161246816358204,0.00184773936473755,0.00385672554583331,
0.00586571172692907,0.00787469790802483,0.00887919099857271,0.00988368408912059,
0.0108881771796685,0.0118926702702163,0.0128971633607642,0.0139016564513121,
0.01490614954186,0.0159106426324079),.UNSPECIFIED.);
#29=B_SPLINE_CURVE_WITH_KNOTS('',3,(#348,#349,#350,#351,#352,#353,#354,
#355,#356,#357,#358,#359,#360,#361,#362),.UNSPECIFIED.,.F.,.F.,(4,1,1,1,
1,1,1,1,1,1,1,1,4),(-0.000161246816357909,0.00184773936476718,0.00385672554589227,
0.00586571172701736,0.00787469790814246,0.008879190998705,0.00988368408926754,
0.0108881771798301,0.0118926702703926,0.0128971633609552,0.0139016564515177,
0.0149061495420803,0.0159106426326428),.UNSPECIFIED.);
#30=B_SPLINE_CURVE_WITH_KNOTS('',3,(#364,#365,#366,#367,#368),
 .UNSPECIFIED.,.F.,.F.,(4,1,4),(0.000334476758167352,0.00519299472223181,
0.0100515126862963),.UNSPECIFIED.);
#31=B_SPLINE_CURVE_WITH_KNOTS('',3,(#369,#370,#371,#372,#373),
 .UNSPECIFIED.,.F.,.F.,(4,1,4),(0.00033447675816679,0.00519299472223101,
0.0100515126862952),.UNSPECIFIED.);
#32=B_SPLINE_CURVE_WITH_KNOTS('',3,(#387,#388,#389,#390,#391,#392,#393,
#394,#395,#396,#397,#398,#399,#400,#401,#402,#403,#404,#405,#406,#407),
 .UNSPECIFIED.,.T.,.F.,(1,1,1,1,1,1,1,1,1,1,1,1,1,1,1,1,1,1,1,1,1,1,1,1,
1),(-0.00310748473391385,-0.0020716564892759,-0.00103582824463795,0.,0.00103582824463795,
0.0020716564892759,0.00310748473391385,0.0041433129785518,0.00517914122318975,
0.00569705534550872,0.0062149694678277,0.00673288359014667,0.00725079771246565,
0.0082866259571036,0.00932245420174155,0.0103582824463795,0.0113941106910174,
0.0124299389356554,0.0134657671802933,0.0145015954249313,0.0155374236695692,
0.0165732519142072,0.0176090801588451,0.0186449084034831,0.019680736648121),
 .UNSPECIFIED.);
#33=B_SPLINE_CURVE_WITH_KNOTS('',3,(#423,#424,#425,#426,#427,#428,#429,
#430,#431,#432,#433,#434,#435,#436,#437,#438,#439,#440,#441,#442,#443),
 .UNSPECIFIED.,.T.,.F.,(1,1,1,1,1,1,1,1,1,1,1,1,1,1,1,1,1,1,1,1,1,1,1,1,
1),(-0.00208867317189798,-0.00104433658594899,-0.000522168292974495,0.,
0.000522168292974495,0.00104433658594899,0.00208867317189798,0.00313300975784697,
0.00417734634379596,0.00522168292974495,0.00626601951569394,0.00731035610164293,
0.00835469268759192,0.00939902927354091,0.0104433658594899,0.0114877024454389,
0.0125320390313879,0.0135763756173369,0.0146207122032859,0.0156650487892348,
0.0161872170822093,0.0167093853751838,0.0172315536681583,0.0177537219611328,
0.0187980585470818),.UNSPECIFIED.);
#34=ORIENTED_EDGE('',*,*,#74,.T.);
#35=ORIENTED_EDGE('',*,*,#75,.F.);
#36=ORIENTED_EDGE('',*,*,#76,.F.);
#37=ORIENTED_EDGE('',*,*,#77,.T.);
#38=ORIENTED_EDGE('',*,*,#78,.T.);
#39=ORIENTED_EDGE('',*,*,#74,.F.);
#40=ORIENTED_EDGE('',*,*,#79,.T.);
#41=ORIENTED_EDGE('',*,*,#80,.T.);
#42=ORIENTED_EDGE('',*,*,#81,.F.);
#43=ORIENTED_EDGE('',*,*,#78,.F.);
#44=ORIENTED_EDGE('',*,*,#82,.F.);
#45=ORIENTED_EDGE('',*,*,#75,.T.);
#46=ORIENTED_EDGE('',*,*,#83,.F.);
#47=ORIENTED_EDGE('',*,*,#80,.F.);
#48=ORIENTED_EDGE('',*,*,#84,.F.);
#49=ORIENTED_EDGE('',*,*,#77,.F.);
#50=ORIENTED_EDGE('',*,*,#76,.T.);
#51=ORIENTED_EDGE('',*,*,#82,.T.);
#52=ORIENTED_EDGE('',*,*,#85,.T.);
#53=ORIENTED_EDGE('',*,*,#86,.T.);
#54=ORIENTED_EDGE('',*,*,#87,.F.);
#55=ORIENTED_EDGE('',*,*,#84,.T.);
#56=ORIENTED_EDGE('',*,*,#85,.F.);
#57=ORIENTED_EDGE('',*,*,#87,.T.);
#58=ORIENTED_EDGE('',*,*,#88,.T.);
#59=ORIENTED_EDGE('',*,*,#88,.F.);
#60=ORIENTED_EDGE('',*,*,#86,.F.);
#61=ORIENTED_EDGE('',*,*,#89,.F.);
#62=ORIENTED_EDGE('',*,*,#79,.F.);
#63=ORIENTED_EDGE('',*,*,#81,.T.);
#64=ORIENTED_EDGE('',*,*,#83,.T.);
#65=ORIENTED_EDGE('',*,*,#90,.T.);
#66=ORIENTED_EDGE('',*,*,#91,.T.);
#67=ORIENTED_EDGE('',*,*,#92,.F.);
#68=ORIENTED_EDGE('',*,*,#89,.T.);
#69=ORIENTED_EDGE('',*,*,#90,.F.);
#70=ORIENTED_EDGE('',*,*,#92,.T.);
#71=ORIENTED_EDGE('',*,*,#93,.T.);
#72=ORIENTED_EDGE('',*,*,#93,.F.);
#73=ORIENTED_EDGE('',*,*,#91,.F.);
#74=EDGE_CURVE('',#94,#94,#112,.T.);
#75=EDGE_CURVE('',#95,#96,#113,.T.);
#76=EDGE_CURVE('',#97,#95,#28,.T.);
#77=EDGE_CURVE('',#97,#96,#114,.T.);
#78=EDGE_CURVE('',#98,#98,#115,.T.);
#79=EDGE_CURVE('',#99,#100,#116,.T.);
#80=EDGE_CURVE('',#100,#101,#117,.T.);
#81=EDGE_CURVE('',#99,#101,#29,.T.);
#82=EDGE_CURVE('',#95,#96,#30,.T.);
#83=EDGE_CURVE('',#101,#100,#31,.T.);
#84=EDGE_CURVE('',#102,#102,#118,.T.);
#85=EDGE_CURVE('',#103,#103,#119,.T.);
#86=EDGE_CURVE('',#104,#104,#120,.T.);
#87=EDGE_CURVE('',#105,#105,#121,.T.);
#88=EDGE_CURVE('',#106,#106,#32,.T.);
#89=EDGE_CURVE('',#107,#107,#122,.T.);
#90=EDGE_CURVE('',#108,#108,#123,.T.);
#91=EDGE_CURVE('',#109,#109,#124,.T.);
#92=EDGE_CURVE('',#110,#110,#125,.T.);
#93=EDGE_CURVE('',#111,#111,#33,.T.);
#94=VERTEX_POINT('',#318);
#95=VERTEX_POINT('',#320);
#96=VERTEX_POINT('',#321);
#97=VERTEX_POINT('',#337);
#98=VERTEX_POINT('',#341);
#99=VERTEX_POINT('',#344);
#100=VERTEX_POINT('',#345);
#101=VERTEX_POINT('',#347);
#102=VERTEX_POINT('',#376);
#103=VERTEX_POINT('',#379);
#104=VERTEX_POINT('',#381);
#105=VERTEX_POINT('',#384);
#106=VERTEX_POINT('',#408);
#107=VERTEX_POINT('',#412);
#108=VERTEX_POINT('',#415);
#109=VERTEX_POINT('',#417);
#110=VERTEX_POINT('',#420);
#111=VERTEX_POINT('',#444);
#112=CIRCLE('',#224,14.);
#113=CIRCLE('',#225,20.);
#114=CIRCLE('',#226,3.);
#115=CIRCLE('',#228,14.);
#116=CIRCLE('',#230,3.);
#117=CIRCLE('',#231,20.);
#118=CIRCLE('',#234,3.);
#119=CIRCLE('',#236,2.);
#120=CIRCLE('',#237,2.);
#121=CIRCLE('',#239,3.);
#122=CIRCLE('',#244,3.);
#123=CIRCLE('',#246,2.);
#124=CIRCLE('',#247,2.);
#125=CIRCLE('',#249,3.);
#126=EDGE_LOOP('',(#34));
#127=EDGE_LOOP('',(#35,#36,#37));
#128=EDGE_LOOP('',(#38));
#129=EDGE_LOOP('',(#39));
#130=EDGE_LOOP('',(#40,#41,#42));
#131=EDGE_LOOP('',(#43));
#132=EDGE_LOOP('',(#44,#45));
#133=EDGE_LOOP('',(#46,#47));
#134=EDGE_LOOP('',(#48));
#135=EDGE_LOOP('',(#49,#50,#51));
#136=EDGE_LOOP('',(#52));
#137=EDGE_LOOP('',(#53));
#138=EDGE_LOOP('',(#54));
#139=EDGE_LOOP('',(#55));
#140=EDGE_LOOP('',(#56));
#141=EDGE_LOOP('',(#57));
#142=EDGE_LOOP('',(#58));
#143=EDGE_LOOP('',(#59));
#144=EDGE_LOOP('',(#60));
#145=EDGE_LOOP('',(#61));
#146=EDGE_LOOP('',(#62,#63,#64));
#147=EDGE_LOOP('',(#65));
#148=EDGE_LOOP('',(#66));
#149=EDGE_LOOP('',(#67));
#150=EDGE_LOOP('',(#68));
#151=EDGE_LOOP('',(#69));
#152=EDGE_LOOP('',(#70));
#153=EDGE_LOOP('',(#71));
#154=EDGE_LOOP('',(#72));
#155=EDGE_LOOP('',(#73));
#156=FACE_BOUND('',#126,.T.);
#157=FACE_BOUND('',#127,.T.);
#158=FACE_BOUND('',#128,.T.);
#159=FACE_BOUND('',#129,.T.);
#160=FACE_BOUND('',#130,.T.);
#161=FACE_BOUND('',#131,.T.);
#162=FACE_BOUND('',#132,.T.);
#163=FACE_BOUND('',#133,.T.);
#164=FACE_BOUND('',#134,.T.);
#165=FACE_BOUND('',#135,.T.);
#166=FACE_BOUND('',#136,.T.);
#167=FACE_BOUND('',#137,.T.);
#168=FACE_BOUND('',#138,.T.);
#169=FACE_BOUND('',#139,.T.);
#170=FACE_BOUND('',#140,.T.);
#171=FACE_BOUND('',#141,.T.);
#172=FACE_BOUND('',#142,.T.);
#173=FACE_BOUND('',#143,.T.);
#174=FACE_BOUND('',#144,.T.);
#175=FACE_BOUND('',#145,.T.);
#176=FACE_BOUND('',#146,.T.);
#177=FACE_BOUND('',#147,.T.);
#178=FACE_BOUND('',#148,.T.);
#179=FACE_BOUND('',#149,.T.);
#180=FACE_BOUND('',#150,.T.);
#181=FACE_BOUND('',#151,.T.);
#182=FACE_BOUND('',#152,.T.);
#183=FACE_BOUND('',#153,.T.);
#184=FACE_BOUND('',#154,.T.);
#185=FACE_BOUND('',#155,.T.);
#186=TOROIDAL_SURFACE('',#223,17.,2.99999999999999);
#187=TOROIDAL_SURFACE('',#229,17.0000000000001,3.00000000000009);
#188=TOROIDAL_SURFACE('',#233,13.,3.);
#189=TOROIDAL_SURFACE('',#241,17.,2.99999999999999);
#190=TOROIDAL_SURFACE('',#242,13.,2.);
#191=TOROIDAL_SURFACE('',#243,12.9999999999999,3.);
#192=TOROIDAL_SURFACE('',#251,17.0000000000001,3.00000000000009);
#193=TOROIDAL_SURFACE('',#252,12.9999999999999,2.);
#194=ADVANCED_FACE('',(#156,#157),#186,.T.);
#195=ADVANCED_FACE('',(#158,#159),#22,.F.);
#196=ADVANCED_FACE('',(#160,#161),#187,.T.);
#197=ADVANCED_FACE('',(#162,#163),#23,.T.);
#198=ADVANCED_FACE('',(#164,#165),#188,.T.);
#199=ADVANCED_FACE('',(#166,#167),#24,.F.);
#200=ADVANCED_FACE('',(#168,#169),#25,.T.);
#201=ADVANCED_FACE('',(#170,#171),#20,.T.);
#202=ADVANCED_FACE('',(#172),#189,.T.);
#203=ADVANCED_FACE('',(#173,#174),#190,.F.);
#204=ADVANCED_FACE('',(#175,#176),#191,.T.);
#205=ADVANCED_FACE('',(#177,#178),#26,.F.);
#206=ADVANCED_FACE('',(#179,#180),#27,.T.);
#207=ADVANCED_FACE('',(#181,#182),#21,.T.);
#208=ADVANCED_FACE('',(#183),#192,.T.);
#209=ADVANCED_FACE('',(#184,#185),#193,.F.);
#210=CLOSED_SHELL('',(#194,#195,#196,#197,#198,#199,#200,#201,#202,#203,
#204,#205,#206,#207,#208,#209));
#211=STYLED_ITEM('',(#212),#219);
#212=PRESENTATION_STYLE_ASSIGNMENT((#213));
#213=SURFACE_STYLE_USAGE(.BOTH.,#214);
#214=SURFACE_SIDE_STYLE('',(#215));
#215=SURFACE_STYLE_FILL_AREA(#216);
#216=FILL_AREA_STYLE('',(#217));
#217=FILL_AREA_STYLE_COLOUR('',#218);
#218=COLOUR_RGB('',0.,0.569999992847443,0.860000014305115);
#219=MANIFOLD_SOLID_BREP('197592 PUN-6X1-S-6-BL---(1214)',#210);
#220=SHAPE_DEFINITION_REPRESENTATION(#452,#221);
#221=SHAPE_REPRESENTATION('197592 PUN-6X1-S-6-BL---(1214)',(#222),#447);
#222=AXIS2_PLACEMENT_3D('',#315,#253,#254);
#223=AXIS2_PLACEMENT_3D('',#316,#255,#256);
#224=AXIS2_PLACEMENT_3D('',#317,#257,#258);
#225=AXIS2_PLACEMENT_3D('',#319,#259,#260);
#226=AXIS2_PLACEMENT_3D('',#338,#261,#262);
#227=AXIS2_PLACEMENT_3D('',#339,#263,#264);
#228=AXIS2_PLACEMENT_3D('',#340,#265,#266);
#229=AXIS2_PLACEMENT_3D('',#342,#267,#268);
#230=AXIS2_PLACEMENT_3D('',#343,#269,#270);
#231=AXIS2_PLACEMENT_3D('',#346,#271,#272);
#232=AXIS2_PLACEMENT_3D('',#363,#273,#274);
#233=AXIS2_PLACEMENT_3D('',#374,#275,#276);
#234=AXIS2_PLACEMENT_3D('',#375,#277,#278);
#235=AXIS2_PLACEMENT_3D('',#377,#279,#280);
#236=AXIS2_PLACEMENT_3D('',#378,#281,#282);
#237=AXIS2_PLACEMENT_3D('',#380,#283,#284);
#238=AXIS2_PLACEMENT_3D('',#382,#285,#286);
#239=AXIS2_PLACEMENT_3D('',#383,#287,#288);
#240=AXIS2_PLACEMENT_3D('',#385,#289,#290);
#241=AXIS2_PLACEMENT_3D('',#386,#291,#292);
#242=AXIS2_PLACEMENT_3D('',#409,#293,#294);
#243=AXIS2_PLACEMENT_3D('',#410,#295,#296);
#244=AXIS2_PLACEMENT_3D('',#411,#297,#298);
#245=AXIS2_PLACEMENT_3D('',#413,#299,#300);
#246=AXIS2_PLACEMENT_3D('',#414,#301,#302);
#247=AXIS2_PLACEMENT_3D('',#416,#303,#304);
#248=AXIS2_PLACEMENT_3D('',#418,#305,#306);
#249=AXIS2_PLACEMENT_3D('',#419,#307,#308);
#250=AXIS2_PLACEMENT_3D('',#421,#309,#310);
#251=AXIS2_PLACEMENT_3D('',#422,#311,#312);
#252=AXIS2_PLACEMENT_3D('',#445,#313,#314);
#253=DIRECTION('',(0.,0.,1.));
#254=DIRECTION('',(1.,0.,0.));
#255=DIRECTION('',(0.,0.,-1.));
#256=DIRECTION('',(-1.,0.,0.));
#257=DIRECTION('',(0.,0.,-1.));
#258=DIRECTION('',(-1.,0.,0.));
#259=DIRECTION('',(0.,0.,-1.));
#260=DIRECTION('',(-1.,0.,0.));
#261=DIRECTION('',(0.,1.,0.));
#262=DIRECTION('',(1.,0.,0.));
#263=DIRECTION('',(0.,0.,-1.));
#264=DIRECTION('',(-1.,0.,0.));
#265=DIRECTION('',(0.,0.,-1.));
#266=DIRECTION('',(-1.,0.,0.));
#267=DIRECTION('',(0.,0.,-1.));
#268=DIRECTION('',(-1.,0.,0.));
#269=DIRECTION('',(0.,1.,0.));
#270=DIRECTION('',(1.,0.,0.));
#271=DIRECTION('',(0.,0.,-1.));
#272=DIRECTION('',(-1.,0.,0.));
#273=DIRECTION('',(0.,0.,-1.));
#274=DIRECTION('',(-1.,0.,0.));
#275=DIRECTION('',(1.,0.,0.));
#276=DIRECTION('',(0.,0.,-1.));
#277=DIRECTION('',(0.,0.,1.));
#278=DIRECTION('',(-1.,0.,0.));
#279=DIRECTION('',(0.,0.,-1.));
#280=DIRECTION('',(-1.,0.,0.));
#281=DIRECTION('',(0.,0.,1.));
#282=DIRECTION('',(-1.,0.,0.));
#283=DIRECTION('',(0.,6.12323399573677E-17,-1.));
#284=DIRECTION('',(1.,0.,0.));
#285=DIRECTION('',(0.,0.,-1.));
#286=DIRECTION('',(-1.,0.,0.));
#287=DIRECTION('',(0.,0.,1.));
#288=DIRECTION('',(-1.,0.,0.));
#289=DIRECTION('',(0.,0.,1.));
#290=DIRECTION('',(1.,0.,0.));
#291=DIRECTION('',(0.,0.,-1.));
#292=DIRECTION('',(-1.,0.,0.));
#293=DIRECTION('',(1.,0.,0.));
#294=DIRECTION('',(0.,0.,-1.));
#295=DIRECTION('',(-1.,0.,0.));
#296=DIRECTION('',(0.,0.,1.));
#297=DIRECTION('',(0.,0.,-1.));
#298=DIRECTION('',(-1.,0.,0.));
#299=DIRECTION('',(0.,0.,1.));
#300=DIRECTION('',(1.,0.,0.));
#301=DIRECTION('',(0.,0.,-1.));
#302=DIRECTION('',(-1.,0.,0.));
#303=DIRECTION('',(0.,6.12323399573677E-17,1.));
#304=DIRECTION('',(1.,0.,0.));
#305=DIRECTION('',(0.,0.,1.));
#306=DIRECTION('',(1.,0.,0.));
#307=DIRECTION('',(0.,0.,-1.));
#308=DIRECTION('',(-1.,0.,0.));
#309=DIRECTION('',(0.,0.,-1.));
#310=DIRECTION('',(-1.,0.,0.));
#311=DIRECTION('',(0.,0.,-1.));
#312=DIRECTION('',(-1.,0.,0.));
#313=DIRECTION('',(-1.,0.,0.));
#314=DIRECTION('',(0.,0.,1.));
#315=CARTESIAN_POINT('',(0.,0.,0.));
#316=CARTESIAN_POINT('',(0.,20.,-2.99999999999999));
#317=CARTESIAN_POINT('',(0.,20.,-2.99999999999989));
#318=CARTESIAN_POINT('',(-14.,20.,-2.99999999999989));
#319=CARTESIAN_POINT('',(0.,20.,-2.99999999999989));
#320=CARTESIAN_POINT('',(17.7860262008733,10.8535650670958,-2.99999999999989));
#321=CARTESIAN_POINT('',(20.,20.,-3.));
#322=CARTESIAN_POINT('',(14.6169265010684,20.,-1.17764967728761));
#323=CARTESIAN_POINT('',(14.6174103903343,19.3303319873299,-1.17701689901687));
#324=CARTESIAN_POINT('',(14.5693912933723,17.9912687267501,-1.116669180909));
#325=CARTESIAN_POINT('',(14.3803515018856,16.0064340216099,-0.860523310964513));
#326=CARTESIAN_POINT('',(14.1402062538056,14.0455813006448,-0.497303837526189));
#327=CARTESIAN_POINT('',(13.9851931047776,12.408504361992,-0.176293464318276));
#328=CARTESIAN_POINT('',(14.0068786524334,11.075746711761,-0.00665080649587799));
#329=CARTESIAN_POINT('',(14.1593557450263,10.0777150435161,0.0210351351800693));
#330=CARTESIAN_POINT('',(14.5924395767577,9.13789647473752,-0.181877567953601));
#331=CARTESIAN_POINT('',(15.3893049671171,8.71864485798266,-0.766233366219915));
#332=CARTESIAN_POINT('',(16.158868102986,8.9223459317557,-1.42607311976853));
#333=CARTESIAN_POINT('',(16.8068726943956,9.41393830581112,-2.02411123319302));
#334=CARTESIAN_POINT('',(17.3484905269365,10.0759174029156,-2.55203521645588));
#335=CARTESIAN_POINT('',(17.6491668790914,10.5874303926679,-2.8581864946242));
#336=CARTESIAN_POINT('',(17.7860262008732,10.8535650670958,-2.99999999999991));
#337=CARTESIAN_POINT('',(14.6169265010684,20.,-1.1776496772876));
#338=CARTESIAN_POINT('',(17.,20.,-3.));
#339=CARTESIAN_POINT('',(0.,20.,-1014.));
#340=CARTESIAN_POINT('',(0.,20.,-1011.));
#341=CARTESIAN_POINT('',(-14.,20.,-1011.));
#342=CARTESIAN_POINT('',(0.,20.,-1011.));
#343=CARTESIAN_POINT('',(-17.,20.,-1011.));
#344=CARTESIAN_POINT('',(-14.6169265010684,20.,-1012.82235032271));
#345=CARTESIAN_POINT('',(-20.,20.,-1011.));
#346=CARTESIAN_POINT('',(0.,20.,-1011.));
#347=CARTESIAN_POINT('',(-17.7860262008734,10.853565067096,-1011.));
#348=CARTESIAN_POINT('',(-14.6169265010684,20.,-1012.82235032271));
#349=CARTESIAN_POINT('',(-14.6174103897097,19.3303319873189,-1012.82298310017));
#350=CARTESIAN_POINT('',(-14.5693912936592,17.991268726713,-1012.88333081947));
#351=CARTESIAN_POINT('',(-14.3803515018011,16.0064340215788,-1013.13947668894));
#352=CARTESIAN_POINT('',(-14.1402062538166,14.0455813004507,-1013.50269616253));
#353=CARTESIAN_POINT('',(-13.9851931047598,12.40850436214,-1013.82370653567));
#354=CARTESIAN_POINT('',(-14.0068786524568,11.0757467112284,-1013.99334919356));
#355=CARTESIAN_POINT('',(-14.1593557451719,10.0777150429743,-1014.02103513515));
#356=CARTESIAN_POINT('',(-14.5924395770623,9.13789647440026,-1013.81812243185));
#357=CARTESIAN_POINT('',(-15.3893049674263,8.71864485798607,-1013.23376663353));
#358=CARTESIAN_POINT('',(-16.1588681031827,8.92234593187381,-1012.57392688005));
#359=CARTESIAN_POINT('',(-16.8068726945029,9.41393830592002,-1011.9758887667));
#360=CARTESIAN_POINT('',(-17.3484905270311,10.0759174030601,-1011.44796478345));
#361=CARTESIAN_POINT('',(-17.649166879112,10.5874303927074,-1011.14181350535));
#362=CARTESIAN_POINT('',(-17.7860262008735,10.853565067096,-1011.));
#363=CARTESIAN_POINT('',(0.,20.,-1014.));
#364=CARTESIAN_POINT('',(17.7860262008733,10.8535650670958,-2.99999999999989));
#365=CARTESIAN_POINT('',(18.4610043147931,12.1661178275168,-3.69941171080375));
#366=CARTESIAN_POINT('',(19.639910087154,15.2334919222779,-4.31211584456675));
#367=CARTESIAN_POINT('',(20.,18.4892870448549,-3.58356405420254));
#368=CARTESIAN_POINT('',(20.,20.,-3.));
#369=CARTESIAN_POINT('',(-17.7860262008734,10.8535650670961,-1011.));
#370=CARTESIAN_POINT('',(-18.4610043147932,12.166117827517,-1010.3005882892));
#371=CARTESIAN_POINT('',(-19.639910087154,15.2334919222792,-1009.68788415543));
#372=CARTESIAN_POINT('',(-20.,18.4892870448525,-1010.4164359458));
#373=CARTESIAN_POINT('',(-20.,20.,-1011.));
#374=CARTESIAN_POINT('',(17.,20.,10.));
#375=CARTESIAN_POINT('',(17.,7.,10.));
#376=CARTESIAN_POINT('',(14.,7.,10.));
#377=CARTESIAN_POINT('',(17.,7.,100.));
#378=CARTESIAN_POINT('',(17.,7.,100.));
#379=CARTESIAN_POINT('',(15.,7.,100.));
#380=CARTESIAN_POINT('',(17.,7.,10.));
#381=CARTESIAN_POINT('',(19.,7.,10.));
#382=CARTESIAN_POINT('',(17.,7.,100.));
#383=CARTESIAN_POINT('',(17.,7.,100.));
#384=CARTESIAN_POINT('',(14.,7.,100.));
#385=CARTESIAN_POINT('',(17.,7.,100.));
#386=CARTESIAN_POINT('',(0.,20.,-2.99999999999999));
#387=CARTESIAN_POINT('',(18.0117298811796,15.7600130224456,-0.328013285099078));
#388=CARTESIAN_POINT('',(16.9752989327712,15.616411485326,-0.00309612454740431));
#389=CARTESIAN_POINT('',(16.0882743877356,15.0198322775939,0.00635872569726584));
#390=CARTESIAN_POINT('',(15.5139975000503,14.1372117831817,-0.0312951000442738));
#391=CARTESIAN_POINT('',(15.1687664459827,13.1579242288824,-0.0214291414466571));
#392=CARTESIAN_POINT('',(14.9886745781262,12.1352768768257,0.00680731291065775));
#393=CARTESIAN_POINT('',(14.990214040509,11.2624417482246,-0.00534895885878387));
#394=CARTESIAN_POINT('',(15.1525581862107,10.5902925330697,-0.108365669853088));
#395=CARTESIAN_POINT('',(15.3980507261941,10.1440778982789,-0.271260802394735));
#396=CARTESIAN_POINT('',(15.7798929038904,9.87873435871476,-0.541804709880098));
#397=CARTESIAN_POINT('',(16.3571243521421,9.85836412673275,-0.969478921947337));
#398=CARTESIAN_POINT('',(16.9995183313068,10.2459570615599,-1.45480123816711));
#399=CARTESIAN_POINT('',(17.6254038768447,10.9639943650593,-1.89619198077953));
#400=CARTESIAN_POINT('',(18.1437807436524,11.8236135025413,-2.19401705381822));
#401=CARTESIAN_POINT('',(18.5709162791146,12.7613506879342,-2.32480059308756));
#402=CARTESIAN_POINT('',(18.9079746414067,13.757517300483,-2.23476030435076));
#403=CARTESIAN_POINT('',(19.068754720381,14.7309217120305,-1.80234263641761));
#404=CARTESIAN_POINT('',(18.7989892936267,15.4568005142806,-1.03069629489271));
#405=CARTESIAN_POINT('',(18.0117298811796,15.7600130224456,-0.328013285099078));
#406=CARTESIAN_POINT('',(16.9752989327712,15.616411485326,-0.00309612454740431));
#407=CARTESIAN_POINT('',(16.0882743877356,15.0198322775939,0.00635872569726584));
#408=CARTESIAN_POINT('',(17.0002,15.5409152068906,-0.0556731762652383));
#409=CARTESIAN_POINT('',(17.,20.,10.));
#410=CARTESIAN_POINT('',(-17.,20.,-1024.));
#411=CARTESIAN_POINT('',(-17.,7.,-1024.));
#412=CARTESIAN_POINT('',(-20.,7.,-1024.));
#413=CARTESIAN_POINT('',(-17.,7.,-1114.));
#414=CARTESIAN_POINT('',(-17.,7.,-1114.));
#415=CARTESIAN_POINT('',(-19.,7.,-1114.));
#416=CARTESIAN_POINT('',(-17.,7.00000000000012,-1024.));
#417=CARTESIAN_POINT('',(-15.,7.00000000000012,-1024.));
#418=CARTESIAN_POINT('',(-17.,7.,-1114.));
#419=CARTESIAN_POINT('',(-17.,7.,-1114.));
#420=CARTESIAN_POINT('',(-20.,7.,-1114.));
#421=CARTESIAN_POINT('',(-17.,7.,-1114.));
#422=CARTESIAN_POINT('',(0.,20.,-1011.));
#423=CARTESIAN_POINT('',(-15.2366500104882,10.3930492023282,-1013.83707743381));
#424=CARTESIAN_POINT('',(-15.5426082793211,10.0040100648717,-1013.62831169795));
#425=CARTESIAN_POINT('',(-15.9619820904481,9.84425660279751,-1013.32448530436));
#426=CARTESIAN_POINT('',(-16.5259405980114,9.93464094323013,-1012.90278464195));
#427=CARTESIAN_POINT('',(-17.1393385078958,10.3792354558595,-1012.44257259839));
#428=CARTESIAN_POINT('',(-17.7375831942718,11.1283080263438,-1012.03189928344));
#429=CARTESIAN_POINT('',(-18.2377825504272,12.0093181894366,-1011.76470372477));
#430=CARTESIAN_POINT('',(-18.6469534837258,12.9585193699577,-1011.67284000742));
#431=CARTESIAN_POINT('',(-18.9599259547227,13.9596215062477,-1011.82015176295));
#432=CARTESIAN_POINT('',(-19.0585335725191,14.9025783214799,-1012.33147931491));
#433=CARTESIAN_POINT('',(-18.6784776295708,15.5521336016614,-1013.12966209219));
#434=CARTESIAN_POINT('',(-17.8151608146541,15.7673110945902,-1013.76849598509));
#435=CARTESIAN_POINT('',(-16.7844378168123,15.5357832163473,-1014.01477019216));
#436=CARTESIAN_POINT('',(-15.9487939594142,14.8592108242323,-1013.99635523604));
#437=CARTESIAN_POINT('',(-15.4295797742127,13.9442934729773,-1013.9671040959));
#438=CARTESIAN_POINT('',(-15.1197598702465,12.9558137552698,-1013.98432694597));
#439=CARTESIAN_POINT('',(-14.9720768590806,11.9221287109532,-1014.01002501537));
#440=CARTESIAN_POINT('',(-15.0141461011918,11.0454152015725,-1013.97979338123));
#441=CARTESIAN_POINT('',(-15.2366500104882,10.3930492023282,-1013.83707743381));
#442=CARTESIAN_POINT('',(-15.5426082793211,10.0040100648717,-1013.62831169795));
#443=CARTESIAN_POINT('',(-15.9619820904481,9.84425660279751,-1013.32448530436));
#444=CARTESIAN_POINT('',(-15.5615108697034,10.0422243441021,-1013.61246825499));
#445=CARTESIAN_POINT('',(-17.,20.,-1024.));
#446=MECHANICAL_DESIGN_GEOMETRIC_PRESENTATION_REPRESENTATION('',(#211),
#447);
#447=(
GEOMETRIC_REPRESENTATION_CONTEXT(3)
GLOBAL_UNCERTAINTY_ASSIGNED_CONTEXT((#448))
GLOBAL_UNIT_ASSIGNED_CONTEXT((#451,#450,#449))
REPRESENTATION_CONTEXT('197592 PUN-6X1-S-6-BL---(1214)',
'TOP_LEVEL_ASSEMBLY_PART')
);
#448=UNCERTAINTY_MEASURE_WITH_UNIT(LENGTH_MEASURE(0.005),#451,
'DISTANCE_ACCURACY_VALUE','Maximum Tolerance applied to model');
#449=(
NAMED_UNIT(*)
SI_UNIT($,.STERADIAN.)
SOLID_ANGLE_UNIT()
);
#450=(
NAMED_UNIT(*)
PLANE_ANGLE_UNIT()
SI_UNIT($,.RADIAN.)
);
#451=(
LENGTH_UNIT()
NAMED_UNIT(*)
SI_UNIT(.MILLI.,.METRE.)
);
#452=PRODUCT_DEFINITION_SHAPE('','',#453);
#453=PRODUCT_DEFINITION('','',#455,#454);
#454=PRODUCT_DEFINITION_CONTEXT('',#461,'design');
#455=PRODUCT_DEFINITION_FORMATION_WITH_SPECIFIED_SOURCE('','',#457,
 .NOT_KNOWN.);
#456=PRODUCT_RELATED_PRODUCT_CATEGORY('','',(#457));
#457=PRODUCT('197592 PUN-6X1-S-6-BL---(1214)',
'197592 PUN-6X1-S-6-BL---(1214)','197592 PUN-6X1-S-6-BL---(1214)',(#459));
#458=PRODUCT_CATEGORY('','');
#459=PRODUCT_CONTEXT('',#461,'mechanical');
#460=APPLICATION_PROTOCOL_DEFINITION('international standard',
'automotive_design',2010,#461);
#461=APPLICATION_CONTEXT(
'core data for automotive mechanical design processes');
ENDSEC;
END-ISO-10303-21;
