ISO-10303-21;
HEADER;
/* Generated by software containing ST-Developer
 * from STEP Tools, Inc. (www.steptools.com) 
 */
/* OPTION: using custom renumber hook */

FILE_DESCRIPTION(
/* description */ ('STEP AP214'),
/* implementation_level */ '2;1');

FILE_NAME(
/* name */ '197609_PUN-8X125-S-2-SW',
/* time_stamp */ '2024-09-13T21:20:27+02:00',
/* author */ ('License CC BY-ND 4.0'),
/* organization */ ('CADENAS'),
/* preprocessor_version */ 'ST-DEVELOPER v19.3',
/* originating_system */ 'PARTsolutions',
/* authorisation */ '  ');

FILE_SCHEMA (('AUTOMOTIVE_DESIGN {1 0 10303 214 3 1 1}'));
ENDSEC;

DATA;
#10=PROPERTY_DEFINITION_REPRESENTATION(#14,#12);
#11=PROPERTY_DEFINITION_REPRESENTATION(#15,#13);
#12=REPRESENTATION('',(#16),#453);
#13=REPRESENTATION('',(#17),#453);
#14=PROPERTY_DEFINITION('pmi validation property','',#458);
#15=PROPERTY_DEFINITION('pmi validation property','',#458);
#16=VALUE_REPRESENTATION_ITEM('number of annotations',COUNT_MEASURE(0.));
#17=VALUE_REPRESENTATION_ITEM('number of views',COUNT_MEASURE(0.));
#18=SHAPE_REPRESENTATION_RELATIONSHIP('','',#221,#19);
#19=ADVANCED_BREP_SHAPE_REPRESENTATION('',(#219),#453);
#20=PLANE('',#240);
#21=PLANE('',#250);
#22=CYLINDRICAL_SURFACE('',#227,22.);
#23=CYLINDRICAL_SURFACE('',#232,30.);
#24=CYLINDRICAL_SURFACE('',#235,2.85);
#25=CYLINDRICAL_SURFACE('',#238,4.);
#26=CYLINDRICAL_SURFACE('',#245,2.85);
#27=CYLINDRICAL_SURFACE('',#248,4.);
#28=B_SPLINE_CURVE_WITH_KNOTS('',3,(#322,#323,#324,#325,#326,#327,#328,
#329,#330,#331,#332,#333,#334,#335,#336,#337,#338),.UNSPECIFIED.,.F.,.F.,
(4,1,1,1,1,1,1,1,1,1,1,1,1,1,4),(-0.00019493716916688,0.00262571401710335,
0.00544636520337358,0.00826701638964381,0.00967734198277893,0.011087667575914,
0.0124979931690492,0.0139083187621843,0.0153186443553194,0.0160238071518869,
0.0167289699484545,0.0181392955415896,0.0195496211347247,0.0209599467278598,
0.022370272320995),.UNSPECIFIED.);
#29=B_SPLINE_CURVE_WITH_KNOTS('',3,(#350,#351,#352,#353,#354,#355,#356,
#357,#358,#359,#360,#361,#362,#363,#364,#365,#366),.UNSPECIFIED.,.F.,.F.,
(4,1,1,1,1,1,1,1,1,1,1,1,1,1,4),(-0.000194937169166854,0.00262571401740519,
0.00544636520397724,0.00826701639054928,0.0096773419838353,0.0110876675771213,
0.0124979931704073,0.0139083187636934,0.0153186443569794,0.0160238071536224,
0.0167289699502654,0.0181392955435514,0.0195496211368375,0.0209599467301235,
0.0223702723234095),.UNSPECIFIED.);
#30=B_SPLINE_CURVE_WITH_KNOTS('',3,(#368,#369,#370,#371,#372),
 .UNSPECIFIED.,.F.,.F.,(4,1,4),(0.000472807018377654,0.00713208221579093,
0.0137913574132042),.UNSPECIFIED.);
#31=B_SPLINE_CURVE_WITH_KNOTS('',3,(#373,#374,#375,#376,#377),
 .UNSPECIFIED.,.F.,.F.,(4,1,4),(0.00047280701837767,0.00713208221579093,
0.0137913574132042),.UNSPECIFIED.);
#32=B_SPLINE_CURVE_WITH_KNOTS('',3,(#391,#392,#393,#394,#395,#396,#397,
#398,#399,#400,#401,#402,#403,#404,#405,#406,#407,#408,#409,#410,#411,#412),
 .UNSPECIFIED.,.T.,.F.,(1,1,1,1,1,1,1,1,1,1,1,1,1,1,1,1,1,1,1,1,1,1,1,1,
1,1),(-0.00460363115385311,-0.00306908743590207,-0.00153454371795103,0.,
0.00153454371795104,0.00306908743590208,0.00460363115385311,0.00613817487180415,
0.00767271858975519,0.00843999044873071,0.00920726230770623,0.00997453416668174,
0.0107418060256573,0.0115090778846328,0.0122763497436083,0.0138108934615593,
0.0153454371795104,0.0168799808974614,0.0184145246154125,0.0199490683333635,
0.0214836120513145,0.0230181557692656,0.0245526994872166,0.0260872432051676,
0.0276217869231187,0.0291563306410697),.UNSPECIFIED.);
#33=B_SPLINE_CURVE_WITH_KNOTS('',3,(#428,#429,#430,#431,#432,#433,#434,
#435,#436,#437,#438,#439,#440,#441,#442,#443,#444,#445,#446,#447,#448,#449),
 .UNSPECIFIED.,.T.,.F.,(1,1,1,1,1,1,1,1,1,1,1,1,1,1,1,1,1,1,1,1,1,1,1,1,
1,1),(-0.00230263063484164,-0.00153508708989443,-0.000767543544947215,0.,
0.00153508708989443,0.00307017417978886,0.00460526126968329,0.00614034835957773,
0.00767543544947216,0.00921052253936659,0.010745609629261,0.0122806967191555,
0.0138157838090499,0.0153508708989443,0.0168859579888387,0.0184210450787332,
0.0199561321686276,0.0207236757135748,0.021491219258522,0.0222587628034693,
0.0230263063484165,0.0237938498933637,0.0245613934383109,0.0260964805282053,
0.0276315676180998,0.0291666547079942),.UNSPECIFIED.);
#34=ORIENTED_EDGE('',*,*,#74,.T.);
#35=ORIENTED_EDGE('',*,*,#75,.F.);
#36=ORIENTED_EDGE('',*,*,#76,.F.);
#37=ORIENTED_EDGE('',*,*,#77,.T.);
#38=ORIENTED_EDGE('',*,*,#78,.T.);
#39=ORIENTED_EDGE('',*,*,#74,.F.);
#40=ORIENTED_EDGE('',*,*,#79,.T.);
#41=ORIENTED_EDGE('',*,*,#80,.T.);
#42=ORIENTED_EDGE('',*,*,#81,.F.);
#43=ORIENTED_EDGE('',*,*,#78,.F.);
#44=ORIENTED_EDGE('',*,*,#82,.F.);
#45=ORIENTED_EDGE('',*,*,#75,.T.);
#46=ORIENTED_EDGE('',*,*,#83,.F.);
#47=ORIENTED_EDGE('',*,*,#80,.F.);
#48=ORIENTED_EDGE('',*,*,#84,.F.);
#49=ORIENTED_EDGE('',*,*,#77,.F.);
#50=ORIENTED_EDGE('',*,*,#76,.T.);
#51=ORIENTED_EDGE('',*,*,#82,.T.);
#52=ORIENTED_EDGE('',*,*,#85,.T.);
#53=ORIENTED_EDGE('',*,*,#86,.T.);
#54=ORIENTED_EDGE('',*,*,#87,.F.);
#55=ORIENTED_EDGE('',*,*,#84,.T.);
#56=ORIENTED_EDGE('',*,*,#85,.F.);
#57=ORIENTED_EDGE('',*,*,#87,.T.);
#58=ORIENTED_EDGE('',*,*,#88,.T.);
#59=ORIENTED_EDGE('',*,*,#88,.F.);
#60=ORIENTED_EDGE('',*,*,#86,.F.);
#61=ORIENTED_EDGE('',*,*,#89,.F.);
#62=ORIENTED_EDGE('',*,*,#79,.F.);
#63=ORIENTED_EDGE('',*,*,#81,.T.);
#64=ORIENTED_EDGE('',*,*,#83,.T.);
#65=ORIENTED_EDGE('',*,*,#90,.T.);
#66=ORIENTED_EDGE('',*,*,#91,.T.);
#67=ORIENTED_EDGE('',*,*,#92,.F.);
#68=ORIENTED_EDGE('',*,*,#89,.T.);
#69=ORIENTED_EDGE('',*,*,#90,.F.);
#70=ORIENTED_EDGE('',*,*,#92,.T.);
#71=ORIENTED_EDGE('',*,*,#93,.T.);
#72=ORIENTED_EDGE('',*,*,#93,.F.);
#73=ORIENTED_EDGE('',*,*,#91,.F.);
#74=EDGE_CURVE('',#94,#94,#112,.T.);
#75=EDGE_CURVE('',#95,#96,#113,.T.);
#76=EDGE_CURVE('',#97,#95,#28,.T.);
#77=EDGE_CURVE('',#97,#96,#114,.T.);
#78=EDGE_CURVE('',#98,#98,#115,.T.);
#79=EDGE_CURVE('',#99,#100,#116,.T.);
#80=EDGE_CURVE('',#100,#101,#117,.T.);
#81=EDGE_CURVE('',#99,#101,#29,.T.);
#82=EDGE_CURVE('',#95,#96,#30,.T.);
#83=EDGE_CURVE('',#101,#100,#31,.T.);
#84=EDGE_CURVE('',#102,#102,#118,.T.);
#85=EDGE_CURVE('',#103,#103,#119,.T.);
#86=EDGE_CURVE('',#104,#104,#120,.T.);
#87=EDGE_CURVE('',#105,#105,#121,.T.);
#88=EDGE_CURVE('',#106,#106,#32,.T.);
#89=EDGE_CURVE('',#107,#107,#122,.T.);
#90=EDGE_CURVE('',#108,#108,#123,.T.);
#91=EDGE_CURVE('',#109,#109,#124,.T.);
#92=EDGE_CURVE('',#110,#110,#125,.T.);
#93=EDGE_CURVE('',#111,#111,#33,.T.);
#94=VERTEX_POINT('',#318);
#95=VERTEX_POINT('',#320);
#96=VERTEX_POINT('',#321);
#97=VERTEX_POINT('',#339);
#98=VERTEX_POINT('',#343);
#99=VERTEX_POINT('',#346);
#100=VERTEX_POINT('',#347);
#101=VERTEX_POINT('',#349);
#102=VERTEX_POINT('',#380);
#103=VERTEX_POINT('',#383);
#104=VERTEX_POINT('',#385);
#105=VERTEX_POINT('',#388);
#106=VERTEX_POINT('',#413);
#107=VERTEX_POINT('',#417);
#108=VERTEX_POINT('',#420);
#109=VERTEX_POINT('',#422);
#110=VERTEX_POINT('',#425);
#111=VERTEX_POINT('',#450);
#112=CIRCLE('',#224,22.);
#113=CIRCLE('',#225,30.);
#114=CIRCLE('',#226,4.);
#115=CIRCLE('',#228,22.);
#116=CIRCLE('',#230,4.);
#117=CIRCLE('',#231,30.);
#118=CIRCLE('',#234,4.);
#119=CIRCLE('',#236,2.85);
#120=CIRCLE('',#237,2.85);
#121=CIRCLE('',#239,4.);
#122=CIRCLE('',#244,4.);
#123=CIRCLE('',#246,2.85);
#124=CIRCLE('',#247,2.85);
#125=CIRCLE('',#249,4.);
#126=EDGE_LOOP('',(#34));
#127=EDGE_LOOP('',(#35,#36,#37));
#128=EDGE_LOOP('',(#38));
#129=EDGE_LOOP('',(#39));
#130=EDGE_LOOP('',(#40,#41,#42));
#131=EDGE_LOOP('',(#43));
#132=EDGE_LOOP('',(#44,#45));
#133=EDGE_LOOP('',(#46,#47));
#134=EDGE_LOOP('',(#48));
#135=EDGE_LOOP('',(#49,#50,#51));
#136=EDGE_LOOP('',(#52));
#137=EDGE_LOOP('',(#53));
#138=EDGE_LOOP('',(#54));
#139=EDGE_LOOP('',(#55));
#140=EDGE_LOOP('',(#56));
#141=EDGE_LOOP('',(#57));
#142=EDGE_LOOP('',(#58));
#143=EDGE_LOOP('',(#59));
#144=EDGE_LOOP('',(#60));
#145=EDGE_LOOP('',(#61));
#146=EDGE_LOOP('',(#62,#63,#64));
#147=EDGE_LOOP('',(#65));
#148=EDGE_LOOP('',(#66));
#149=EDGE_LOOP('',(#67));
#150=EDGE_LOOP('',(#68));
#151=EDGE_LOOP('',(#69));
#152=EDGE_LOOP('',(#70));
#153=EDGE_LOOP('',(#71));
#154=EDGE_LOOP('',(#72));
#155=EDGE_LOOP('',(#73));
#156=FACE_BOUND('',#126,.T.);
#157=FACE_BOUND('',#127,.T.);
#158=FACE_BOUND('',#128,.T.);
#159=FACE_BOUND('',#129,.T.);
#160=FACE_BOUND('',#130,.T.);
#161=FACE_BOUND('',#131,.T.);
#162=FACE_BOUND('',#132,.T.);
#163=FACE_BOUND('',#133,.T.);
#164=FACE_BOUND('',#134,.T.);
#165=FACE_BOUND('',#135,.T.);
#166=FACE_BOUND('',#136,.T.);
#167=FACE_BOUND('',#137,.T.);
#168=FACE_BOUND('',#138,.T.);
#169=FACE_BOUND('',#139,.T.);
#170=FACE_BOUND('',#140,.T.);
#171=FACE_BOUND('',#141,.T.);
#172=FACE_BOUND('',#142,.T.);
#173=FACE_BOUND('',#143,.T.);
#174=FACE_BOUND('',#144,.T.);
#175=FACE_BOUND('',#145,.T.);
#176=FACE_BOUND('',#146,.T.);
#177=FACE_BOUND('',#147,.T.);
#178=FACE_BOUND('',#148,.T.);
#179=FACE_BOUND('',#149,.T.);
#180=FACE_BOUND('',#150,.T.);
#181=FACE_BOUND('',#151,.T.);
#182=FACE_BOUND('',#152,.T.);
#183=FACE_BOUND('',#153,.T.);
#184=FACE_BOUND('',#154,.T.);
#185=FACE_BOUND('',#155,.T.);
#186=TOROIDAL_SURFACE('',#223,26.,3.99999999999999);
#187=TOROIDAL_SURFACE('',#229,26.,4.);
#188=TOROIDAL_SURFACE('',#233,19.,4.);
#189=TOROIDAL_SURFACE('',#241,26.,3.99999999999999);
#190=TOROIDAL_SURFACE('',#242,19.,2.85);
#191=TOROIDAL_SURFACE('',#243,19.,4.);
#192=TOROIDAL_SURFACE('',#251,26.,4.);
#193=TOROIDAL_SURFACE('',#252,19.,2.85);
#194=ADVANCED_FACE('',(#156,#157),#186,.T.);
#195=ADVANCED_FACE('',(#158,#159),#22,.F.);
#196=ADVANCED_FACE('',(#160,#161),#187,.T.);
#197=ADVANCED_FACE('',(#162,#163),#23,.T.);
#198=ADVANCED_FACE('',(#164,#165),#188,.T.);
#199=ADVANCED_FACE('',(#166,#167),#24,.F.);
#200=ADVANCED_FACE('',(#168,#169),#25,.T.);
#201=ADVANCED_FACE('',(#170,#171),#20,.T.);
#202=ADVANCED_FACE('',(#172),#189,.T.);
#203=ADVANCED_FACE('',(#173,#174),#190,.F.);
#204=ADVANCED_FACE('',(#175,#176),#191,.T.);
#205=ADVANCED_FACE('',(#177,#178),#26,.F.);
#206=ADVANCED_FACE('',(#179,#180),#27,.T.);
#207=ADVANCED_FACE('',(#181,#182),#21,.T.);
#208=ADVANCED_FACE('',(#183),#192,.T.);
#209=ADVANCED_FACE('',(#184,#185),#193,.F.);
#210=CLOSED_SHELL('',(#194,#195,#196,#197,#198,#199,#200,#201,#202,#203,
#204,#205,#206,#207,#208,#209));
#211=STYLED_ITEM('',(#212),#219);
#212=PRESENTATION_STYLE_ASSIGNMENT((#213));
#213=SURFACE_STYLE_USAGE(.BOTH.,#214);
#214=SURFACE_SIDE_STYLE('',(#215));
#215=SURFACE_STYLE_FILL_AREA(#216);
#216=FILL_AREA_STYLE('',(#217));
#217=FILL_AREA_STYLE_COLOUR('',#218);
#218=DRAUGHTING_PRE_DEFINED_COLOUR('black');
#219=MANIFOLD_SOLID_BREP('197609 PUN-8X1,25-S-2-SW---(424)',#210);
#220=SHAPE_DEFINITION_REPRESENTATION(#458,#221);
#221=SHAPE_REPRESENTATION('197609 PUN-8X1,25-S-2-SW---(424)',(#222),#453);
#222=AXIS2_PLACEMENT_3D('',#315,#253,#254);
#223=AXIS2_PLACEMENT_3D('',#316,#255,#256);
#224=AXIS2_PLACEMENT_3D('',#317,#257,#258);
#225=AXIS2_PLACEMENT_3D('',#319,#259,#260);
#226=AXIS2_PLACEMENT_3D('',#340,#261,#262);
#227=AXIS2_PLACEMENT_3D('',#341,#263,#264);
#228=AXIS2_PLACEMENT_3D('',#342,#265,#266);
#229=AXIS2_PLACEMENT_3D('',#344,#267,#268);
#230=AXIS2_PLACEMENT_3D('',#345,#269,#270);
#231=AXIS2_PLACEMENT_3D('',#348,#271,#272);
#232=AXIS2_PLACEMENT_3D('',#367,#273,#274);
#233=AXIS2_PLACEMENT_3D('',#378,#275,#276);
#234=AXIS2_PLACEMENT_3D('',#379,#277,#278);
#235=AXIS2_PLACEMENT_3D('',#381,#279,#280);
#236=AXIS2_PLACEMENT_3D('',#382,#281,#282);
#237=AXIS2_PLACEMENT_3D('',#384,#283,#284);
#238=AXIS2_PLACEMENT_3D('',#386,#285,#286);
#239=AXIS2_PLACEMENT_3D('',#387,#287,#288);
#240=AXIS2_PLACEMENT_3D('',#389,#289,#290);
#241=AXIS2_PLACEMENT_3D('',#390,#291,#292);
#242=AXIS2_PLACEMENT_3D('',#414,#293,#294);
#243=AXIS2_PLACEMENT_3D('',#415,#295,#296);
#244=AXIS2_PLACEMENT_3D('',#416,#297,#298);
#245=AXIS2_PLACEMENT_3D('',#418,#299,#300);
#246=AXIS2_PLACEMENT_3D('',#419,#301,#302);
#247=AXIS2_PLACEMENT_3D('',#421,#303,#304);
#248=AXIS2_PLACEMENT_3D('',#423,#305,#306);
#249=AXIS2_PLACEMENT_3D('',#424,#307,#308);
#250=AXIS2_PLACEMENT_3D('',#426,#309,#310);
#251=AXIS2_PLACEMENT_3D('',#427,#311,#312);
#252=AXIS2_PLACEMENT_3D('',#451,#313,#314);
#253=DIRECTION('',(0.,0.,1.));
#254=DIRECTION('',(1.,0.,0.));
#255=DIRECTION('',(0.,0.,-1.));
#256=DIRECTION('',(-1.,0.,0.));
#257=DIRECTION('',(0.,0.,-1.));
#258=DIRECTION('',(-1.,0.,0.));
#259=DIRECTION('',(0.,0.,-1.));
#260=DIRECTION('',(-1.,0.,0.));
#261=DIRECTION('',(0.,1.,0.));
#262=DIRECTION('',(1.,0.,0.));
#263=DIRECTION('',(0.,0.,-1.));
#264=DIRECTION('',(-1.,0.,0.));
#265=DIRECTION('',(0.,0.,-1.));
#266=DIRECTION('',(-1.,0.,0.));
#267=DIRECTION('',(0.,0.,-1.));
#268=DIRECTION('',(-1.,0.,0.));
#269=DIRECTION('',(0.,1.,0.));
#270=DIRECTION('',(1.,0.,0.));
#271=DIRECTION('',(0.,0.,-1.));
#272=DIRECTION('',(-1.,0.,0.));
#273=DIRECTION('',(0.,0.,-1.));
#274=DIRECTION('',(-1.,0.,0.));
#275=DIRECTION('',(1.,0.,0.));
#276=DIRECTION('',(0.,0.,-1.));
#277=DIRECTION('',(0.,0.,1.));
#278=DIRECTION('',(-1.,0.,0.));
#279=DIRECTION('',(0.,0.,-1.));
#280=DIRECTION('',(-1.,0.,0.));
#281=DIRECTION('',(0.,0.,1.));
#282=DIRECTION('',(-1.,0.,0.));
#283=DIRECTION('',(0.,6.12323399573677E-17,-1.));
#284=DIRECTION('',(1.,0.,0.));
#285=DIRECTION('',(0.,0.,-1.));
#286=DIRECTION('',(-1.,0.,0.));
#287=DIRECTION('',(0.,0.,1.));
#288=DIRECTION('',(-1.,0.,0.));
#289=DIRECTION('',(0.,0.,1.));
#290=DIRECTION('',(1.,0.,0.));
#291=DIRECTION('',(0.,0.,-1.));
#292=DIRECTION('',(-1.,0.,0.));
#293=DIRECTION('',(1.,0.,0.));
#294=DIRECTION('',(0.,0.,-1.));
#295=DIRECTION('',(-1.,0.,0.));
#296=DIRECTION('',(0.,0.,1.));
#297=DIRECTION('',(0.,0.,-1.));
#298=DIRECTION('',(-1.,0.,0.));
#299=DIRECTION('',(0.,0.,1.));
#300=DIRECTION('',(1.,0.,0.));
#301=DIRECTION('',(0.,0.,-1.));
#302=DIRECTION('',(-1.,0.,0.));
#303=DIRECTION('',(0.,6.12323399573677E-17,1.));
#304=DIRECTION('',(1.,0.,0.));
#305=DIRECTION('',(0.,0.,1.));
#306=DIRECTION('',(1.,0.,0.));
#307=DIRECTION('',(0.,0.,-1.));
#308=DIRECTION('',(-1.,0.,0.));
#309=DIRECTION('',(0.,0.,-1.));
#310=DIRECTION('',(-1.,0.,0.));
#311=DIRECTION('',(0.,0.,-1.));
#312=DIRECTION('',(-1.,0.,0.));
#313=DIRECTION('',(-1.,0.,0.));
#314=DIRECTION('',(0.,0.,1.));
#315=CARTESIAN_POINT('',(0.,0.,0.));
#316=CARTESIAN_POINT('',(0.,30.,-3.99999999999999));
#317=CARTESIAN_POINT('',(0.,30.,-4.));
#318=CARTESIAN_POINT('',(-22.,30.,-4.));
#319=CARTESIAN_POINT('',(0.,30.,-4.));
#320=CARTESIAN_POINT('',(27.2150433944069,17.3769491389543,-4.));
#321=CARTESIAN_POINT('',(30.,30.,-4.));
#322=CARTESIAN_POINT('',(22.7704355109684,30.,-1.63993364263076));
#323=CARTESIAN_POINT('',(22.7710467664014,29.0597778947748,-1.63909718782768));
#324=CARTESIAN_POINT('',(22.7101376708451,27.1794118399976,-1.55917954816081));
#325=CARTESIAN_POINT('',(22.4715618248181,24.3888056192334,-1.2188984132957));
#326=CARTESIAN_POINT('',(22.2175392831258,22.0897352418824,-0.809737614895412));
#327=CARTESIAN_POINT('',(22.0559557743136,20.2484241790457,-0.464912486505333));
#328=CARTESIAN_POINT('',(21.9853466598309,18.863615099741,-0.221687557853586));
#329=CARTESIAN_POINT('',(22.0154079366633,17.4594762874498,-0.032130773164866));
#330=CARTESIAN_POINT('',(22.2138908452139,16.0851007919037,0.0395921415650951));
#331=CARTESIAN_POINT('',(22.6970661958619,14.9614237659637,-0.142149692148717));
#332=CARTESIAN_POINT('',(23.3626374691811,14.4005407598567,-0.564857779990016));
#333=CARTESIAN_POINT('',(24.1233298810234,14.1881223135101,-1.12396204140377));
#334=CARTESIAN_POINT('',(25.0312305345941,14.4844705908775,-1.88520791777297));
#335=CARTESIAN_POINT('',(25.9119966146247,15.2507302251255,-2.69355401106137));
#336=CARTESIAN_POINT('',(26.6380811828386,16.2396262528631,-3.40282278677629));
#337=CARTESIAN_POINT('',(27.033251814213,16.9850101538249,-3.80919244062646));
#338=CARTESIAN_POINT('',(27.2150433944069,17.3769491389543,-4.00000000000002));
#339=CARTESIAN_POINT('',(22.7704355109684,30.,-1.63993364263075));
#340=CARTESIAN_POINT('',(26.,30.,-4.));
#341=CARTESIAN_POINT('',(0.,30.,-224.));
#342=CARTESIAN_POINT('',(0.,30.,-220.));
#343=CARTESIAN_POINT('',(-22.,30.,-220.));
#344=CARTESIAN_POINT('',(0.,30.,-220.));
#345=CARTESIAN_POINT('',(-26.,30.,-220.));
#346=CARTESIAN_POINT('',(-22.7704355109684,30.,-222.360066357369));
#347=CARTESIAN_POINT('',(-30.,30.,-220.));
#348=CARTESIAN_POINT('',(0.,30.,-220.));
#349=CARTESIAN_POINT('',(-27.2150433944069,17.3769491389543,-220.));
#350=CARTESIAN_POINT('',(-22.7704355109684,30.,-222.360066357369));
#351=CARTESIAN_POINT('',(-22.7710467663342,29.059777894674,-222.36090281208));
#352=CARTESIAN_POINT('',(-22.7101376708632,27.1794118396955,-222.4408204519));
#353=CARTESIAN_POINT('',(-22.4715618247498,24.3888056186419,-222.781101586779));
#354=CARTESIAN_POINT('',(-22.2175392830367,22.0897352410385,-223.190262385263));
#355=CARTESIAN_POINT('',(-22.0559557742338,20.2484241780275,-223.535087513685));
#356=CARTESIAN_POINT('',(-21.9853466598083,18.8636150984921,-223.778312442344));
#357=CARTESIAN_POINT('',(-22.0154079367241,17.4594762862486,-223.967869226976));
#358=CARTESIAN_POINT('',(-22.2138908456763,16.0851007898843,-224.039592141548));
#359=CARTESIAN_POINT('',(-22.6970661968168,14.9614237646004,-223.857850307344));
#360=CARTESIAN_POINT('',(-23.3626374702634,14.4005407593021,-223.435142219259));
#361=CARTESIAN_POINT('',(-24.1233298819795,14.1881223136475,-222.876037957823));
#362=CARTESIAN_POINT('',(-25.031230535144,14.4844705912447,-222.114792081737));
#363=CARTESIAN_POINT('',(-25.9119966150547,15.2507302256579,-221.306445988525));
#364=CARTESIAN_POINT('',(-26.6380811826819,16.2396262526694,-220.597177213375));
#365=CARTESIAN_POINT('',(-27.0332518141604,16.9850101537114,-220.190807559429));
#366=CARTESIAN_POINT('',(-27.2150433944069,17.3769491389543,-220.));
#367=CARTESIAN_POINT('',(0.,30.,-224.));
#368=CARTESIAN_POINT('',(27.2150433944069,17.3769491389543,-4.));
#369=CARTESIAN_POINT('',(28.0753321190505,19.2317143007699,-4.90295486584554));
#370=CARTESIAN_POINT('',(29.5488910551126,23.480346637904,-5.69132691492925));
#371=CARTESIAN_POINT('',(30.,27.9143249236817,-4.75979477933033));
#372=CARTESIAN_POINT('',(30.,30.,-4.));
#373=CARTESIAN_POINT('',(-27.2150433944069,17.3769491389543,-220.));
#374=CARTESIAN_POINT('',(-28.0753321190505,19.2317143007699,-219.097045134154));
#375=CARTESIAN_POINT('',(-29.5488910551126,23.480346637904,-218.308673085071));
#376=CARTESIAN_POINT('',(-30.,27.9143249236816,-219.24020522067));
#377=CARTESIAN_POINT('',(-30.,30.,-220.));
#378=CARTESIAN_POINT('',(26.,30.,15.));
#379=CARTESIAN_POINT('',(26.,11.,15.));
#380=CARTESIAN_POINT('',(22.,11.,15.));
#381=CARTESIAN_POINT('',(26.,11.,100.));
#382=CARTESIAN_POINT('',(26.,11.,100.));
#383=CARTESIAN_POINT('',(23.15,11.,100.));
#384=CARTESIAN_POINT('',(26.,11.,15.));
#385=CARTESIAN_POINT('',(28.85,11.,15.));
#386=CARTESIAN_POINT('',(26.,11.,100.));
#387=CARTESIAN_POINT('',(26.,11.,100.));
#388=CARTESIAN_POINT('',(22.,11.,100.));
#389=CARTESIAN_POINT('',(26.,11.,100.));
#390=CARTESIAN_POINT('',(0.,30.,-3.99999999999999));
#391=CARTESIAN_POINT('',(27.5096432725105,24.4597297970355,-0.443332844432915));
#392=CARTESIAN_POINT('',(25.9605965899577,24.2679237597522,0.0335812138521694));
#393=CARTESIAN_POINT('',(24.6491703676589,23.3679975103596,-0.0102006907681214));
#394=CARTESIAN_POINT('',(23.8502091863306,22.0289491444079,-0.0971782858798951));
#395=CARTESIAN_POINT('',(23.3828103635762,20.5532853393841,-0.0779371967309999));
#396=CARTESIAN_POINT('',(23.1416606070234,19.0546060741885,-0.0105976233536804));
#397=CARTESIAN_POINT('',(23.1324218904596,17.7594199461956,0.0165240464076413));
#398=CARTESIAN_POINT('',(23.3328727823268,16.7528405378941,-0.0731751528244857));
#399=CARTESIAN_POINT('',(23.6501143785166,16.0480733272885,-0.25111639420008));
#400=CARTESIAN_POINT('',(24.1902674542573,15.5765788219738,-0.604324018416576));
#401=CARTESIAN_POINT('',(24.8422562841579,15.5173636019181,-1.07333929954637));
#402=CARTESIAN_POINT('',(25.4373463313524,15.7527830749461,-1.52025982165353));
#403=CARTESIAN_POINT('',(26.1482358983071,16.2873152366218,-2.05946060530672));
#404=CARTESIAN_POINT('',(26.8894903529435,17.210626533071,-2.607915773436));
#405=CARTESIAN_POINT('',(27.6061210492763,18.5002832469034,-3.06006116823607));
#406=CARTESIAN_POINT('',(28.1976461299119,19.9074790493655,-3.28777200962402));
#407=CARTESIAN_POINT('',(28.6714775301055,21.3895134949084,-3.21606340069737));
#408=CARTESIAN_POINT('',(28.9473459570947,22.8567393271951,-2.66506834538153));
#409=CARTESIAN_POINT('',(28.6389270083832,23.9849410705637,-1.52998205636778));
#410=CARTESIAN_POINT('',(27.5096432725105,24.4597297970355,-0.443332844432915));
#411=CARTESIAN_POINT('',(25.9605965899577,24.2679237597522,0.0335812138521694));
#412=CARTESIAN_POINT('',(24.6491703676589,23.3679975103596,-0.0102006907681214));
#413=CARTESIAN_POINT('',(26.0002,24.1499037244007,-0.05320144663206));
#414=CARTESIAN_POINT('',(26.,30.,15.));
#415=CARTESIAN_POINT('',(-26.,30.,-239.));
#416=CARTESIAN_POINT('',(-26.,11.,-239.));
#417=CARTESIAN_POINT('',(-30.,11.,-239.));
#418=CARTESIAN_POINT('',(-26.,11.,-324.));
#419=CARTESIAN_POINT('',(-26.,11.,-324.));
#420=CARTESIAN_POINT('',(-28.85,11.,-324.));
#421=CARTESIAN_POINT('',(-26.,11.,-239.));
#422=CARTESIAN_POINT('',(-23.15,11.,-239.));
#423=CARTESIAN_POINT('',(-26.,11.,-324.));
#424=CARTESIAN_POINT('',(-26.,11.,-324.));
#425=CARTESIAN_POINT('',(-30.,11.,-324.));
#426=CARTESIAN_POINT('',(-26.,11.,-324.));
#427=CARTESIAN_POINT('',(0.,30.,-220.));
#428=CARTESIAN_POINT('',(-25.2670032310512,15.661212833287,-222.608620576656));
#429=CARTESIAN_POINT('',(-26.0093873799608,16.1476638322276,-222.0457321602));
#430=CARTESIAN_POINT('',(-26.7644766298199,17.0263450433665,-221.480727772579));
#431=CARTESIAN_POINT('',(-27.5060047823955,18.2945296185795,-220.995104581292));
#432=CARTESIAN_POINT('',(-28.1144503373903,19.6870067451494,-220.730485018523));
#433=CARTESIAN_POINT('',(-28.6068306641199,21.1564483823461,-220.747938336573));
#434=CARTESIAN_POINT('',(-28.9278860743777,22.6382558713101,-221.207445189429));
#435=CARTESIAN_POINT('',(-28.7471248854006,23.8428815802161,-222.26616035026));
#436=CARTESIAN_POINT('',(-27.7376580037337,24.4255878867226,-223.412510026801));
#437=CARTESIAN_POINT('',(-26.2256755947544,24.3514437218401,-224.000037016299));
#438=CARTESIAN_POINT('',(-24.8268228952885,23.5586638915687,-224.011492624708));
#439=CARTESIAN_POINT('',(-23.9522252569873,22.2594476095247,-223.908806862999));
#440=CARTESIAN_POINT('',(-23.4424311904455,20.7992601570671,-223.913795059553));
#441=CARTESIAN_POINT('',(-23.1661939377523,19.2909417242583,-223.978289846776));
#442=CARTESIAN_POINT('',(-23.1201384419379,18.0147307751087,-224.017405291418));
#443=CARTESIAN_POINT('',(-23.2714521673807,16.9861319014339,-223.956625093054));
#444=CARTESIAN_POINT('',(-23.5275687364214,16.2554956345507,-223.821387458994));
#445=CARTESIAN_POINT('',(-24.0052552640637,15.6773966306281,-223.521696030036));
#446=CARTESIAN_POINT('',(-24.6491725899962,15.4948734503577,-223.068701873503));
#447=CARTESIAN_POINT('',(-25.2670032310512,15.661212833287,-222.608620576656));
#448=CARTESIAN_POINT('',(-26.0093873799608,16.1476638322276,-222.0457321602));
#449=CARTESIAN_POINT('',(-26.7644766298199,17.0263450433665,-221.480727772579));
#450=CARTESIAN_POINT('',(-25.8122652803149,16.0440922466566,-222.195694673177));
#451=CARTESIAN_POINT('',(-26.,30.,-239.));
#452=MECHANICAL_DESIGN_GEOMETRIC_PRESENTATION_REPRESENTATION('',(#211),
#453);
#453=(
GEOMETRIC_REPRESENTATION_CONTEXT(3)
GLOBAL_UNCERTAINTY_ASSIGNED_CONTEXT((#454))
GLOBAL_UNIT_ASSIGNED_CONTEXT((#457,#456,#455))
REPRESENTATION_CONTEXT('197609 PUN-8X1,25-S-2-SW---(424)',
'TOP_LEVEL_ASSEMBLY_PART')
);
#454=UNCERTAINTY_MEASURE_WITH_UNIT(LENGTH_MEASURE(0.005),#457,
'DISTANCE_ACCURACY_VALUE','Maximum Tolerance applied to model');
#455=(
NAMED_UNIT(*)
SI_UNIT($,.STERADIAN.)
SOLID_ANGLE_UNIT()
);
#456=(
NAMED_UNIT(*)
PLANE_ANGLE_UNIT()
SI_UNIT($,.RADIAN.)
);
#457=(
LENGTH_UNIT()
NAMED_UNIT(*)
SI_UNIT(.MILLI.,.METRE.)
);
#458=PRODUCT_DEFINITION_SHAPE('','',#459);
#459=PRODUCT_DEFINITION('','',#461,#460);
#460=PRODUCT_DEFINITION_CONTEXT('',#467,'design');
#461=PRODUCT_DEFINITION_FORMATION_WITH_SPECIFIED_SOURCE('','',#463,
 .NOT_KNOWN.);
#462=PRODUCT_RELATED_PRODUCT_CATEGORY('','',(#463));
#463=PRODUCT('197609 PUN-8X1,25-S-2-SW---(424)',
'197609 PUN-8X1,25-S-2-SW---(424)','197609 PUN-8X1,25-S-2-SW---(424)',(#465));
#464=PRODUCT_CATEGORY('','');
#465=PRODUCT_CONTEXT('',#467,'mechanical');
#466=APPLICATION_PROTOCOL_DEFINITION('international standard',
'automotive_design',2010,#467);
#467=APPLICATION_CONTEXT(
'core data for automotive mechanical design processes');
ENDSEC;
END-ISO-10303-21;
