ISO-10303-21;
HEADER;
/* Generated by software containing ST-Developer
 * from STEP Tools, Inc. (www.steptools.com) 
 */
/* OPTION: using custom renumber hook */

FILE_DESCRIPTION(
/* description */ ('STEP AP214'),
/* implementation_level */ '2;1');

FILE_NAME(
/* name */ '197612_PUN-10X15-S-2-SW',
/* time_stamp */ '2024-09-13T20:15:57+02:00',
/* author */ ('License CC BY-ND 4.0'),
/* organization */ ('CADENAS'),
/* preprocessor_version */ 'ST-DEVELOPER v19.3',
/* originating_system */ 'PARTsolutions',
/* authorisation */ '  ');

FILE_SCHEMA (('AP242_MANAGED_MODEL_BASED_3D_ENGINEERING_MIM_LF { 1 0 10303 442 3 1 4 }',
'AUTOMOTIVE_DESIGN {1 0 10303 214 3 1 1}'));
ENDSEC;

DATA;
#10=PROPERTY_DEFINITION_REPRESENTATION(#14,#12);
#11=PROPERTY_DEFINITION_REPRESENTATION(#15,#13);
#12=REPRESENTATION('',(#16),#457);
#13=REPRESENTATION('',(#17),#457);
#14=PROPERTY_DEFINITION('pmi validation property','',#462);
#15=PROPERTY_DEFINITION('pmi validation property','',#462);
#16=VALUE_REPRESENTATION_ITEM('number of annotations',COUNT_MEASURE(0.));
#17=VALUE_REPRESENTATION_ITEM('number of views',COUNT_MEASURE(0.));
#18=SHAPE_REPRESENTATION_RELATIONSHIP('','',#221,#19);
#19=ADVANCED_BREP_SHAPE_REPRESENTATION('',(#219),#457);
#20=PLANE('',#240);
#21=PLANE('',#250);
#22=CYLINDRICAL_SURFACE('',#227,30.);
#23=CYLINDRICAL_SURFACE('',#232,40.);
#24=CYLINDRICAL_SURFACE('',#235,3.5);
#25=CYLINDRICAL_SURFACE('',#238,5.);
#26=CYLINDRICAL_SURFACE('',#245,3.5);
#27=CYLINDRICAL_SURFACE('',#248,5.);
#28=B_SPLINE_CURVE_WITH_KNOTS('',3,(#322,#323,#324,#325,#326,#327,#328,
#329,#330,#331,#332,#333,#334,#335,#336,#337,#338,#339,#340),
 .UNSPECIFIED.,.F.,.F.,(4,1,1,1,1,1,1,1,1,1,1,1,1,1,1,1,4),(-0.000223607878539923,
0.00341070892049115,0.00704502571952222,0.0106793425185533,0.0124965009180688,
0.0143136593175844,0.0161308177170999,0.0179479761166154,0.0188565553163732,
0.019765134516131,0.0206737137158888,0.0215822929156465,0.0224908721154043,
0.0233994513151621,0.0252166097146776,0.0270337681141931,0.0288509265137087),
 .UNSPECIFIED.);
#29=B_SPLINE_CURVE_WITH_KNOTS('',3,(#352,#353,#354,#355,#356,#357,#358,
#359,#360,#361,#362,#363,#364,#365,#366,#367,#368,#369,#370),
 .UNSPECIFIED.,.F.,.F.,(4,1,1,1,1,1,1,1,1,1,1,1,1,1,1,1,4),(-0.000223607878539912,
0.00341070892049128,0.00704502571952246,0.0106793425185536,0.0124965009180692,
0.0143136593175848,0.0161308177171004,0.017947976116616,0.0188565553163738,
0.0197651345161316,0.0206737137158894,0.0215822929156472,0.022490872115405,
0.0233994513151628,0.0252166097146784,0.027033768114194,0.0288509265137096),
 .UNSPECIFIED.);
#30=B_SPLINE_CURVE_WITH_KNOTS('',3,(#372,#373,#374,#375,#376),
 .UNSPECIFIED.,.F.,.F.,(4,1,4),(0.00061021061174318,0.00906521376931724,
0.0175202169268913),.UNSPECIFIED.);
#31=B_SPLINE_CURVE_WITH_KNOTS('',3,(#377,#378,#379,#380,#381),
 .UNSPECIFIED.,.F.,.F.,(4,1,4),(0.000610210611743181,0.00906521376931727,
0.0175202169268914),.UNSPECIFIED.);
#32=B_SPLINE_CURVE_WITH_KNOTS('',3,(#395,#396,#397,#398,#399,#400,#401,
#402,#403,#404,#405,#406,#407,#408,#409,#410,#411,#412,#413,#414,#415,#416),
 .UNSPECIFIED.,.T.,.F.,(1,1,1,1,1,1,1,1,1,1,1,1,1,1,1,1,1,1,1,1,1,1,1,1,
1,1),(-0.00572460133817288,-0.00381640089211525,-0.00190820044605763,0.,
0.00190820044605763,0.00381640089211525,0.00572460133817288,0.00763280178423051,
0.00954100223028814,0.0104951024533169,0.0114492026763458,0.0124033028993746,
0.0133574031224034,0.0143115033454322,0.015265603568461,0.0171738040145186,
0.0190820044605763,0.0209902049066339,0.0228984053526915,0.0248066057987492,
0.0267148062448068,0.0286230066908644,0.030531207136922,0.0324394075829797,
0.0343476080290373,0.0362558084750949),.UNSPECIFIED.);
#33=B_SPLINE_CURVE_WITH_KNOTS('',3,(#432,#433,#434,#435,#436,#437,#438,
#439,#440,#441,#442,#443,#444,#445,#446,#447,#448,#449,#450,#451,#452,#453),
 .UNSPECIFIED.,.T.,.F.,(1,1,1,1,1,1,1,1,1,1,1,1,1,1,1,1,1,1,1,1,1,1,1,1,
1,1),(-0.00287392749245499,-0.00191595166163666,-0.000957975830818331,0.,
0.00191595166163666,0.00383190332327332,0.00574785498490998,0.00766380664654665,
0.00957975830818331,0.01149570996982,0.0134116616314566,0.0153276132930933,
0.01724356495473,0.0191595166163666,0.0210754682780033,0.0229914199396399,
0.0249073716012766,0.0258653474320949,0.0268233232629133,0.0277812990937316,
0.0287392749245499,0.0296972507553683,0.0306552265861866,0.0325711782478232,
0.0344871299094599,0.0364030815710966),.UNSPECIFIED.);
#34=ORIENTED_EDGE('',*,*,#74,.T.);
#35=ORIENTED_EDGE('',*,*,#75,.F.);
#36=ORIENTED_EDGE('',*,*,#76,.F.);
#37=ORIENTED_EDGE('',*,*,#77,.T.);
#38=ORIENTED_EDGE('',*,*,#78,.T.);
#39=ORIENTED_EDGE('',*,*,#74,.F.);
#40=ORIENTED_EDGE('',*,*,#79,.T.);
#41=ORIENTED_EDGE('',*,*,#80,.T.);
#42=ORIENTED_EDGE('',*,*,#81,.F.);
#43=ORIENTED_EDGE('',*,*,#78,.F.);
#44=ORIENTED_EDGE('',*,*,#82,.F.);
#45=ORIENTED_EDGE('',*,*,#75,.T.);
#46=ORIENTED_EDGE('',*,*,#83,.F.);
#47=ORIENTED_EDGE('',*,*,#80,.F.);
#48=ORIENTED_EDGE('',*,*,#84,.F.);
#49=ORIENTED_EDGE('',*,*,#77,.F.);
#50=ORIENTED_EDGE('',*,*,#76,.T.);
#51=ORIENTED_EDGE('',*,*,#82,.T.);
#52=ORIENTED_EDGE('',*,*,#85,.T.);
#53=ORIENTED_EDGE('',*,*,#86,.T.);
#54=ORIENTED_EDGE('',*,*,#87,.F.);
#55=ORIENTED_EDGE('',*,*,#84,.T.);
#56=ORIENTED_EDGE('',*,*,#85,.F.);
#57=ORIENTED_EDGE('',*,*,#87,.T.);
#58=ORIENTED_EDGE('',*,*,#88,.T.);
#59=ORIENTED_EDGE('',*,*,#88,.F.);
#60=ORIENTED_EDGE('',*,*,#86,.F.);
#61=ORIENTED_EDGE('',*,*,#89,.F.);
#62=ORIENTED_EDGE('',*,*,#79,.F.);
#63=ORIENTED_EDGE('',*,*,#81,.T.);
#64=ORIENTED_EDGE('',*,*,#83,.T.);
#65=ORIENTED_EDGE('',*,*,#90,.T.);
#66=ORIENTED_EDGE('',*,*,#91,.T.);
#67=ORIENTED_EDGE('',*,*,#92,.F.);
#68=ORIENTED_EDGE('',*,*,#89,.T.);
#69=ORIENTED_EDGE('',*,*,#90,.F.);
#70=ORIENTED_EDGE('',*,*,#92,.T.);
#71=ORIENTED_EDGE('',*,*,#93,.T.);
#72=ORIENTED_EDGE('',*,*,#93,.F.);
#73=ORIENTED_EDGE('',*,*,#91,.F.);
#74=EDGE_CURVE('',#94,#94,#112,.T.);
#75=EDGE_CURVE('',#95,#96,#113,.T.);
#76=EDGE_CURVE('',#97,#95,#28,.T.);
#77=EDGE_CURVE('',#97,#96,#114,.T.);
#78=EDGE_CURVE('',#98,#98,#115,.T.);
#79=EDGE_CURVE('',#99,#100,#116,.T.);
#80=EDGE_CURVE('',#100,#101,#117,.T.);
#81=EDGE_CURVE('',#99,#101,#29,.T.);
#82=EDGE_CURVE('',#95,#96,#30,.T.);
#83=EDGE_CURVE('',#101,#100,#31,.T.);
#84=EDGE_CURVE('',#102,#102,#118,.T.);
#85=EDGE_CURVE('',#103,#103,#119,.T.);
#86=EDGE_CURVE('',#104,#104,#120,.T.);
#87=EDGE_CURVE('',#105,#105,#121,.T.);
#88=EDGE_CURVE('',#106,#106,#32,.T.);
#89=EDGE_CURVE('',#107,#107,#122,.T.);
#90=EDGE_CURVE('',#108,#108,#123,.T.);
#91=EDGE_CURVE('',#109,#109,#124,.T.);
#92=EDGE_CURVE('',#110,#110,#125,.T.);
#93=EDGE_CURVE('',#111,#111,#33,.T.);
#94=VERTEX_POINT('',#318);
#95=VERTEX_POINT('',#320);
#96=VERTEX_POINT('',#321);
#97=VERTEX_POINT('',#341);
#98=VERTEX_POINT('',#345);
#99=VERTEX_POINT('',#348);
#100=VERTEX_POINT('',#349);
#101=VERTEX_POINT('',#351);
#102=VERTEX_POINT('',#384);
#103=VERTEX_POINT('',#387);
#104=VERTEX_POINT('',#389);
#105=VERTEX_POINT('',#392);
#106=VERTEX_POINT('',#417);
#107=VERTEX_POINT('',#421);
#108=VERTEX_POINT('',#424);
#109=VERTEX_POINT('',#426);
#110=VERTEX_POINT('',#429);
#111=VERTEX_POINT('',#454);
#112=CIRCLE('',#224,30.);
#113=CIRCLE('',#225,40.);
#114=CIRCLE('',#226,5.);
#115=CIRCLE('',#228,30.);
#116=CIRCLE('',#230,5.);
#117=CIRCLE('',#231,40.);
#118=CIRCLE('',#234,5.);
#119=CIRCLE('',#236,3.5);
#120=CIRCLE('',#237,3.5);
#121=CIRCLE('',#239,5.);
#122=CIRCLE('',#244,5.);
#123=CIRCLE('',#246,3.5);
#124=CIRCLE('',#247,3.5);
#125=CIRCLE('',#249,5.);
#126=EDGE_LOOP('',(#34));
#127=EDGE_LOOP('',(#35,#36,#37));
#128=EDGE_LOOP('',(#38));
#129=EDGE_LOOP('',(#39));
#130=EDGE_LOOP('',(#40,#41,#42));
#131=EDGE_LOOP('',(#43));
#132=EDGE_LOOP('',(#44,#45));
#133=EDGE_LOOP('',(#46,#47));
#134=EDGE_LOOP('',(#48));
#135=EDGE_LOOP('',(#49,#50,#51));
#136=EDGE_LOOP('',(#52));
#137=EDGE_LOOP('',(#53));
#138=EDGE_LOOP('',(#54));
#139=EDGE_LOOP('',(#55));
#140=EDGE_LOOP('',(#56));
#141=EDGE_LOOP('',(#57));
#142=EDGE_LOOP('',(#58));
#143=EDGE_LOOP('',(#59));
#144=EDGE_LOOP('',(#60));
#145=EDGE_LOOP('',(#61));
#146=EDGE_LOOP('',(#62,#63,#64));
#147=EDGE_LOOP('',(#65));
#148=EDGE_LOOP('',(#66));
#149=EDGE_LOOP('',(#67));
#150=EDGE_LOOP('',(#68));
#151=EDGE_LOOP('',(#69));
#152=EDGE_LOOP('',(#70));
#153=EDGE_LOOP('',(#71));
#154=EDGE_LOOP('',(#72));
#155=EDGE_LOOP('',(#73));
#156=FACE_BOUND('',#126,.T.);
#157=FACE_BOUND('',#127,.T.);
#158=FACE_BOUND('',#128,.T.);
#159=FACE_BOUND('',#129,.T.);
#160=FACE_BOUND('',#130,.T.);
#161=FACE_BOUND('',#131,.T.);
#162=FACE_BOUND('',#132,.T.);
#163=FACE_BOUND('',#133,.T.);
#164=FACE_BOUND('',#134,.T.);
#165=FACE_BOUND('',#135,.T.);
#166=FACE_BOUND('',#136,.T.);
#167=FACE_BOUND('',#137,.T.);
#168=FACE_BOUND('',#138,.T.);
#169=FACE_BOUND('',#139,.T.);
#170=FACE_BOUND('',#140,.T.);
#171=FACE_BOUND('',#141,.T.);
#172=FACE_BOUND('',#142,.T.);
#173=FACE_BOUND('',#143,.T.);
#174=FACE_BOUND('',#144,.T.);
#175=FACE_BOUND('',#145,.T.);
#176=FACE_BOUND('',#146,.T.);
#177=FACE_BOUND('',#147,.T.);
#178=FACE_BOUND('',#148,.T.);
#179=FACE_BOUND('',#149,.T.);
#180=FACE_BOUND('',#150,.T.);
#181=FACE_BOUND('',#151,.T.);
#182=FACE_BOUND('',#152,.T.);
#183=FACE_BOUND('',#153,.T.);
#184=FACE_BOUND('',#154,.T.);
#185=FACE_BOUND('',#155,.T.);
#186=TOROIDAL_SURFACE('',#223,35.,4.99999999999999);
#187=TOROIDAL_SURFACE('',#229,35.,5.);
#188=TOROIDAL_SURFACE('',#233,25.,5.);
#189=TOROIDAL_SURFACE('',#241,35.,4.99999999999999);
#190=TOROIDAL_SURFACE('',#242,25.,3.5);
#191=TOROIDAL_SURFACE('',#243,25.,5.);
#192=TOROIDAL_SURFACE('',#251,35.,5.);
#193=TOROIDAL_SURFACE('',#252,25.,3.5);
#194=ADVANCED_FACE('',(#156,#157),#186,.T.);
#195=ADVANCED_FACE('',(#158,#159),#22,.F.);
#196=ADVANCED_FACE('',(#160,#161),#187,.T.);
#197=ADVANCED_FACE('',(#162,#163),#23,.T.);
#198=ADVANCED_FACE('',(#164,#165),#188,.T.);
#199=ADVANCED_FACE('',(#166,#167),#24,.F.);
#200=ADVANCED_FACE('',(#168,#169),#25,.T.);
#201=ADVANCED_FACE('',(#170,#171),#20,.T.);
#202=ADVANCED_FACE('',(#172),#189,.T.);
#203=ADVANCED_FACE('',(#173,#174),#190,.F.);
#204=ADVANCED_FACE('',(#175,#176),#191,.T.);
#205=ADVANCED_FACE('',(#177,#178),#26,.F.);
#206=ADVANCED_FACE('',(#179,#180),#27,.T.);
#207=ADVANCED_FACE('',(#181,#182),#21,.T.);
#208=ADVANCED_FACE('',(#183),#192,.T.);
#209=ADVANCED_FACE('',(#184,#185),#193,.F.);
#210=CLOSED_SHELL('',(#194,#195,#196,#197,#198,#199,#200,#201,#202,#203,
#204,#205,#206,#207,#208,#209));
#211=STYLED_ITEM('',(#212),#219);
#212=PRESENTATION_STYLE_ASSIGNMENT((#213));
#213=SURFACE_STYLE_USAGE(.BOTH.,#214);
#214=SURFACE_SIDE_STYLE('',(#215));
#215=SURFACE_STYLE_FILL_AREA(#216);
#216=FILL_AREA_STYLE('',(#217));
#217=FILL_AREA_STYLE_COLOUR('',#218);
#218=DRAUGHTING_PRE_DEFINED_COLOUR('black');
#219=MANIFOLD_SOLID_BREP('197612 PUN-10X1,5-S-2-SW---(430)',#210);
#220=SHAPE_DEFINITION_REPRESENTATION(#462,#221);
#221=SHAPE_REPRESENTATION('197612 PUN-10X1,5-S-2-SW---(430)',(#222),#457);
#222=AXIS2_PLACEMENT_3D('',#315,#253,#254);
#223=AXIS2_PLACEMENT_3D('',#316,#255,#256);
#224=AXIS2_PLACEMENT_3D('',#317,#257,#258);
#225=AXIS2_PLACEMENT_3D('',#319,#259,#260);
#226=AXIS2_PLACEMENT_3D('',#342,#261,#262);
#227=AXIS2_PLACEMENT_3D('',#343,#263,#264);
#228=AXIS2_PLACEMENT_3D('',#344,#265,#266);
#229=AXIS2_PLACEMENT_3D('',#346,#267,#268);
#230=AXIS2_PLACEMENT_3D('',#347,#269,#270);
#231=AXIS2_PLACEMENT_3D('',#350,#271,#272);
#232=AXIS2_PLACEMENT_3D('',#371,#273,#274);
#233=AXIS2_PLACEMENT_3D('',#382,#275,#276);
#234=AXIS2_PLACEMENT_3D('',#383,#277,#278);
#235=AXIS2_PLACEMENT_3D('',#385,#279,#280);
#236=AXIS2_PLACEMENT_3D('',#386,#281,#282);
#237=AXIS2_PLACEMENT_3D('',#388,#283,#284);
#238=AXIS2_PLACEMENT_3D('',#390,#285,#286);
#239=AXIS2_PLACEMENT_3D('',#391,#287,#288);
#240=AXIS2_PLACEMENT_3D('',#393,#289,#290);
#241=AXIS2_PLACEMENT_3D('',#394,#291,#292);
#242=AXIS2_PLACEMENT_3D('',#418,#293,#294);
#243=AXIS2_PLACEMENT_3D('',#419,#295,#296);
#244=AXIS2_PLACEMENT_3D('',#420,#297,#298);
#245=AXIS2_PLACEMENT_3D('',#422,#299,#300);
#246=AXIS2_PLACEMENT_3D('',#423,#301,#302);
#247=AXIS2_PLACEMENT_3D('',#425,#303,#304);
#248=AXIS2_PLACEMENT_3D('',#427,#305,#306);
#249=AXIS2_PLACEMENT_3D('',#428,#307,#308);
#250=AXIS2_PLACEMENT_3D('',#430,#309,#310);
#251=AXIS2_PLACEMENT_3D('',#431,#311,#312);
#252=AXIS2_PLACEMENT_3D('',#455,#313,#314);
#253=DIRECTION('',(0.,0.,1.));
#254=DIRECTION('',(1.,0.,0.));
#255=DIRECTION('',(0.,0.,-1.));
#256=DIRECTION('',(-1.,0.,0.));
#257=DIRECTION('',(0.,0.,-1.));
#258=DIRECTION('',(-1.,0.,0.));
#259=DIRECTION('',(0.,0.,-1.));
#260=DIRECTION('',(-1.,0.,0.));
#261=DIRECTION('',(0.,1.,0.));
#262=DIRECTION('',(1.,0.,0.));
#263=DIRECTION('',(0.,0.,-1.));
#264=DIRECTION('',(-1.,0.,0.));
#265=DIRECTION('',(0.,0.,-1.));
#266=DIRECTION('',(-1.,0.,0.));
#267=DIRECTION('',(0.,0.,-1.));
#268=DIRECTION('',(-1.,0.,0.));
#269=DIRECTION('',(0.,1.,0.));
#270=DIRECTION('',(1.,0.,0.));
#271=DIRECTION('',(0.,0.,-1.));
#272=DIRECTION('',(-1.,0.,0.));
#273=DIRECTION('',(0.,0.,-1.));
#274=DIRECTION('',(-1.,0.,0.));
#275=DIRECTION('',(1.,0.,0.));
#276=DIRECTION('',(0.,0.,-1.));
#277=DIRECTION('',(0.,0.,1.));
#278=DIRECTION('',(-1.,0.,0.));
#279=DIRECTION('',(0.,0.,-1.));
#280=DIRECTION('',(-1.,0.,0.));
#281=DIRECTION('',(0.,0.,1.));
#282=DIRECTION('',(-1.,0.,0.));
#283=DIRECTION('',(0.,6.12323399573677E-17,-1.));
#284=DIRECTION('',(1.,0.,0.));
#285=DIRECTION('',(0.,0.,-1.));
#286=DIRECTION('',(-1.,0.,0.));
#287=DIRECTION('',(0.,0.,1.));
#288=DIRECTION('',(-1.,0.,0.));
#289=DIRECTION('',(0.,0.,1.));
#290=DIRECTION('',(1.,0.,0.));
#291=DIRECTION('',(0.,0.,-1.));
#292=DIRECTION('',(-1.,0.,0.));
#293=DIRECTION('',(1.,0.,0.));
#294=DIRECTION('',(0.,0.,-1.));
#295=DIRECTION('',(-1.,0.,0.));
#296=DIRECTION('',(0.,0.,1.));
#297=DIRECTION('',(0.,0.,-1.));
#298=DIRECTION('',(-1.,0.,0.));
#299=DIRECTION('',(0.,0.,1.));
#300=DIRECTION('',(1.,0.,0.));
#301=DIRECTION('',(0.,0.,-1.));
#302=DIRECTION('',(-1.,0.,0.));
#303=DIRECTION('',(0.,6.12323399573677E-17,1.));
#304=DIRECTION('',(1.,0.,0.));
#305=DIRECTION('',(0.,0.,1.));
#306=DIRECTION('',(1.,0.,0.));
#307=DIRECTION('',(0.,0.,-1.));
#308=DIRECTION('',(-1.,0.,0.));
#309=DIRECTION('',(0.,0.,-1.));
#310=DIRECTION('',(-1.,0.,0.));
#311=DIRECTION('',(0.,0.,-1.));
#312=DIRECTION('',(-1.,0.,0.));
#313=DIRECTION('',(-1.,0.,0.));
#314=DIRECTION('',(0.,0.,1.));
#315=CARTESIAN_POINT('',(0.,0.,0.));
#316=CARTESIAN_POINT('',(0.,40.,-4.99999999999999));
#317=CARTESIAN_POINT('',(0.,40.,-5.));
#318=CARTESIAN_POINT('',(-30.,40.,-5.));
#319=CARTESIAN_POINT('',(0.,40.,-5.));
#320=CARTESIAN_POINT('',(36.6216216216216,23.9109717570397,-5.));
#321=CARTESIAN_POINT('',(40.,40.,-5.));
#322=CARTESIAN_POINT('',(30.9313326439663,40.,-2.09380903140452));
#323=CARTESIAN_POINT('',(30.9320427269022,38.7885564435614,-2.09281491529437));
#324=CARTESIAN_POINT('',(30.857690894316,36.3661435112341,-1.99293466984802));
#325=CARTESIAN_POINT('',(30.5660434691437,32.7661963181786,-1.56638188112734));
#326=CARTESIAN_POINT('',(30.2565841568728,29.7975603917279,-1.05046511991962));
#327=CARTESIAN_POINT('',(30.0620805512795,27.4225258624708,-0.612199909973998));
#328=CARTESIAN_POINT('',(29.9808394274677,25.6338976199768,-0.300299304286361));
#329=CARTESIAN_POINT('',(30.0233044750934,23.8314599374879,-0.0513752744578508));
#330=CARTESIAN_POINT('',(30.2455586824635,22.3335587554435,0.033936387253054));
#331=CARTESIAN_POINT('',(30.6512969025432,21.1906864922075,-0.0732389451650431));
#332=CARTESIAN_POINT('',(31.1189787285883,20.4271870601092,-0.292989498771666));
#333=CARTESIAN_POINT('',(31.7636353685488,19.8966362326434,-0.690383224307116));
#334=CARTESIAN_POINT('',(32.5009286547904,19.7134399031731,-1.22257552344716));
#335=CARTESIAN_POINT('',(33.213573653635,19.8321648406285,-1.78946222450752));
#336=CARTESIAN_POINT('',(34.0774090159353,20.2563518541555,-2.52307657497579));
#337=CARTESIAN_POINT('',(34.9998744747963,21.1144426033274,-3.3677667714962));
#338=CARTESIAN_POINT('',(35.9043851266613,22.4184372577904,-4.25307063451641));
#339=CARTESIAN_POINT('',(36.3978082551284,23.401530894745,-4.76339729827859));
#340=CARTESIAN_POINT('',(36.6216216216216,23.9109717570397,-5.00000000000002));
#341=CARTESIAN_POINT('',(30.9313326439663,40.,-2.09380903140451));
#342=CARTESIAN_POINT('',(35.,40.,-5.));
#343=CARTESIAN_POINT('',(0.,40.,-230.));
#344=CARTESIAN_POINT('',(0.,40.,-225.));
#345=CARTESIAN_POINT('',(-30.,40.,-225.));
#346=CARTESIAN_POINT('',(0.,40.,-225.));
#347=CARTESIAN_POINT('',(-35.,40.,-225.));
#348=CARTESIAN_POINT('',(-30.9313326439663,40.,-227.906190968595));
#349=CARTESIAN_POINT('',(-40.,40.,-225.));
#350=CARTESIAN_POINT('',(0.,40.,-225.));
#351=CARTESIAN_POINT('',(-36.6216216216216,23.9109717570396,-225.));
#352=CARTESIAN_POINT('',(-30.9313326439663,40.,-227.906190968595));
#353=CARTESIAN_POINT('',(-30.9320427268674,38.7885564435612,-227.907185084657));
#354=CARTESIAN_POINT('',(-30.857690894332,36.3661435112342,-228.007065330174));
#355=CARTESIAN_POINT('',(-30.5660434691393,32.7661963181785,-228.433618118866));
#356=CARTESIAN_POINT('',(-30.2565841568733,29.7975603917279,-228.949534880081));
#357=CARTESIAN_POINT('',(-30.0620805512795,27.4225258624708,-229.387800090026));
#358=CARTESIAN_POINT('',(-29.9808394274677,25.6338976199768,-229.699700695714));
#359=CARTESIAN_POINT('',(-30.0233044750934,23.8314599374878,-229.948624725542));
#360=CARTESIAN_POINT('',(-30.2455586824634,22.3335587554439,-230.033936387253));
#361=CARTESIAN_POINT('',(-30.6512969025433,21.1906864922073,-229.926761054835));
#362=CARTESIAN_POINT('',(-31.1189787285883,20.4271870601094,-229.707010501228));
#363=CARTESIAN_POINT('',(-31.7636353685488,19.8966362326435,-229.309616775693));
#364=CARTESIAN_POINT('',(-32.5009286547902,19.7134399031732,-228.777424476553));
#365=CARTESIAN_POINT('',(-33.2135736536349,19.8321648406284,-228.210537775493));
#366=CARTESIAN_POINT('',(-34.0774090159354,20.2563518541555,-227.476923425024));
#367=CARTESIAN_POINT('',(-34.9998744747962,21.1144426033273,-226.632233228504));
#368=CARTESIAN_POINT('',(-35.9043851266613,22.4184372577904,-225.746929365484));
#369=CARTESIAN_POINT('',(-36.3978082551283,23.4015308947448,-225.236602701721));
#370=CARTESIAN_POINT('',(-36.6216216216216,23.9109717570396,-225.));
#371=CARTESIAN_POINT('',(0.,40.,-230.));
#372=CARTESIAN_POINT('',(36.6216216216216,23.9109717570397,-5.));
#373=CARTESIAN_POINT('',(37.671182431492,26.299967429589,-6.10953571329156));
#374=CARTESIAN_POINT('',(39.4517218355028,31.7138948565625,-7.07885388739503));
#375=CARTESIAN_POINT('',(40.,37.3422191575816,-5.93766266570733));
#376=CARTESIAN_POINT('',(40.,40.,-5.00000000000001));
#377=CARTESIAN_POINT('',(-36.6216216216216,23.9109717570396,-225.));
#378=CARTESIAN_POINT('',(-37.671182431492,26.2999674295889,-223.890464286708));
#379=CARTESIAN_POINT('',(-39.4517218355028,31.7138948565624,-222.921146112605));
#380=CARTESIAN_POINT('',(-40.,37.3422191575816,-224.062337334293));
#381=CARTESIAN_POINT('',(-40.,40.,-225.));
#382=CARTESIAN_POINT('',(35.,40.,20.));
#383=CARTESIAN_POINT('',(35.,15.,20.));
#384=CARTESIAN_POINT('',(30.,15.,20.));
#385=CARTESIAN_POINT('',(35.,15.,100.));
#386=CARTESIAN_POINT('',(35.,15.,100.));
#387=CARTESIAN_POINT('',(31.5,15.,100.));
#388=CARTESIAN_POINT('',(35.,15.,20.));
#389=CARTESIAN_POINT('',(38.5,15.,20.));
#390=CARTESIAN_POINT('',(35.,15.,100.));
#391=CARTESIAN_POINT('',(35.,15.,100.));
#392=CARTESIAN_POINT('',(30.,15.,100.));
#393=CARTESIAN_POINT('',(35.,15.,100.));
#394=CARTESIAN_POINT('',(0.,40.,-4.99999999999999));
#395=CARTESIAN_POINT('',(36.8772688538356,32.6973536453447,-0.563153430309835));
#396=CARTESIAN_POINT('',(34.9460041642897,32.4410866371508,0.0364990077671626));
#397=CARTESIAN_POINT('',(33.3399144890056,31.2915234348082,-0.00807120387952493));
#398=CARTESIAN_POINT('',(32.3619798623075,29.6202646789139,-0.109330471365312));
#399=CARTESIAN_POINT('',(31.7884306328431,27.790009745463,-0.0917193596474857));
#400=CARTESIAN_POINT('',(31.4926312154942,25.9154196753461,-0.0153421172492993));
#401=CARTESIAN_POINT('',(31.4758318505605,24.327416812209,0.0202640962092198));
#402=CARTESIAN_POINT('',(31.7092952172382,23.0597415776585,-0.0755582463496772));
#403=CARTESIAN_POINT('',(32.0753499086838,22.1713586872957,-0.268626476675631));
#404=CARTESIAN_POINT('',(32.7317986640901,21.5294245843387,-0.680079265157433));
#405=CARTESIAN_POINT('',(33.5496911086468,21.4251832879217,-1.25287584822788));
#406=CARTESIAN_POINT('',(34.2984431582682,21.7162235218341,-1.80487360879846));
#407=CARTESIAN_POINT('',(35.1860049654121,22.3912164873579,-2.46835163235538));
#408=CARTESIAN_POINT('',(36.0944517530099,23.5409514860691,-3.13414628394681));
#409=CARTESIAN_POINT('',(36.9822497026291,25.1647330405726,-3.69209378981814));
#410=CARTESIAN_POINT('',(37.7009808525473,26.9098988221594,-3.97336450880287));
#411=CARTESIAN_POINT('',(38.2785774398131,28.7621549249774,-3.90168414313512));
#412=CARTESIAN_POINT('',(38.6141408903347,30.6031717038205,-3.26990877896747));
#413=CARTESIAN_POINT('',(38.2647924563921,32.0621497818211,-1.92088865485357));
#414=CARTESIAN_POINT('',(36.8772688538356,32.6973536453447,-0.563153430309835));
#415=CARTESIAN_POINT('',(34.9460041642897,32.4410866371508,0.0364990077671626));
#416=CARTESIAN_POINT('',(33.3399144890056,31.2915234348082,-0.00807120387952493));
#417=CARTESIAN_POINT('',(35.0002,32.292203938126,-0.0708714338534515));
#418=CARTESIAN_POINT('',(35.,40.,20.));
#419=CARTESIAN_POINT('',(-35.,40.,-250.));
#420=CARTESIAN_POINT('',(-35.,15.,-250.));
#421=CARTESIAN_POINT('',(-40.,15.,-250.));
#422=CARTESIAN_POINT('',(-35.,15.,-330.));
#423=CARTESIAN_POINT('',(-35.,15.,-330.));
#424=CARTESIAN_POINT('',(-38.5,15.,-330.));
#425=CARTESIAN_POINT('',(-35.,15.,-250.));
#426=CARTESIAN_POINT('',(-31.5,15.,-250.));
#427=CARTESIAN_POINT('',(-35.,15.,-330.));
#428=CARTESIAN_POINT('',(-35.,15.,-330.));
#429=CARTESIAN_POINT('',(-40.,15.,-330.));
#430=CARTESIAN_POINT('',(-35.,15.,-330.));
#431=CARTESIAN_POINT('',(0.,40.,-225.));
#432=CARTESIAN_POINT('',(-33.9876124374927,21.5587312318551,-228.426071527562));
#433=CARTESIAN_POINT('',(-34.9175453019315,22.1245339047701,-227.732722133426));
#434=CARTESIAN_POINT('',(-35.8801865490583,23.2213495090536,-227.017283544007));
#435=CARTESIAN_POINT('',(-36.79652927521,24.7821624316193,-226.411901040276));
#436=CARTESIAN_POINT('',(-37.5571759037066,26.5220371303915,-226.06147588076));
#437=CARTESIAN_POINT('',(-38.1629473616936,28.3406568171833,-226.044717946731));
#438=CARTESIAN_POINT('',(-38.5745703513411,30.2001386996241,-226.521560888437));
#439=CARTESIAN_POINT('',(-38.4361518838109,31.7958388972586,-227.733663792931));
#440=CARTESIAN_POINT('',(-37.2673972823683,32.6278169686514,-229.178551421633));
#441=CARTESIAN_POINT('',(-35.401765007615,32.5858186637477,-229.972376161153));
#442=CARTESIAN_POINT('',(-33.6467356780324,31.6208918253709,-230.025685320345));
#443=CARTESIAN_POINT('',(-32.5380168581315,30.0181318598989,-229.901982754833));
#444=CARTESIAN_POINT('',(-31.889236791237,28.1995835974728,-229.896507233461));
#445=CARTESIAN_POINT('',(-31.5348951200573,26.3325476723294,-229.967108356306));
#446=CARTESIAN_POINT('',(-31.462155724595,24.7202271550784,-230.018481054545));
#447=CARTESIAN_POINT('',(-31.6180232262473,23.4512174887981,-229.965028685392));
#448=CARTESIAN_POINT('',(-31.8913276598704,22.5344055958599,-229.833006493475));
#449=CARTESIAN_POINT('',(-32.4155491541128,21.7486746483353,-229.525665355158));
#450=CARTESIAN_POINT('',(-33.1999359968283,21.4047606964714,-228.997574339308));
#451=CARTESIAN_POINT('',(-33.9876124374927,21.5587312318551,-228.426071527562));
#452=CARTESIAN_POINT('',(-34.9175453019315,22.1245339047701,-227.732722133426));
#453=CARTESIAN_POINT('',(-35.8801865490583,23.2213495090536,-227.017283544007));
#454=CARTESIAN_POINT('',(-34.6717437635937,22.009054054084,-227.916142692177));
#455=CARTESIAN_POINT('',(-35.,40.,-250.));
#456=MECHANICAL_DESIGN_GEOMETRIC_PRESENTATION_REPRESENTATION('',(#211),
#457);
#457=(
GEOMETRIC_REPRESENTATION_CONTEXT(3)
GLOBAL_UNCERTAINTY_ASSIGNED_CONTEXT((#458))
GLOBAL_UNIT_ASSIGNED_CONTEXT((#461,#460,#459))
REPRESENTATION_CONTEXT('197612 PUN-10X1,5-S-2-SW---(430)',
'TOP_LEVEL_ASSEMBLY_PART')
);
#458=UNCERTAINTY_MEASURE_WITH_UNIT(LENGTH_MEASURE(0.005),#461,
'DISTANCE_ACCURACY_VALUE','Maximum Tolerance applied to model');
#459=(
NAMED_UNIT(*)
SI_UNIT($,.STERADIAN.)
SOLID_ANGLE_UNIT()
);
#460=(
NAMED_UNIT(*)
PLANE_ANGLE_UNIT()
SI_UNIT($,.RADIAN.)
);
#461=(
LENGTH_UNIT()
NAMED_UNIT(*)
SI_UNIT(.MILLI.,.METRE.)
);
#462=PRODUCT_DEFINITION_SHAPE('','',#463);
#463=PRODUCT_DEFINITION('','',#465,#464);
#464=PRODUCT_DEFINITION_CONTEXT('',#471,'design');
#465=PRODUCT_DEFINITION_FORMATION_WITH_SPECIFIED_SOURCE('','',#467,
 .NOT_KNOWN.);
#466=PRODUCT_RELATED_PRODUCT_CATEGORY('','',(#467));
#467=PRODUCT('197612 PUN-10X1,5-S-2-SW---(430)',
'197612 PUN-10X1,5-S-2-SW---(430)','197612 PUN-10X1,5-S-2-SW---(430)',(#469));
#468=PRODUCT_CATEGORY('','');
#469=PRODUCT_CONTEXT('',#471,'mechanical');
#470=APPLICATION_PROTOCOL_DEFINITION('international standard',
'automotive_design',2010,#471);
#471=APPLICATION_CONTEXT(
'core data for automotive mechanical design processes');
ENDSEC;
END-ISO-10303-21;
