ISO-10303-21;
HEADER;
/* Generated by software containing ST-Developer
 * from STEP Tools, Inc. (www.steptools.com) 
 */
/* OPTION: using custom renumber hook */

FILE_DESCRIPTION(
/* description */ ('STEP AP214'),
/* implementation_level */ '2;1');

FILE_NAME(
/* name */ '197615_PUN-12X2-S-2-SW',
/* time_stamp */ '2024-09-13T20:23:30+02:00',
/* author */ ('License CC BY-ND 4.0'),
/* organization */ ('CADENAS'),
/* preprocessor_version */ 'ST-DEVELOPER v19.3',
/* originating_system */ 'PARTsolutions',
/* authorisation */ '  ');

FILE_SCHEMA (('AUTOMOTIVE_DESIGN {1 0 10303 214 3 1 1}'));
ENDSEC;

DATA;
#10=PROPERTY_DEFINITION_REPRESENTATION(#14,#12);
#11=PROPERTY_DEFINITION_REPRESENTATION(#15,#13);
#12=REPRESENTATION('',(#16),#461);
#13=REPRESENTATION('',(#17),#461);
#14=PROPERTY_DEFINITION('pmi validation property','',#466);
#15=PROPERTY_DEFINITION('pmi validation property','',#466);
#16=VALUE_REPRESENTATION_ITEM('number of annotations',COUNT_MEASURE(0.));
#17=VALUE_REPRESENTATION_ITEM('number of views',COUNT_MEASURE(0.));
#18=SHAPE_REPRESENTATION_RELATIONSHIP('','',#221,#19);
#19=ADVANCED_BREP_SHAPE_REPRESENTATION('',(#219),#461);
#20=PLANE('',#240);
#21=PLANE('',#250);
#22=CYLINDRICAL_SURFACE('',#227,35.5);
#23=CYLINDRICAL_SURFACE('',#232,47.5);
#24=CYLINDRICAL_SURFACE('',#235,4.);
#25=CYLINDRICAL_SURFACE('',#238,6.);
#26=CYLINDRICAL_SURFACE('',#245,4.);
#27=CYLINDRICAL_SURFACE('',#248,6.);
#28=B_SPLINE_CURVE_WITH_KNOTS('',3,(#322,#323,#324,#325,#326,#327,#328,
#329,#330,#331,#332,#333,#334,#335,#336,#337,#338,#339,#340),
 .UNSPECIFIED.,.F.,.F.,(4,1,1,1,1,1,1,1,1,1,1,1,1,1,1,1,4),(-0.00024392721438849,
0.00409041500845793,0.00842475723130435,0.0127590994541508,0.014926270565574,
0.0170934416769972,0.0192606127884204,0.0214277838998436,0.0225113694555552,
0.0235949550112668,0.0246785405669784,0.02576212612269,0.0268457116784016,
0.0279292972341132,0.0300964683455365,0.0322636394569597,0.0344308105683829),
 .UNSPECIFIED.);
#29=B_SPLINE_CURVE_WITH_KNOTS('',3,(#352,#353,#354,#355,#356,#357,#358,
#359,#360,#361,#362,#363,#364,#365,#366,#367,#368,#369,#370),
 .UNSPECIFIED.,.F.,.F.,(4,1,1,1,1,1,1,1,1,1,1,1,1,1,1,1,4),(-0.000243927214388632,
0.00409041500859014,0.00842475723156891,0.0127590994545477,0.0149262705660371,
0.0170934416775265,0.0192606127890158,0.0214277839005052,0.0225113694562499,
0.0235949550119946,0.0246785405677393,0.025762126123484,0.0268457116792287,
0.0279292972349734,0.0300964683464628,0.0322636394579522,0.0344308105694415),
 .UNSPECIFIED.);
#30=B_SPLINE_CURVE_WITH_KNOTS('',3,(#372,#373,#374,#375,#376,#377,#378),
 .UNSPECIFIED.,.F.,.F.,(4,1,1,1,4),(0.00072835132880622,0.00578826065901799,
0.0108481699892298,0.0159080793194415,0.0209679886496533),.UNSPECIFIED.);
#31=B_SPLINE_CURVE_WITH_KNOTS('',3,(#379,#380,#381,#382,#383,#384,#385),
 .UNSPECIFIED.,.F.,.F.,(4,1,1,1,4),(0.000728351328806241,0.00578826065901803,
0.0108481699892298,0.0159080793194416,0.0209679886496534),.UNSPECIFIED.);
#32=B_SPLINE_CURVE_WITH_KNOTS('',3,(#399,#400,#401,#402,#403,#404,#405,
#406,#407,#408,#409,#410,#411,#412,#413,#414,#415,#416,#417,#418,#419,#420),
 .UNSPECIFIED.,.T.,.F.,(1,1,1,1,1,1,1,1,1,1,1,1,1,1,1,1,1,1,1,1,1,1,1,1,
1,1),(-0.00646311540927963,-0.00430874360618642,-0.00215437180309321,0.,
0.00215437180309321,0.00430874360618642,0.00646311540927963,0.00861748721237284,
0.0107718590154661,0.0118490449170127,0.0129262308185593,0.0140034167201059,
0.0150806026216525,0.0161577885231991,0.0172349744247457,0.0193893462278389,
0.0215437180309321,0.0236980898340253,0.0258524616371185,0.0280068334402117,
0.030161205243305,0.0323155770463982,0.0344699488494914,0.0366243206525846,
0.0387786924556778,0.040933064258771),.UNSPECIFIED.);
#33=B_SPLINE_CURVE_WITH_KNOTS('',3,(#436,#437,#438,#439,#440,#441,#442,
#443,#444,#445,#446,#447,#448,#449,#450,#451,#452,#453,#454,#455,#456,#457),
 .UNSPECIFIED.,.T.,.F.,(1,1,1,1,1,1,1,1,1,1,1,1,1,1,1,1,1,1,1,1,1,1,1,1,
1,1),(-0.00323414255360505,-0.0021560950357367,-0.00107804751786835,0.,
0.0021560950357367,0.00431219007147341,0.00646828510721011,0.00862438014294681,
0.0107804751786835,0.0129365702144202,0.0150926652501569,0.0172487602858936,
0.0194048553216303,0.021560950357367,0.0237170453931037,0.0258731404288404,
0.0280292354645771,0.0291072829824455,0.0301853305003138,0.0312633780181822,
0.0323414255360506,0.0334194730539189,0.0344975205717873,0.036653615607524,
0.0388097106432607,0.0409658056789974),.UNSPECIFIED.);
#34=ORIENTED_EDGE('',*,*,#74,.T.);
#35=ORIENTED_EDGE('',*,*,#75,.F.);
#36=ORIENTED_EDGE('',*,*,#76,.F.);
#37=ORIENTED_EDGE('',*,*,#77,.T.);
#38=ORIENTED_EDGE('',*,*,#78,.T.);
#39=ORIENTED_EDGE('',*,*,#74,.F.);
#40=ORIENTED_EDGE('',*,*,#79,.T.);
#41=ORIENTED_EDGE('',*,*,#80,.T.);
#42=ORIENTED_EDGE('',*,*,#81,.F.);
#43=ORIENTED_EDGE('',*,*,#78,.F.);
#44=ORIENTED_EDGE('',*,*,#82,.F.);
#45=ORIENTED_EDGE('',*,*,#75,.T.);
#46=ORIENTED_EDGE('',*,*,#83,.F.);
#47=ORIENTED_EDGE('',*,*,#80,.F.);
#48=ORIENTED_EDGE('',*,*,#84,.F.);
#49=ORIENTED_EDGE('',*,*,#77,.F.);
#50=ORIENTED_EDGE('',*,*,#76,.T.);
#51=ORIENTED_EDGE('',*,*,#82,.T.);
#52=ORIENTED_EDGE('',*,*,#85,.T.);
#53=ORIENTED_EDGE('',*,*,#86,.T.);
#54=ORIENTED_EDGE('',*,*,#87,.F.);
#55=ORIENTED_EDGE('',*,*,#84,.T.);
#56=ORIENTED_EDGE('',*,*,#85,.F.);
#57=ORIENTED_EDGE('',*,*,#87,.T.);
#58=ORIENTED_EDGE('',*,*,#88,.T.);
#59=ORIENTED_EDGE('',*,*,#88,.F.);
#60=ORIENTED_EDGE('',*,*,#86,.F.);
#61=ORIENTED_EDGE('',*,*,#89,.F.);
#62=ORIENTED_EDGE('',*,*,#79,.F.);
#63=ORIENTED_EDGE('',*,*,#81,.T.);
#64=ORIENTED_EDGE('',*,*,#83,.T.);
#65=ORIENTED_EDGE('',*,*,#90,.T.);
#66=ORIENTED_EDGE('',*,*,#91,.T.);
#67=ORIENTED_EDGE('',*,*,#92,.F.);
#68=ORIENTED_EDGE('',*,*,#89,.T.);
#69=ORIENTED_EDGE('',*,*,#90,.F.);
#70=ORIENTED_EDGE('',*,*,#92,.T.);
#71=ORIENTED_EDGE('',*,*,#93,.T.);
#72=ORIENTED_EDGE('',*,*,#93,.F.);
#73=ORIENTED_EDGE('',*,*,#91,.F.);
#74=EDGE_CURVE('',#94,#94,#112,.T.);
#75=EDGE_CURVE('',#95,#96,#113,.T.);
#76=EDGE_CURVE('',#97,#95,#28,.T.);
#77=EDGE_CURVE('',#97,#96,#114,.T.);
#78=EDGE_CURVE('',#98,#98,#115,.T.);
#79=EDGE_CURVE('',#99,#100,#116,.T.);
#80=EDGE_CURVE('',#100,#101,#117,.T.);
#81=EDGE_CURVE('',#99,#101,#29,.T.);
#82=EDGE_CURVE('',#95,#96,#30,.T.);
#83=EDGE_CURVE('',#101,#100,#31,.T.);
#84=EDGE_CURVE('',#102,#102,#118,.T.);
#85=EDGE_CURVE('',#103,#103,#119,.T.);
#86=EDGE_CURVE('',#104,#104,#120,.T.);
#87=EDGE_CURVE('',#105,#105,#121,.T.);
#88=EDGE_CURVE('',#106,#106,#32,.T.);
#89=EDGE_CURVE('',#107,#107,#122,.T.);
#90=EDGE_CURVE('',#108,#108,#123,.T.);
#91=EDGE_CURVE('',#109,#109,#124,.T.);
#92=EDGE_CURVE('',#110,#110,#125,.T.);
#93=EDGE_CURVE('',#111,#111,#33,.T.);
#94=VERTEX_POINT('',#318);
#95=VERTEX_POINT('',#320);
#96=VERTEX_POINT('',#321);
#97=VERTEX_POINT('',#341);
#98=VERTEX_POINT('',#345);
#99=VERTEX_POINT('',#348);
#100=VERTEX_POINT('',#349);
#101=VERTEX_POINT('',#351);
#102=VERTEX_POINT('',#388);
#103=VERTEX_POINT('',#391);
#104=VERTEX_POINT('',#393);
#105=VERTEX_POINT('',#396);
#106=VERTEX_POINT('',#421);
#107=VERTEX_POINT('',#425);
#108=VERTEX_POINT('',#428);
#109=VERTEX_POINT('',#430);
#110=VERTEX_POINT('',#433);
#111=VERTEX_POINT('',#458);
#112=CIRCLE('',#224,35.5);
#113=CIRCLE('',#225,47.5);
#114=CIRCLE('',#226,6.);
#115=CIRCLE('',#228,35.5);
#116=CIRCLE('',#230,6.);
#117=CIRCLE('',#231,47.5);
#118=CIRCLE('',#234,6.);
#119=CIRCLE('',#236,4.);
#120=CIRCLE('',#237,4.);
#121=CIRCLE('',#239,6.);
#122=CIRCLE('',#244,6.);
#123=CIRCLE('',#246,4.);
#124=CIRCLE('',#247,4.);
#125=CIRCLE('',#249,6.);
#126=EDGE_LOOP('',(#34));
#127=EDGE_LOOP('',(#35,#36,#37));
#128=EDGE_LOOP('',(#38));
#129=EDGE_LOOP('',(#39));
#130=EDGE_LOOP('',(#40,#41,#42));
#131=EDGE_LOOP('',(#43));
#132=EDGE_LOOP('',(#44,#45));
#133=EDGE_LOOP('',(#46,#47));
#134=EDGE_LOOP('',(#48));
#135=EDGE_LOOP('',(#49,#50,#51));
#136=EDGE_LOOP('',(#52));
#137=EDGE_LOOP('',(#53));
#138=EDGE_LOOP('',(#54));
#139=EDGE_LOOP('',(#55));
#140=EDGE_LOOP('',(#56));
#141=EDGE_LOOP('',(#57));
#142=EDGE_LOOP('',(#58));
#143=EDGE_LOOP('',(#59));
#144=EDGE_LOOP('',(#60));
#145=EDGE_LOOP('',(#61));
#146=EDGE_LOOP('',(#62,#63,#64));
#147=EDGE_LOOP('',(#65));
#148=EDGE_LOOP('',(#66));
#149=EDGE_LOOP('',(#67));
#150=EDGE_LOOP('',(#68));
#151=EDGE_LOOP('',(#69));
#152=EDGE_LOOP('',(#70));
#153=EDGE_LOOP('',(#71));
#154=EDGE_LOOP('',(#72));
#155=EDGE_LOOP('',(#73));
#156=FACE_BOUND('',#126,.T.);
#157=FACE_BOUND('',#127,.T.);
#158=FACE_BOUND('',#128,.T.);
#159=FACE_BOUND('',#129,.T.);
#160=FACE_BOUND('',#130,.T.);
#161=FACE_BOUND('',#131,.T.);
#162=FACE_BOUND('',#132,.T.);
#163=FACE_BOUND('',#133,.T.);
#164=FACE_BOUND('',#134,.T.);
#165=FACE_BOUND('',#135,.T.);
#166=FACE_BOUND('',#136,.T.);
#167=FACE_BOUND('',#137,.T.);
#168=FACE_BOUND('',#138,.T.);
#169=FACE_BOUND('',#139,.T.);
#170=FACE_BOUND('',#140,.T.);
#171=FACE_BOUND('',#141,.T.);
#172=FACE_BOUND('',#142,.T.);
#173=FACE_BOUND('',#143,.T.);
#174=FACE_BOUND('',#144,.T.);
#175=FACE_BOUND('',#145,.T.);
#176=FACE_BOUND('',#146,.T.);
#177=FACE_BOUND('',#147,.T.);
#178=FACE_BOUND('',#148,.T.);
#179=FACE_BOUND('',#149,.T.);
#180=FACE_BOUND('',#150,.T.);
#181=FACE_BOUND('',#151,.T.);
#182=FACE_BOUND('',#152,.T.);
#183=FACE_BOUND('',#153,.T.);
#184=FACE_BOUND('',#154,.T.);
#185=FACE_BOUND('',#155,.T.);
#186=TOROIDAL_SURFACE('',#223,41.5,5.99999999999999);
#187=TOROIDAL_SURFACE('',#229,41.5,5.99999999999995);
#188=TOROIDAL_SURFACE('',#233,29.75,6.);
#189=TOROIDAL_SURFACE('',#241,41.5,5.99999999999999);
#190=TOROIDAL_SURFACE('',#242,29.75,4.);
#191=TOROIDAL_SURFACE('',#243,29.75,6.);
#192=TOROIDAL_SURFACE('',#251,41.5,5.99999999999995);
#193=TOROIDAL_SURFACE('',#252,29.75,4.);
#194=ADVANCED_FACE('',(#156,#157),#186,.T.);
#195=ADVANCED_FACE('',(#158,#159),#22,.F.);
#196=ADVANCED_FACE('',(#160,#161),#187,.T.);
#197=ADVANCED_FACE('',(#162,#163),#23,.T.);
#198=ADVANCED_FACE('',(#164,#165),#188,.T.);
#199=ADVANCED_FACE('',(#166,#167),#24,.F.);
#200=ADVANCED_FACE('',(#168,#169),#25,.T.);
#201=ADVANCED_FACE('',(#170,#171),#20,.T.);
#202=ADVANCED_FACE('',(#172),#189,.T.);
#203=ADVANCED_FACE('',(#173,#174),#190,.F.);
#204=ADVANCED_FACE('',(#175,#176),#191,.T.);
#205=ADVANCED_FACE('',(#177,#178),#26,.F.);
#206=ADVANCED_FACE('',(#179,#180),#27,.T.);
#207=ADVANCED_FACE('',(#181,#182),#21,.T.);
#208=ADVANCED_FACE('',(#183),#192,.T.);
#209=ADVANCED_FACE('',(#184,#185),#193,.F.);
#210=CLOSED_SHELL('',(#194,#195,#196,#197,#198,#199,#200,#201,#202,#203,
#204,#205,#206,#207,#208,#209));
#211=STYLED_ITEM('',(#212),#219);
#212=PRESENTATION_STYLE_ASSIGNMENT((#213));
#213=SURFACE_STYLE_USAGE(.BOTH.,#214);
#214=SURFACE_SIDE_STYLE('',(#215));
#215=SURFACE_STYLE_FILL_AREA(#216);
#216=FILL_AREA_STYLE('',(#217));
#217=FILL_AREA_STYLE_COLOUR('',#218);
#218=DRAUGHTING_PRE_DEFINED_COLOUR('black');
#219=MANIFOLD_SOLID_BREP('197615 PUN-12X2-S-2-SW---(452)',#210);
#220=SHAPE_DEFINITION_REPRESENTATION(#466,#221);
#221=SHAPE_REPRESENTATION('197615 PUN-12X2-S-2-SW---(452)',(#222),#461);
#222=AXIS2_PLACEMENT_3D('',#315,#253,#254);
#223=AXIS2_PLACEMENT_3D('',#316,#255,#256);
#224=AXIS2_PLACEMENT_3D('',#317,#257,#258);
#225=AXIS2_PLACEMENT_3D('',#319,#259,#260);
#226=AXIS2_PLACEMENT_3D('',#342,#261,#262);
#227=AXIS2_PLACEMENT_3D('',#343,#263,#264);
#228=AXIS2_PLACEMENT_3D('',#344,#265,#266);
#229=AXIS2_PLACEMENT_3D('',#346,#267,#268);
#230=AXIS2_PLACEMENT_3D('',#347,#269,#270);
#231=AXIS2_PLACEMENT_3D('',#350,#271,#272);
#232=AXIS2_PLACEMENT_3D('',#371,#273,#274);
#233=AXIS2_PLACEMENT_3D('',#386,#275,#276);
#234=AXIS2_PLACEMENT_3D('',#387,#277,#278);
#235=AXIS2_PLACEMENT_3D('',#389,#279,#280);
#236=AXIS2_PLACEMENT_3D('',#390,#281,#282);
#237=AXIS2_PLACEMENT_3D('',#392,#283,#284);
#238=AXIS2_PLACEMENT_3D('',#394,#285,#286);
#239=AXIS2_PLACEMENT_3D('',#395,#287,#288);
#240=AXIS2_PLACEMENT_3D('',#397,#289,#290);
#241=AXIS2_PLACEMENT_3D('',#398,#291,#292);
#242=AXIS2_PLACEMENT_3D('',#422,#293,#294);
#243=AXIS2_PLACEMENT_3D('',#423,#295,#296);
#244=AXIS2_PLACEMENT_3D('',#424,#297,#298);
#245=AXIS2_PLACEMENT_3D('',#426,#299,#300);
#246=AXIS2_PLACEMENT_3D('',#427,#301,#302);
#247=AXIS2_PLACEMENT_3D('',#429,#303,#304);
#248=AXIS2_PLACEMENT_3D('',#431,#305,#306);
#249=AXIS2_PLACEMENT_3D('',#432,#307,#308);
#250=AXIS2_PLACEMENT_3D('',#434,#309,#310);
#251=AXIS2_PLACEMENT_3D('',#435,#311,#312);
#252=AXIS2_PLACEMENT_3D('',#459,#313,#314);
#253=DIRECTION('',(0.,0.,1.));
#254=DIRECTION('',(1.,0.,0.));
#255=DIRECTION('',(0.,0.,-1.));
#256=DIRECTION('',(-1.,0.,0.));
#257=DIRECTION('',(0.,0.,-1.));
#258=DIRECTION('',(-1.,0.,0.));
#259=DIRECTION('',(0.,0.,-1.));
#260=DIRECTION('',(-1.,0.,0.));
#261=DIRECTION('',(0.,1.,0.));
#262=DIRECTION('',(1.,0.,0.));
#263=DIRECTION('',(0.,0.,-1.));
#264=DIRECTION('',(-1.,0.,0.));
#265=DIRECTION('',(0.,0.,-1.));
#266=DIRECTION('',(-1.,0.,0.));
#267=DIRECTION('',(0.,0.,-1.));
#268=DIRECTION('',(-1.,0.,0.));
#269=DIRECTION('',(0.,1.,0.));
#270=DIRECTION('',(1.,0.,0.));
#271=DIRECTION('',(0.,0.,-1.));
#272=DIRECTION('',(-1.,0.,0.));
#273=DIRECTION('',(0.,0.,-1.));
#274=DIRECTION('',(-1.,0.,0.));
#275=DIRECTION('',(1.,0.,0.));
#276=DIRECTION('',(0.,0.,-1.));
#277=DIRECTION('',(0.,0.,1.));
#278=DIRECTION('',(-1.,0.,0.));
#279=DIRECTION('',(0.,0.,-1.));
#280=DIRECTION('',(-1.,0.,0.));
#281=DIRECTION('',(0.,0.,1.));
#282=DIRECTION('',(-1.,0.,0.));
#283=DIRECTION('',(0.,6.12323399573677E-17,-1.));
#284=DIRECTION('',(1.,0.,0.));
#285=DIRECTION('',(0.,0.,-1.));
#286=DIRECTION('',(-1.,0.,0.));
#287=DIRECTION('',(0.,0.,1.));
#288=DIRECTION('',(-1.,0.,0.));
#289=DIRECTION('',(0.,0.,1.));
#290=DIRECTION('',(1.,0.,0.));
#291=DIRECTION('',(0.,0.,-1.));
#292=DIRECTION('',(-1.,0.,0.));
#293=DIRECTION('',(1.,0.,0.));
#294=DIRECTION('',(0.,0.,-1.));
#295=DIRECTION('',(-1.,0.,0.));
#296=DIRECTION('',(0.,0.,1.));
#297=DIRECTION('',(0.,0.,-1.));
#298=DIRECTION('',(-1.,0.,0.));
#299=DIRECTION('',(0.,0.,1.));
#300=DIRECTION('',(1.,0.,0.));
#301=DIRECTION('',(0.,0.,-1.));
#302=DIRECTION('',(-1.,0.,0.));
#303=DIRECTION('',(0.,6.12323399573677E-17,1.));
#304=DIRECTION('',(1.,0.,0.));
#305=DIRECTION('',(0.,0.,1.));
#306=DIRECTION('',(1.,0.,0.));
#307=DIRECTION('',(0.,0.,-1.));
#308=DIRECTION('',(-1.,0.,0.));
#309=DIRECTION('',(0.,0.,-1.));
#310=DIRECTION('',(-1.,0.,0.));
#311=DIRECTION('',(0.,0.,-1.));
#312=DIRECTION('',(-1.,0.,0.));
#313=DIRECTION('',(-1.,0.,0.));
#314=DIRECTION('',(0.,0.,1.));
#315=CARTESIAN_POINT('',(0.,0.,0.));
#316=CARTESIAN_POINT('',(0.,47.5,-5.99999999999999));
#317=CARTESIAN_POINT('',(0.,47.5,-6.00000000000001));
#318=CARTESIAN_POINT('',(-35.5,47.5,-6.00000000000001));
#319=CARTESIAN_POINT('',(0.,47.5,-6.00000000000001));
#320=CARTESIAN_POINT('',(43.426552724309,28.2546234517792,-6.00000000000001));
#321=CARTESIAN_POINT('',(47.5,47.5,-6.));
#322=CARTESIAN_POINT('',(36.6235609126201,47.5,-2.50423944940834));
#323=CARTESIAN_POINT('',(36.6243333636394,46.0552145761372,-2.50316191269221));
#324=CARTESIAN_POINT('',(36.5350738709492,43.1654565168519,-2.38333678281874));
#325=CARTESIAN_POINT('',(36.1849087891239,38.8763586057371,-1.87344390459412));
#326=CARTESIAN_POINT('',(35.8127778674647,35.3380016244167,-1.25677213232116));
#327=CARTESIAN_POINT('',(35.5776691148613,32.50807584834,-0.733202445105617));
#328=CARTESIAN_POINT('',(35.4780551831697,30.3796746745292,-0.361189090105087));
#329=CARTESIAN_POINT('',(35.5239550415506,28.2250021062607,-0.0619784761867149));
#330=CARTESIAN_POINT('',(35.7891823281916,26.419353504409,0.0406523960827291));
#331=CARTESIAN_POINT('',(36.2717032534186,25.0531579621932,-0.0880540154082062));
#332=CARTESIAN_POINT('',(36.8309370500808,24.1354746097821,-0.352318896094632));
#333=CARTESIAN_POINT('',(37.5997075257655,23.4968591750274,-0.827801038358966));
#334=CARTESIAN_POINT('',(38.4867649405524,23.2711755804478,-1.46972900107103));
#335=CARTESIAN_POINT('',(39.3372342864995,23.4077193729879,-2.14749856780321));
#336=CARTESIAN_POINT('',(40.3783805217643,23.9105789601724,-3.03260255570226));
#337=CARTESIAN_POINT('',(41.4888379229196,24.9374530377752,-4.05046117829477));
#338=CARTESIAN_POINT('',(42.5696630852881,26.4857997616956,-5.10844049881209));
#339=CARTESIAN_POINT('',(43.1601768132187,27.6535550591465,-5.71873028543703));
#340=CARTESIAN_POINT('',(43.426552724309,28.2546234517792,-6.00000000000002));
#341=CARTESIAN_POINT('',(36.6235609126201,47.5,-2.50423944940833));
#342=CARTESIAN_POINT('',(41.5,47.5,-6.));
#343=CARTESIAN_POINT('',(0.,47.5,-252.));
#344=CARTESIAN_POINT('',(0.,47.5,-246.));
#345=CARTESIAN_POINT('',(-35.5,47.5,-246.));
#346=CARTESIAN_POINT('',(0.,47.5,-246.));
#347=CARTESIAN_POINT('',(-41.5,47.5,-246.));
#348=CARTESIAN_POINT('',(-36.6235609126201,47.5,-249.495760550592));
#349=CARTESIAN_POINT('',(-47.5,47.5,-246.));
#350=CARTESIAN_POINT('',(0.,47.5,-246.));
#351=CARTESIAN_POINT('',(-43.426552724309,28.2546234517792,-246.));
#352=CARTESIAN_POINT('',(-36.62356091262,47.5,-249.495760550592));
#353=CARTESIAN_POINT('',(-36.6243333641737,46.055214576094,-249.496838088053));
#354=CARTESIAN_POINT('',(-36.5350738706957,43.1654565167205,-249.616663216843));
#355=CARTESIAN_POINT('',(-36.1849087891672,38.8763586054744,-250.126556095538));
#356=CARTESIAN_POINT('',(-35.8127778674177,35.338001624056,-250.743227867734));
#357=CARTESIAN_POINT('',(-35.5776691148329,32.5080758478892,-251.266797554978));
#358=CARTESIAN_POINT('',(-35.4780551831496,30.3796746739944,-251.638810909987));
#359=CARTESIAN_POINT('',(-35.5239550416187,28.2250021055824,-251.938021523873));
#360=CARTESIAN_POINT('',(-35.7891823282367,26.4193535041249,-252.040652396097));
#361=CARTESIAN_POINT('',(-36.2717032536589,25.0531579616487,-251.911945984505));
#362=CARTESIAN_POINT('',(-36.8309370503728,24.1354746094644,-251.647681103739));
#363=CARTESIAN_POINT('',(-37.5997075259943,23.4968591749209,-251.172198961484));
#364=CARTESIAN_POINT('',(-38.4867649407775,23.271175580443,-250.530270998757));
#365=CARTESIAN_POINT('',(-39.3372342866734,23.4077193730503,-249.852501432052));
#366=CARTESIAN_POINT('',(-40.3783805218861,23.9105789602672,-248.967397444189));
#367=CARTESIAN_POINT('',(-41.4888379229883,24.9374530378656,-247.949538821639));
#368=CARTESIAN_POINT('',(-42.5696630852988,26.4857997617198,-246.891559501176));
#369=CARTESIAN_POINT('',(-43.1601768132228,27.6535550591559,-246.281269714559));
#370=CARTESIAN_POINT('',(-43.4265527243089,28.2546234517792,-246.));
#371=CARTESIAN_POINT('',(0.,47.5,-252.));
#372=CARTESIAN_POINT('',(43.426552724309,28.2546234517792,-6.00000000000001));
#373=CARTESIAN_POINT('',(44.058739517238,29.6811319446609,-6.66753408020196));
#374=CARTESIAN_POINT('',(45.2354524991896,32.7218068575896,-7.63084227597346));
#375=CARTESIAN_POINT('',(46.5570645928339,37.6306249038995,-8.02412988120784));
#376=CARTESIAN_POINT('',(47.340078660216,42.6503050812714,-7.47038150413667));
#377=CARTESIAN_POINT('',(47.5,45.9104069238764,-6.56385886271667));
#378=CARTESIAN_POINT('',(47.5,47.5,-6.));
#379=CARTESIAN_POINT('',(-43.426552724309,28.2546234517792,-246.));
#380=CARTESIAN_POINT('',(-44.058739517238,29.6811319446608,-245.332465919798));
#381=CARTESIAN_POINT('',(-45.2354524991896,32.7218068575896,-244.369157724027));
#382=CARTESIAN_POINT('',(-46.5570645928338,37.6306249038994,-243.975870118792));
#383=CARTESIAN_POINT('',(-47.340078660216,42.6503050812715,-244.529618495863));
#384=CARTESIAN_POINT('',(-47.5,45.9104069238761,-245.436141137284));
#385=CARTESIAN_POINT('',(-47.5,47.5,-246.));
#386=CARTESIAN_POINT('',(41.5,47.5,23.75));
#387=CARTESIAN_POINT('',(41.5,17.75,23.75));
#388=CARTESIAN_POINT('',(35.5,17.75,23.75));
#389=CARTESIAN_POINT('',(41.5,17.75,100.));
#390=CARTESIAN_POINT('',(41.5,17.75,100.));
#391=CARTESIAN_POINT('',(37.5,17.75,100.));
#392=CARTESIAN_POINT('',(41.5,17.75,23.75));
#393=CARTESIAN_POINT('',(45.5,17.75,23.75));
#394=CARTESIAN_POINT('',(41.5,17.75,100.));
#395=CARTESIAN_POINT('',(41.5,17.75,100.));
#396=CARTESIAN_POINT('',(35.5,17.75,100.));
#397=CARTESIAN_POINT('',(41.5,17.75,100.));
#398=CARTESIAN_POINT('',(0.,47.5,-5.99999999999999));
#399=CARTESIAN_POINT('',(43.6186536608154,38.2921467579343,-0.677898993631207));
#400=CARTESIAN_POINT('',(41.4353444860033,37.9693475370047,0.00993102120752412));
#401=CARTESIAN_POINT('',(39.6411683951715,36.6581550944799,0.00805022753928486));
#402=CARTESIAN_POINT('',(38.5109792387822,34.7850635838618,-0.0789935916578833));
#403=CARTESIAN_POINT('',(37.8389746471523,32.7334790978424,-0.0659313546235665));
#404=CARTESIAN_POINT('',(37.489705602961,30.6078104017954,-0.00105388356060169));
#405=CARTESIAN_POINT('',(37.4729845243874,28.8142430492641,0.0132778371493659));
#406=CARTESIAN_POINT('',(37.7442530692098,27.3878109411093,-0.118513721642209));
#407=CARTESIAN_POINT('',(38.1657229329374,26.3924439022705,-0.354199299473184));
#408=CARTESIAN_POINT('',(38.9094753410796,25.6787115806464,-0.827765620640878));
#409=CARTESIAN_POINT('',(39.8311648520597,25.5558202321421,-1.47058013573561));
#410=CARTESIAN_POINT('',(40.683213305106,25.8726583446179,-2.09003338782322));
#411=CARTESIAN_POINT('',(41.6994068204671,26.6199167484058,-2.83445676018703));
#412=CARTESIAN_POINT('',(42.7584560631525,27.9234946558585,-3.58676346265216));
#413=CARTESIAN_POINT('',(43.7746460091285,29.7271615164587,-4.19755338416118));
#414=CARTESIAN_POINT('',(44.6179110284823,31.7195969678492,-4.50139047449635));
#415=CARTESIAN_POINT('',(45.2679992245677,33.7827887439647,-4.40057426971666));
#416=CARTESIAN_POINT('',(45.6311549229548,35.8777553948191,-3.68092667106305));
#417=CARTESIAN_POINT('',(45.205566146862,37.5506220382999,-2.19014088903826));
#418=CARTESIAN_POINT('',(43.6186536608154,38.2921467579343,-0.677898993631207));
#419=CARTESIAN_POINT('',(41.4353444860033,37.9693475370047,0.00993102120752412));
#420=CARTESIAN_POINT('',(39.6411683951715,36.6581550944799,0.00805022753928486));
#421=CARTESIAN_POINT('',(41.5002,37.8046153334055,-0.105020780210304));
#422=CARTESIAN_POINT('',(41.5,47.5,23.75));
#423=CARTESIAN_POINT('',(-41.5,47.5,-275.75));
#424=CARTESIAN_POINT('',(-41.5,17.75,-275.75));
#425=CARTESIAN_POINT('',(-47.5,17.75,-275.75));
#426=CARTESIAN_POINT('',(-41.5,17.75,-352.));
#427=CARTESIAN_POINT('',(-41.5,17.75,-352.));
#428=CARTESIAN_POINT('',(-45.5,17.75,-352.));
#429=CARTESIAN_POINT('',(-41.5,17.75,-275.75));
#430=CARTESIAN_POINT('',(-37.5,17.75,-275.75));
#431=CARTESIAN_POINT('',(-41.5,17.75,-352.));
#432=CARTESIAN_POINT('',(-41.5,17.75,-352.));
#433=CARTESIAN_POINT('',(-47.5,17.75,-352.));
#434=CARTESIAN_POINT('',(-41.5,17.75,-352.));
#435=CARTESIAN_POINT('',(0.,47.5,-246.));
#436=CARTESIAN_POINT('',(-40.7575579531172,25.9154431249402,-249.855447936604));
#437=CARTESIAN_POINT('',(-41.7680418567801,26.6920334819457,-249.11580479955));
#438=CARTESIAN_POINT('',(-42.797587486003,27.984498525047,-248.387091766307));
#439=CARTESIAN_POINT('',(-43.8162137321525,29.8130099884457,-247.781877760249));
#440=CARTESIAN_POINT('',(-44.6421189371889,31.7863306154965,-247.494969285399));
#441=CARTESIAN_POINT('',(-45.291014504017,33.8714856713582,-247.614694542513));
#442=CARTESIAN_POINT('',(-45.6314654372757,35.9424507791663,-248.359420398526));
#443=CARTESIAN_POINT('',(-45.1742213330403,37.5862245130919,-249.859329002584));
#444=CARTESIAN_POINT('',(-43.5645490835289,38.2935122123079,-251.349043710197));
#445=CARTESIAN_POINT('',(-41.406098476538,37.957414483216,-252.012337990266));
#446=CARTESIAN_POINT('',(-39.601520125184,36.6169798887606,-252.006102893025));
#447=CARTESIAN_POINT('',(-38.4867316194112,34.7270779306557,-251.919672051083));
#448=CARTESIAN_POINT('',(-37.8238438586026,32.6729479322898,-251.93563728976));
#449=CARTESIAN_POINT('',(-37.4815922174679,30.5248932566852,-252.001336812116));
#450=CARTESIAN_POINT('',(-37.4783737915324,28.7253840429025,-252.011511138967));
#451=CARTESIAN_POINT('',(-37.7700396964213,27.2991369473847,-251.868060520013));
#452=CARTESIAN_POINT('',(-38.2165792164743,26.312955424456,-251.615467418164));
#453=CARTESIAN_POINT('',(-38.9908410414649,25.6413783510185,-251.117451164872));
#454=CARTESIAN_POINT('',(-39.9133937320694,25.5710582331496,-250.470309188507));
#455=CARTESIAN_POINT('',(-40.7575579531172,25.9154431249402,-249.855447936604));
#456=CARTESIAN_POINT('',(-41.7680418567801,26.6920334819457,-249.11580479955));
#457=CARTESIAN_POINT('',(-42.797587486003,27.984498525047,-248.387091766307));
#458=CARTESIAN_POINT('',(-41.499850264174,26.5193343658173,-249.313771643018));
#459=CARTESIAN_POINT('',(-41.5,47.5,-275.75));
#460=MECHANICAL_DESIGN_GEOMETRIC_PRESENTATION_REPRESENTATION('',(#211),
#461);
#461=(
GEOMETRIC_REPRESENTATION_CONTEXT(3)
GLOBAL_UNCERTAINTY_ASSIGNED_CONTEXT((#462))
GLOBAL_UNIT_ASSIGNED_CONTEXT((#465,#464,#463))
REPRESENTATION_CONTEXT('197615 PUN-12X2-S-2-SW---(452)',
'TOP_LEVEL_ASSEMBLY_PART')
);
#462=UNCERTAINTY_MEASURE_WITH_UNIT(LENGTH_MEASURE(0.005),#465,
'DISTANCE_ACCURACY_VALUE','Maximum Tolerance applied to model');
#463=(
NAMED_UNIT(*)
SI_UNIT($,.STERADIAN.)
SOLID_ANGLE_UNIT()
);
#464=(
NAMED_UNIT(*)
PLANE_ANGLE_UNIT()
SI_UNIT($,.RADIAN.)
);
#465=(
LENGTH_UNIT()
NAMED_UNIT(*)
SI_UNIT(.MILLI.,.METRE.)
);
#466=PRODUCT_DEFINITION_SHAPE('','',#467);
#467=PRODUCT_DEFINITION('','',#469,#468);
#468=PRODUCT_DEFINITION_CONTEXT('',#475,'design');
#469=PRODUCT_DEFINITION_FORMATION_WITH_SPECIFIED_SOURCE('','',#471,
 .NOT_KNOWN.);
#470=PRODUCT_RELATED_PRODUCT_CATEGORY('','',(#471));
#471=PRODUCT('197615 PUN-12X2-S-2-SW---(452)',
'197615 PUN-12X2-S-2-SW---(452)','197615 PUN-12X2-S-2-SW---(452)',(#473));
#472=PRODUCT_CATEGORY('','');
#473=PRODUCT_CONTEXT('',#475,'mechanical');
#474=APPLICATION_PROTOCOL_DEFINITION('international standard',
'automotive_design',2010,#475);
#475=APPLICATION_CONTEXT(
'core data for automotive mechanical design processes');
ENDSEC;
END-ISO-10303-21;
