ISO-10303-21;
HEADER;
/* Generated by software containing ST-Developer
 * from STEP Tools, Inc. (www.steptools.com) 
 */
/* OPTION: using custom renumber hook */

FILE_DESCRIPTION(
/* description */ ('STEP AP214'),
/* implementation_level */ '2;1');

FILE_NAME(
/* name */ '205257_MCK-PK-4-R',
/* time_stamp */ '2024-09-05T03:51:40+02:00',
/* author */ ('License CC BY-ND 4.0'),
/* organization */ ('CADENAS'),
/* preprocessor_version */ 'ST-DEVELOPER v19.3',
/* originating_system */ 'PARTsolutions',
/* authorisation */ '  ');

FILE_SCHEMA (('AUTOMOTIVE_DESIGN {1 0 10303 214 3 1 1}'));
ENDSEC;

DATA;
#10=PROPERTY_DEFINITION_REPRESENTATION(#14,#12);
#11=PROPERTY_DEFINITION_REPRESENTATION(#15,#13);
#12=REPRESENTATION('',(#16),#317);
#13=REPRESENTATION('',(#17),#317);
#14=PROPERTY_DEFINITION('pmi validation property','',#322);
#15=PROPERTY_DEFINITION('pmi validation property','',#322);
#16=VALUE_REPRESENTATION_ITEM('number of annotations',COUNT_MEASURE(0.));
#17=VALUE_REPRESENTATION_ITEM('number of views',COUNT_MEASURE(0.));
#18=SHAPE_REPRESENTATION_RELATIONSHIP('','',#185,#19);
#19=ADVANCED_BREP_SHAPE_REPRESENTATION('',(#183),#317);
#20=TOROIDAL_SURFACE('',#206,3.3,0.199999999999998);
#21=TOROIDAL_SURFACE('',#210,3.29999999999996,0.199999999999956);
#22=TOROIDAL_SURFACE('',#214,3.57500442851314,0.200000000000005);
#23=CONICAL_SURFACE('',#192,5.,0.785398163397448);
#24=CONICAL_SURFACE('',#196,5.25,0.785398163397451);
#25=CONICAL_SURFACE('',#200,4.,0.785398163397448);
#26=CONICAL_SURFACE('',#204,3.4585,0.785398163397447);
#27=CONICAL_SURFACE('',#212,3.10681483474219,0.261799387799148);
#28=CYLINDRICAL_SURFACE('',#190,5.);
#29=CYLINDRICAL_SURFACE('',#194,5.25);
#30=CYLINDRICAL_SURFACE('',#202,3.4585);
#31=CYLINDRICAL_SURFACE('',#208,3.1);
#32=ORIENTED_EDGE('',*,*,#60,.F.);
#33=ORIENTED_EDGE('',*,*,#61,.T.);
#34=ORIENTED_EDGE('',*,*,#62,.F.);
#35=ORIENTED_EDGE('',*,*,#60,.T.);
#36=ORIENTED_EDGE('',*,*,#63,.F.);
#37=ORIENTED_EDGE('',*,*,#62,.T.);
#38=ORIENTED_EDGE('',*,*,#64,.F.);
#39=ORIENTED_EDGE('',*,*,#63,.T.);
#40=ORIENTED_EDGE('',*,*,#65,.F.);
#41=ORIENTED_EDGE('',*,*,#64,.T.);
#42=ORIENTED_EDGE('',*,*,#66,.F.);
#43=ORIENTED_EDGE('',*,*,#65,.T.);
#44=ORIENTED_EDGE('',*,*,#67,.T.);
#45=ORIENTED_EDGE('',*,*,#61,.F.);
#46=ORIENTED_EDGE('',*,*,#68,.T.);
#47=ORIENTED_EDGE('',*,*,#67,.F.);
#48=ORIENTED_EDGE('',*,*,#69,.T.);
#49=ORIENTED_EDGE('',*,*,#68,.F.);
#50=ORIENTED_EDGE('',*,*,#70,.T.);
#51=ORIENTED_EDGE('',*,*,#69,.F.);
#52=ORIENTED_EDGE('',*,*,#71,.T.);
#53=ORIENTED_EDGE('',*,*,#70,.F.);
#54=ORIENTED_EDGE('',*,*,#72,.T.);
#55=ORIENTED_EDGE('',*,*,#71,.F.);
#56=ORIENTED_EDGE('',*,*,#73,.T.);
#57=ORIENTED_EDGE('',*,*,#72,.F.);
#58=ORIENTED_EDGE('',*,*,#66,.T.);
#59=ORIENTED_EDGE('',*,*,#73,.F.);
#60=EDGE_CURVE('',#74,#74,#88,.T.);
#61=EDGE_CURVE('',#75,#75,#89,.T.);
#62=EDGE_CURVE('',#76,#76,#90,.T.);
#63=EDGE_CURVE('',#77,#77,#91,.T.);
#64=EDGE_CURVE('',#78,#78,#92,.T.);
#65=EDGE_CURVE('',#79,#79,#93,.T.);
#66=EDGE_CURVE('',#80,#80,#94,.T.);
#67=EDGE_CURVE('',#81,#81,#95,.T.);
#68=EDGE_CURVE('',#82,#82,#96,.T.);
#69=EDGE_CURVE('',#83,#83,#97,.T.);
#70=EDGE_CURVE('',#84,#84,#98,.T.);
#71=EDGE_CURVE('',#85,#85,#99,.T.);
#72=EDGE_CURVE('',#86,#86,#100,.T.);
#73=EDGE_CURVE('',#87,#87,#101,.T.);
#74=VERTEX_POINT('',#276);
#75=VERTEX_POINT('',#278);
#76=VERTEX_POINT('',#281);
#77=VERTEX_POINT('',#284);
#78=VERTEX_POINT('',#287);
#79=VERTEX_POINT('',#290);
#80=VERTEX_POINT('',#293);
#81=VERTEX_POINT('',#296);
#82=VERTEX_POINT('',#299);
#83=VERTEX_POINT('',#302);
#84=VERTEX_POINT('',#305);
#85=VERTEX_POINT('',#308);
#86=VERTEX_POINT('',#311);
#87=VERTEX_POINT('',#314);
#88=CIRCLE('',#188,5.);
#89=CIRCLE('',#189,4.);
#90=CIRCLE('',#191,5.);
#91=CIRCLE('',#193,5.25);
#92=CIRCLE('',#195,5.25);
#93=CIRCLE('',#197,4.89644660940673);
#94=CIRCLE('',#199,3.57500442851314);
#95=CIRCLE('',#201,3.4585);
#96=CIRCLE('',#203,3.4585);
#97=CIRCLE('',#205,3.15857864376269);
#98=CIRCLE('',#207,3.1);
#99=CIRCLE('',#209,3.1);
#100=CIRCLE('',#211,3.10681483474219);
#101=CIRCLE('',#213,3.38181926325532);
#102=EDGE_LOOP('',(#32));
#103=EDGE_LOOP('',(#33));
#104=EDGE_LOOP('',(#34));
#105=EDGE_LOOP('',(#35));
#106=EDGE_LOOP('',(#36));
#107=EDGE_LOOP('',(#37));
#108=EDGE_LOOP('',(#38));
#109=EDGE_LOOP('',(#39));
#110=EDGE_LOOP('',(#40));
#111=EDGE_LOOP('',(#41));
#112=EDGE_LOOP('',(#42));
#113=EDGE_LOOP('',(#43));
#114=EDGE_LOOP('',(#44));
#115=EDGE_LOOP('',(#45));
#116=EDGE_LOOP('',(#46));
#117=EDGE_LOOP('',(#47));
#118=EDGE_LOOP('',(#48));
#119=EDGE_LOOP('',(#49));
#120=EDGE_LOOP('',(#50));
#121=EDGE_LOOP('',(#51));
#122=EDGE_LOOP('',(#52));
#123=EDGE_LOOP('',(#53));
#124=EDGE_LOOP('',(#54));
#125=EDGE_LOOP('',(#55));
#126=EDGE_LOOP('',(#56));
#127=EDGE_LOOP('',(#57));
#128=EDGE_LOOP('',(#58));
#129=EDGE_LOOP('',(#59));
#130=FACE_BOUND('',#102,.T.);
#131=FACE_BOUND('',#103,.T.);
#132=FACE_BOUND('',#104,.T.);
#133=FACE_BOUND('',#105,.T.);
#134=FACE_BOUND('',#106,.T.);
#135=FACE_BOUND('',#107,.T.);
#136=FACE_BOUND('',#108,.T.);
#137=FACE_BOUND('',#109,.T.);
#138=FACE_BOUND('',#110,.T.);
#139=FACE_BOUND('',#111,.T.);
#140=FACE_BOUND('',#112,.T.);
#141=FACE_BOUND('',#113,.T.);
#142=FACE_BOUND('',#114,.T.);
#143=FACE_BOUND('',#115,.T.);
#144=FACE_BOUND('',#116,.T.);
#145=FACE_BOUND('',#117,.T.);
#146=FACE_BOUND('',#118,.T.);
#147=FACE_BOUND('',#119,.T.);
#148=FACE_BOUND('',#120,.T.);
#149=FACE_BOUND('',#121,.T.);
#150=FACE_BOUND('',#122,.T.);
#151=FACE_BOUND('',#123,.T.);
#152=FACE_BOUND('',#124,.T.);
#153=FACE_BOUND('',#125,.T.);
#154=FACE_BOUND('',#126,.T.);
#155=FACE_BOUND('',#127,.T.);
#156=FACE_BOUND('',#128,.T.);
#157=FACE_BOUND('',#129,.T.);
#158=PLANE('',#187);
#159=PLANE('',#198);
#160=ADVANCED_FACE('',(#130,#131),#158,.F.);
#161=ADVANCED_FACE('',(#132,#133),#28,.T.);
#162=ADVANCED_FACE('',(#134,#135),#23,.T.);
#163=ADVANCED_FACE('',(#136,#137),#29,.T.);
#164=ADVANCED_FACE('',(#138,#139),#24,.T.);
#165=ADVANCED_FACE('',(#140,#141),#159,.F.);
#166=ADVANCED_FACE('',(#142,#143),#25,.F.);
#167=ADVANCED_FACE('',(#144,#145),#30,.F.);
#168=ADVANCED_FACE('',(#146,#147),#26,.F.);
#169=ADVANCED_FACE('',(#148,#149),#20,.T.);
#170=ADVANCED_FACE('',(#150,#151),#31,.F.);
#171=ADVANCED_FACE('',(#152,#153),#21,.T.);
#172=ADVANCED_FACE('',(#154,#155),#27,.F.);
#173=ADVANCED_FACE('',(#156,#157),#22,.T.);
#174=CLOSED_SHELL('',(#160,#161,#162,#163,#164,#165,#166,#167,#168,#169,
#170,#171,#172,#173));
#175=STYLED_ITEM('',(#176),#183);
#176=PRESENTATION_STYLE_ASSIGNMENT((#177));
#177=SURFACE_STYLE_USAGE(.BOTH.,#178);
#178=SURFACE_SIDE_STYLE('',(#179));
#179=SURFACE_STYLE_FILL_AREA(#180);
#180=FILL_AREA_STYLE('',(#181));
#181=FILL_AREA_STYLE_COLOUR('',#182);
#182=COLOUR_RGB('',0.,0.600000023841858,1.);
#183=MANIFOLD_SOLID_BREP('205257 MCK-PK-4-R',#174);
#184=SHAPE_DEFINITION_REPRESENTATION(#322,#185);
#185=SHAPE_REPRESENTATION('205257 MCK-PK-4-R',(#186),#317);
#186=AXIS2_PLACEMENT_3D('',#273,#215,#216);
#187=AXIS2_PLACEMENT_3D('',#274,#217,#218);
#188=AXIS2_PLACEMENT_3D('',#275,#219,#220);
#189=AXIS2_PLACEMENT_3D('',#277,#221,#222);
#190=AXIS2_PLACEMENT_3D('',#279,#223,#224);
#191=AXIS2_PLACEMENT_3D('',#280,#225,#226);
#192=AXIS2_PLACEMENT_3D('',#282,#227,#228);
#193=AXIS2_PLACEMENT_3D('',#283,#229,#230);
#194=AXIS2_PLACEMENT_3D('',#285,#231,#232);
#195=AXIS2_PLACEMENT_3D('',#286,#233,#234);
#196=AXIS2_PLACEMENT_3D('',#288,#235,#236);
#197=AXIS2_PLACEMENT_3D('',#289,#237,#238);
#198=AXIS2_PLACEMENT_3D('',#291,#239,#240);
#199=AXIS2_PLACEMENT_3D('',#292,#241,#242);
#200=AXIS2_PLACEMENT_3D('',#294,#243,#244);
#201=AXIS2_PLACEMENT_3D('',#295,#245,#246);
#202=AXIS2_PLACEMENT_3D('',#297,#247,#248);
#203=AXIS2_PLACEMENT_3D('',#298,#249,#250);
#204=AXIS2_PLACEMENT_3D('',#300,#251,#252);
#205=AXIS2_PLACEMENT_3D('',#301,#253,#254);
#206=AXIS2_PLACEMENT_3D('',#303,#255,#256);
#207=AXIS2_PLACEMENT_3D('',#304,#257,#258);
#208=AXIS2_PLACEMENT_3D('',#306,#259,#260);
#209=AXIS2_PLACEMENT_3D('',#307,#261,#262);
#210=AXIS2_PLACEMENT_3D('',#309,#263,#264);
#211=AXIS2_PLACEMENT_3D('',#310,#265,#266);
#212=AXIS2_PLACEMENT_3D('',#312,#267,#268);
#213=AXIS2_PLACEMENT_3D('',#313,#269,#270);
#214=AXIS2_PLACEMENT_3D('',#315,#271,#272);
#215=DIRECTION('',(0.,0.,1.));
#216=DIRECTION('',(1.,0.,0.));
#217=DIRECTION('',(1.,0.,0.));
#218=DIRECTION('',(0.,0.,-1.));
#219=DIRECTION('',(1.,0.,0.));
#220=DIRECTION('',(0.,0.,-1.));
#221=DIRECTION('',(1.,4.67462326157961E-17,0.));
#222=DIRECTION('',(-4.67462326157961E-17,1.,0.));
#223=DIRECTION('',(1.,0.,0.));
#224=DIRECTION('',(0.,0.,-1.));
#225=DIRECTION('',(1.,0.,0.));
#226=DIRECTION('',(0.,0.,-1.));
#227=DIRECTION('',(1.,0.,0.));
#228=DIRECTION('',(0.,0.,-1.));
#229=DIRECTION('',(1.,0.,0.));
#230=DIRECTION('',(0.,0.,-1.));
#231=DIRECTION('',(1.,0.,0.));
#232=DIRECTION('',(0.,0.,-1.));
#233=DIRECTION('',(1.,0.,0.));
#234=DIRECTION('',(0.,0.,-1.));
#235=DIRECTION('',(-1.,0.,0.));
#236=DIRECTION('',(0.,0.,1.));
#237=DIRECTION('',(1.,0.,0.));
#238=DIRECTION('',(0.,0.,-1.));
#239=DIRECTION('',(-1.,0.,0.));
#240=DIRECTION('',(0.,0.,1.));
#241=DIRECTION('',(1.,4.67462326157961E-17,0.));
#242=DIRECTION('',(-4.67462326157961E-17,1.,0.));
#243=DIRECTION('',(-1.,-4.67462326157961E-17,0.));
#244=DIRECTION('',(4.67462326157961E-17,-1.,0.));
#245=DIRECTION('',(1.,4.67462326157961E-17,0.));
#246=DIRECTION('',(-4.67462326157961E-17,1.,0.));
#247=DIRECTION('',(1.,4.67462326157961E-17,0.));
#248=DIRECTION('',(-4.67462326157961E-17,1.,0.));
#249=DIRECTION('',(1.,4.67462326157961E-17,0.));
#250=DIRECTION('',(-4.67462326157961E-17,1.,0.));
#251=DIRECTION('',(-1.,-4.67462326157961E-17,0.));
#252=DIRECTION('',(4.67462326157961E-17,-1.,0.));
#253=DIRECTION('',(1.,4.67462326157961E-17,0.));
#254=DIRECTION('',(-4.67462326157961E-17,1.,0.));
#255=DIRECTION('',(1.,4.67462326157961E-17,0.));
#256=DIRECTION('',(-4.67462326157961E-17,1.,0.));
#257=DIRECTION('',(1.,4.67462326157961E-17,0.));
#258=DIRECTION('',(-4.67462326157961E-17,1.,0.));
#259=DIRECTION('',(1.,4.67462326157961E-17,0.));
#260=DIRECTION('',(-4.67462326157961E-17,1.,0.));
#261=DIRECTION('',(1.,4.67462326157961E-17,0.));
#262=DIRECTION('',(-4.67462326157961E-17,1.,0.));
#263=DIRECTION('',(1.,4.67462326157961E-17,0.));
#264=DIRECTION('',(-4.67462326157961E-17,1.,0.));
#265=DIRECTION('',(1.,4.67462326157961E-17,0.));
#266=DIRECTION('',(-4.67462326157961E-17,1.,0.));
#267=DIRECTION('',(1.,4.67462326157961E-17,0.));
#268=DIRECTION('',(-4.67462326157961E-17,1.,0.));
#269=DIRECTION('',(1.,4.67462326157961E-17,0.));
#270=DIRECTION('',(-4.67462326157961E-17,1.,0.));
#271=DIRECTION('',(1.,4.67462326157961E-17,0.));
#272=DIRECTION('',(-4.67462326157961E-17,1.,0.));
#273=CARTESIAN_POINT('',(0.,0.,0.));
#274=CARTESIAN_POINT('',(0.,0.,0.));
#275=CARTESIAN_POINT('',(0.,0.,0.));
#276=CARTESIAN_POINT('',(0.,0.,-5.));
#277=CARTESIAN_POINT('',(0.,0.,0.));
#278=CARTESIAN_POINT('',(-1.86984930463184E-16,4.,0.));
#279=CARTESIAN_POINT('',(9.5,0.,0.));
#280=CARTESIAN_POINT('',(3.,0.,0.));
#281=CARTESIAN_POINT('',(3.,0.,-5.));
#282=CARTESIAN_POINT('',(3.,0.,0.));
#283=CARTESIAN_POINT('',(3.25,0.,0.));
#284=CARTESIAN_POINT('',(3.25,0.,-5.25));
#285=CARTESIAN_POINT('',(9.5,0.,0.));
#286=CARTESIAN_POINT('',(9.14644660940673,0.,0.));
#287=CARTESIAN_POINT('',(9.14644660940673,0.,-5.25));
#288=CARTESIAN_POINT('',(9.14644660940673,0.,0.));
#289=CARTESIAN_POINT('',(9.5,0.,0.));
#290=CARTESIAN_POINT('',(9.5,0.,-4.89644660940673));
#291=CARTESIAN_POINT('',(9.5,4.89644660940673,0.));
#292=CARTESIAN_POINT('',(9.5,4.44089209850063E-16,0.));
#293=CARTESIAN_POINT('',(9.5,3.57500442851314,0.));
#294=CARTESIAN_POINT('',(0.,0.,0.));
#295=CARTESIAN_POINT('',(0.5415,2.53130849614536E-17,0.));
#296=CARTESIAN_POINT('',(0.5415,3.4585,0.));
#297=CARTESIAN_POINT('',(9.5,4.44089209850063E-16,0.));
#298=CARTESIAN_POINT('',(7.5,3.5059674461847E-16,0.));
#299=CARTESIAN_POINT('',(7.5,3.4585,0.));
#300=CARTESIAN_POINT('',(7.5,3.5059674461847E-16,0.));
#301=CARTESIAN_POINT('',(7.79992135623731,3.64616938103585E-16,0.));
#302=CARTESIAN_POINT('',(7.79992135623731,3.15857864376269,0.));
#303=CARTESIAN_POINT('',(7.94134271247462,4.33680868994202E-16,0.));
#304=CARTESIAN_POINT('',(7.94134271247462,3.71227853719095E-16,0.));
#305=CARTESIAN_POINT('',(7.94134271247462,3.1,0.));
#306=CARTESIAN_POINT('',(9.5,4.44089209850063E-16,0.));
#307=CARTESIAN_POINT('',(8.27366950048252,3.86762879055773E-16,0.));
#308=CARTESIAN_POINT('',(8.27366950048252,3.1,0.));
#309=CARTESIAN_POINT('',(8.27366950048252,4.33680868994202E-16,0.));
#310=CARTESIAN_POINT('',(8.32543330950303,3.89182642113325E-16,0.));
#311=CARTESIAN_POINT('',(8.32543330950303,3.10681483474219,0.));
#312=CARTESIAN_POINT('',(8.32543330950303,3.89182642113325E-16,0.));
#313=CARTESIAN_POINT('',(9.35176380902051,4.37159726384456E-16,0.));
#314=CARTESIAN_POINT('',(9.35176380902051,3.38181926325533,0.));
#315=CARTESIAN_POINT('',(9.3,4.33680868994202E-16,0.));
#316=MECHANICAL_DESIGN_GEOMETRIC_PRESENTATION_REPRESENTATION('',(#175),
#317);
#317=(
GEOMETRIC_REPRESENTATION_CONTEXT(3)
GLOBAL_UNCERTAINTY_ASSIGNED_CONTEXT((#318))
GLOBAL_UNIT_ASSIGNED_CONTEXT((#321,#320,#319))
REPRESENTATION_CONTEXT('205257 MCK-PK-4-R','TOP_LEVEL_ASSEMBLY_PART')
);
#318=UNCERTAINTY_MEASURE_WITH_UNIT(LENGTH_MEASURE(0.005),#321,
'DISTANCE_ACCURACY_VALUE','Maximum Tolerance applied to model');
#319=(
NAMED_UNIT(*)
SI_UNIT($,.STERADIAN.)
SOLID_ANGLE_UNIT()
);
#320=(
NAMED_UNIT(*)
PLANE_ANGLE_UNIT()
SI_UNIT($,.RADIAN.)
);
#321=(
LENGTH_UNIT()
NAMED_UNIT(*)
SI_UNIT(.MILLI.,.METRE.)
);
#322=PRODUCT_DEFINITION_SHAPE('','',#323);
#323=PRODUCT_DEFINITION('','',#325,#324);
#324=PRODUCT_DEFINITION_CONTEXT('',#331,'design');
#325=PRODUCT_DEFINITION_FORMATION_WITH_SPECIFIED_SOURCE('','',#327,
 .NOT_KNOWN.);
#326=PRODUCT_RELATED_PRODUCT_CATEGORY('','',(#327));
#327=PRODUCT('205257 MCK-PK-4-R','205257 MCK-PK-4-R',
'205257 MCK-PK-4-R',(#329));
#328=PRODUCT_CATEGORY('','');
#329=PRODUCT_CONTEXT('',#331,'mechanical');
#330=APPLICATION_PROTOCOL_DEFINITION('international standard',
'automotive_design',2010,#331);
#331=APPLICATION_CONTEXT(
'core data for automotive mechanical design processes');
ENDSEC;
END-ISO-10303-21;
