ISO-10303-21;
HEADER;
/* Generated by software containing ST-Developer
 * from STEP Tools, Inc. (www.steptools.com) 
 */
/* OPTION: using custom renumber hook */

FILE_DESCRIPTION(
/* description */ ('STEP AP214'),
/* implementation_level */ '2;1');

FILE_NAME(
/* name */ '208378_KDV-PK-3',
/* time_stamp */ '2024-08-29T16:44:37+02:00',
/* author */ ('License CC BY-ND 4.0'),
/* organization */ ('CADENAS'),
/* preprocessor_version */ 'ST-DEVELOPER v19.3',
/* originating_system */ 'PARTsolutions',
/* authorisation */ '  ');

FILE_SCHEMA (('AUTOMOTIVE_DESIGN {1 0 10303 214 3 1 1}'));
ENDSEC;

DATA;
#10=PROPERTY_DEFINITION_REPRESENTATION(#14,#12);
#11=PROPERTY_DEFINITION_REPRESENTATION(#15,#13);
#12=REPRESENTATION('',(#16),#517);
#13=REPRESENTATION('',(#17),#517);
#14=PROPERTY_DEFINITION('pmi validation property','',#522);
#15=PROPERTY_DEFINITION('pmi validation property','',#522);
#16=VALUE_REPRESENTATION_ITEM('number of annotations',COUNT_MEASURE(0.));
#17=VALUE_REPRESENTATION_ITEM('number of views',COUNT_MEASURE(0.));
#18=SHAPE_REPRESENTATION_RELATIONSHIP('','',#295,#19);
#19=ADVANCED_BREP_SHAPE_REPRESENTATION('',(#293),#517);
#20=CONICAL_SURFACE('',#308,3.2,0.26179938779915);
#21=CONICAL_SURFACE('',#322,3.,0.523598775598299);
#22=CONICAL_SURFACE('',#330,1.8,0.785398163397449);
#23=CONICAL_SURFACE('',#342,1.8,0.31415926535898);
#24=TOROIDAL_SURFACE('',#304,3.,0.200000000000002);
#25=TOROIDAL_SURFACE('',#326,2.,0.200000000000001);
#26=TOROIDAL_SURFACE('',#332,1.7,0.199999999999999);
#27=TOROIDAL_SURFACE('',#338,1.75,0.0500000000000008);
#28=TOROIDAL_SURFACE('',#344,1.35469149439893,0.2);
#29=CYLINDRICAL_SURFACE('',#300,1.25);
#30=CYLINDRICAL_SURFACE('',#306,3.2);
#31=CYLINDRICAL_SURFACE('',#312,4.);
#32=CYLINDRICAL_SURFACE('',#316,2.75);
#33=CYLINDRICAL_SURFACE('',#320,3.);
#34=CYLINDRICAL_SURFACE('',#328,1.8);
#35=CYLINDRICAL_SURFACE('',#334,1.5);
#36=CYLINDRICAL_SURFACE('',#340,1.8);
#37=ORIENTED_EDGE('',*,*,#85,.T.);
#38=ORIENTED_EDGE('',*,*,#86,.F.);
#39=ORIENTED_EDGE('',*,*,#87,.T.);
#40=ORIENTED_EDGE('',*,*,#85,.F.);
#41=ORIENTED_EDGE('',*,*,#88,.T.);
#42=ORIENTED_EDGE('',*,*,#87,.F.);
#43=ORIENTED_EDGE('',*,*,#88,.F.);
#44=ORIENTED_EDGE('',*,*,#89,.T.);
#45=ORIENTED_EDGE('',*,*,#90,.T.);
#46=ORIENTED_EDGE('',*,*,#89,.F.);
#47=ORIENTED_EDGE('',*,*,#91,.T.);
#48=ORIENTED_EDGE('',*,*,#90,.F.);
#49=ORIENTED_EDGE('',*,*,#92,.T.);
#50=ORIENTED_EDGE('',*,*,#91,.F.);
#51=ORIENTED_EDGE('',*,*,#93,.T.);
#52=ORIENTED_EDGE('',*,*,#92,.F.);
#53=ORIENTED_EDGE('',*,*,#94,.T.);
#54=ORIENTED_EDGE('',*,*,#93,.F.);
#55=ORIENTED_EDGE('',*,*,#95,.T.);
#56=ORIENTED_EDGE('',*,*,#94,.F.);
#57=ORIENTED_EDGE('',*,*,#96,.T.);
#58=ORIENTED_EDGE('',*,*,#95,.F.);
#59=ORIENTED_EDGE('',*,*,#97,.T.);
#60=ORIENTED_EDGE('',*,*,#96,.F.);
#61=ORIENTED_EDGE('',*,*,#98,.T.);
#62=ORIENTED_EDGE('',*,*,#97,.F.);
#63=ORIENTED_EDGE('',*,*,#99,.T.);
#64=ORIENTED_EDGE('',*,*,#98,.F.);
#65=ORIENTED_EDGE('',*,*,#99,.F.);
#66=ORIENTED_EDGE('',*,*,#100,.T.);
#67=ORIENTED_EDGE('',*,*,#101,.T.);
#68=ORIENTED_EDGE('',*,*,#100,.F.);
#69=ORIENTED_EDGE('',*,*,#102,.T.);
#70=ORIENTED_EDGE('',*,*,#101,.F.);
#71=ORIENTED_EDGE('',*,*,#102,.F.);
#72=ORIENTED_EDGE('',*,*,#103,.T.);
#73=ORIENTED_EDGE('',*,*,#104,.T.);
#74=ORIENTED_EDGE('',*,*,#103,.F.);
#75=ORIENTED_EDGE('',*,*,#105,.T.);
#76=ORIENTED_EDGE('',*,*,#104,.F.);
#77=ORIENTED_EDGE('',*,*,#106,.T.);
#78=ORIENTED_EDGE('',*,*,#105,.F.);
#79=ORIENTED_EDGE('',*,*,#107,.T.);
#80=ORIENTED_EDGE('',*,*,#106,.F.);
#81=ORIENTED_EDGE('',*,*,#108,.T.);
#82=ORIENTED_EDGE('',*,*,#107,.F.);
#83=ORIENTED_EDGE('',*,*,#86,.T.);
#84=ORIENTED_EDGE('',*,*,#108,.F.);
#85=EDGE_CURVE('',#109,#109,#133,.T.);
#86=EDGE_CURVE('',#110,#110,#134,.T.);
#87=EDGE_CURVE('',#111,#111,#135,.T.);
#88=EDGE_CURVE('',#112,#112,#136,.T.);
#89=EDGE_CURVE('',#113,#113,#137,.T.);
#90=EDGE_CURVE('',#114,#114,#138,.T.);
#91=EDGE_CURVE('',#115,#115,#139,.T.);
#92=EDGE_CURVE('',#116,#116,#140,.T.);
#93=EDGE_CURVE('',#117,#117,#141,.T.);
#94=EDGE_CURVE('',#118,#118,#142,.T.);
#95=EDGE_CURVE('',#119,#119,#143,.T.);
#96=EDGE_CURVE('',#120,#120,#144,.T.);
#97=EDGE_CURVE('',#121,#121,#145,.T.);
#98=EDGE_CURVE('',#122,#122,#146,.T.);
#99=EDGE_CURVE('',#123,#123,#147,.T.);
#100=EDGE_CURVE('',#124,#124,#148,.T.);
#101=EDGE_CURVE('',#125,#125,#149,.T.);
#102=EDGE_CURVE('',#126,#126,#150,.T.);
#103=EDGE_CURVE('',#127,#127,#151,.T.);
#104=EDGE_CURVE('',#128,#128,#152,.T.);
#105=EDGE_CURVE('',#129,#129,#153,.T.);
#106=EDGE_CURVE('',#130,#130,#154,.T.);
#107=EDGE_CURVE('',#131,#131,#155,.T.);
#108=EDGE_CURVE('',#132,#132,#156,.T.);
#109=VERTEX_POINT('',#446);
#110=VERTEX_POINT('',#448);
#111=VERTEX_POINT('',#451);
#112=VERTEX_POINT('',#454);
#113=VERTEX_POINT('',#457);
#114=VERTEX_POINT('',#460);
#115=VERTEX_POINT('',#463);
#116=VERTEX_POINT('',#466);
#117=VERTEX_POINT('',#469);
#118=VERTEX_POINT('',#472);
#119=VERTEX_POINT('',#475);
#120=VERTEX_POINT('',#478);
#121=VERTEX_POINT('',#481);
#122=VERTEX_POINT('',#484);
#123=VERTEX_POINT('',#487);
#124=VERTEX_POINT('',#490);
#125=VERTEX_POINT('',#493);
#126=VERTEX_POINT('',#496);
#127=VERTEX_POINT('',#499);
#128=VERTEX_POINT('',#502);
#129=VERTEX_POINT('',#505);
#130=VERTEX_POINT('',#508);
#131=VERTEX_POINT('',#511);
#132=VERTEX_POINT('',#514);
#133=CIRCLE('',#298,1.25);
#134=CIRCLE('',#299,1.35469149439893);
#135=CIRCLE('',#301,1.25);
#136=CIRCLE('',#303,3.);
#137=CIRCLE('',#305,3.2);
#138=CIRCLE('',#307,3.2);
#139=CIRCLE('',#309,3.46794919243112);
#140=CIRCLE('',#311,4.);
#141=CIRCLE('',#313,4.);
#142=CIRCLE('',#315,2.75);
#143=CIRCLE('',#317,2.75);
#144=CIRCLE('',#319,3.);
#145=CIRCLE('',#321,3.);
#146=CIRCLE('',#323,2.13397459621556);
#147=CIRCLE('',#325,2.);
#148=CIRCLE('',#327,1.8);
#149=CIRCLE('',#329,1.8);
#150=CIRCLE('',#331,1.55857864376269);
#151=CIRCLE('',#333,1.5);
#152=CIRCLE('',#335,1.5);
#153=CIRCLE('',#337,1.75);
#154=CIRCLE('',#339,1.8);
#155=CIRCLE('',#341,1.8);
#156=CIRCLE('',#343,1.54490279765796);
#157=EDGE_LOOP('',(#37));
#158=EDGE_LOOP('',(#38));
#159=EDGE_LOOP('',(#39));
#160=EDGE_LOOP('',(#40));
#161=EDGE_LOOP('',(#41));
#162=EDGE_LOOP('',(#42));
#163=EDGE_LOOP('',(#43));
#164=EDGE_LOOP('',(#44));
#165=EDGE_LOOP('',(#45));
#166=EDGE_LOOP('',(#46));
#167=EDGE_LOOP('',(#47));
#168=EDGE_LOOP('',(#48));
#169=EDGE_LOOP('',(#49));
#170=EDGE_LOOP('',(#50));
#171=EDGE_LOOP('',(#51));
#172=EDGE_LOOP('',(#52));
#173=EDGE_LOOP('',(#53));
#174=EDGE_LOOP('',(#54));
#175=EDGE_LOOP('',(#55));
#176=EDGE_LOOP('',(#56));
#177=EDGE_LOOP('',(#57));
#178=EDGE_LOOP('',(#58));
#179=EDGE_LOOP('',(#59));
#180=EDGE_LOOP('',(#60));
#181=EDGE_LOOP('',(#61));
#182=EDGE_LOOP('',(#62));
#183=EDGE_LOOP('',(#63));
#184=EDGE_LOOP('',(#64));
#185=EDGE_LOOP('',(#65));
#186=EDGE_LOOP('',(#66));
#187=EDGE_LOOP('',(#67));
#188=EDGE_LOOP('',(#68));
#189=EDGE_LOOP('',(#69));
#190=EDGE_LOOP('',(#70));
#191=EDGE_LOOP('',(#71));
#192=EDGE_LOOP('',(#72));
#193=EDGE_LOOP('',(#73));
#194=EDGE_LOOP('',(#74));
#195=EDGE_LOOP('',(#75));
#196=EDGE_LOOP('',(#76));
#197=EDGE_LOOP('',(#77));
#198=EDGE_LOOP('',(#78));
#199=EDGE_LOOP('',(#79));
#200=EDGE_LOOP('',(#80));
#201=EDGE_LOOP('',(#81));
#202=EDGE_LOOP('',(#82));
#203=EDGE_LOOP('',(#83));
#204=EDGE_LOOP('',(#84));
#205=FACE_BOUND('',#157,.T.);
#206=FACE_BOUND('',#158,.T.);
#207=FACE_BOUND('',#159,.T.);
#208=FACE_BOUND('',#160,.T.);
#209=FACE_BOUND('',#161,.T.);
#210=FACE_BOUND('',#162,.T.);
#211=FACE_BOUND('',#163,.T.);
#212=FACE_BOUND('',#164,.T.);
#213=FACE_BOUND('',#165,.T.);
#214=FACE_BOUND('',#166,.T.);
#215=FACE_BOUND('',#167,.T.);
#216=FACE_BOUND('',#168,.T.);
#217=FACE_BOUND('',#169,.T.);
#218=FACE_BOUND('',#170,.T.);
#219=FACE_BOUND('',#171,.T.);
#220=FACE_BOUND('',#172,.T.);
#221=FACE_BOUND('',#173,.T.);
#222=FACE_BOUND('',#174,.T.);
#223=FACE_BOUND('',#175,.T.);
#224=FACE_BOUND('',#176,.T.);
#225=FACE_BOUND('',#177,.T.);
#226=FACE_BOUND('',#178,.T.);
#227=FACE_BOUND('',#179,.T.);
#228=FACE_BOUND('',#180,.T.);
#229=FACE_BOUND('',#181,.T.);
#230=FACE_BOUND('',#182,.T.);
#231=FACE_BOUND('',#183,.T.);
#232=FACE_BOUND('',#184,.T.);
#233=FACE_BOUND('',#185,.T.);
#234=FACE_BOUND('',#186,.T.);
#235=FACE_BOUND('',#187,.T.);
#236=FACE_BOUND('',#188,.T.);
#237=FACE_BOUND('',#189,.T.);
#238=FACE_BOUND('',#190,.T.);
#239=FACE_BOUND('',#191,.T.);
#240=FACE_BOUND('',#192,.T.);
#241=FACE_BOUND('',#193,.T.);
#242=FACE_BOUND('',#194,.T.);
#243=FACE_BOUND('',#195,.T.);
#244=FACE_BOUND('',#196,.T.);
#245=FACE_BOUND('',#197,.T.);
#246=FACE_BOUND('',#198,.T.);
#247=FACE_BOUND('',#199,.T.);
#248=FACE_BOUND('',#200,.T.);
#249=FACE_BOUND('',#201,.T.);
#250=FACE_BOUND('',#202,.T.);
#251=FACE_BOUND('',#203,.T.);
#252=FACE_BOUND('',#204,.T.);
#253=PLANE('',#297);
#254=PLANE('',#302);
#255=PLANE('',#310);
#256=PLANE('',#314);
#257=PLANE('',#318);
#258=PLANE('',#324);
#259=PLANE('',#336);
#260=ADVANCED_FACE('',(#205,#206),#253,.T.);
#261=ADVANCED_FACE('',(#207,#208),#29,.F.);
#262=ADVANCED_FACE('',(#209,#210),#254,.T.);
#263=ADVANCED_FACE('',(#211,#212),#24,.F.);
#264=ADVANCED_FACE('',(#213,#214),#30,.F.);
#265=ADVANCED_FACE('',(#215,#216),#20,.F.);
#266=ADVANCED_FACE('',(#217,#218),#255,.T.);
#267=ADVANCED_FACE('',(#219,#220),#31,.T.);
#268=ADVANCED_FACE('',(#221,#222),#256,.T.);
#269=ADVANCED_FACE('',(#223,#224),#32,.T.);
#270=ADVANCED_FACE('',(#225,#226),#257,.T.);
#271=ADVANCED_FACE('',(#227,#228),#33,.T.);
#272=ADVANCED_FACE('',(#229,#230),#21,.T.);
#273=ADVANCED_FACE('',(#231,#232),#258,.T.);
#274=ADVANCED_FACE('',(#233,#234),#25,.F.);
#275=ADVANCED_FACE('',(#235,#236),#34,.T.);
#276=ADVANCED_FACE('',(#237,#238),#22,.T.);
#277=ADVANCED_FACE('',(#239,#240),#26,.F.);
#278=ADVANCED_FACE('',(#241,#242),#35,.T.);
#279=ADVANCED_FACE('',(#243,#244),#259,.T.);
#280=ADVANCED_FACE('',(#245,#246),#27,.T.);
#281=ADVANCED_FACE('',(#247,#248),#36,.T.);
#282=ADVANCED_FACE('',(#249,#250),#23,.T.);
#283=ADVANCED_FACE('',(#251,#252),#28,.T.);
#284=CLOSED_SHELL('',(#260,#261,#262,#263,#264,#265,#266,#267,#268,#269,
#270,#271,#272,#273,#274,#275,#276,#277,#278,#279,#280,#281,#282,#283));
#285=STYLED_ITEM('',(#286),#293);
#286=PRESENTATION_STYLE_ASSIGNMENT((#287));
#287=SURFACE_STYLE_USAGE(.BOTH.,#288);
#288=SURFACE_SIDE_STYLE('',(#289));
#289=SURFACE_STYLE_FILL_AREA(#290);
#290=FILL_AREA_STYLE('',(#291));
#291=FILL_AREA_STYLE_COLOUR('',#292);
#292=COLOUR_RGB('',0.689999997615814,0.689999997615814,0.689999997615814);
#293=MANIFOLD_SOLID_BREP('208378 KDV-PK-3',#284);
#294=SHAPE_DEFINITION_REPRESENTATION(#522,#295);
#295=SHAPE_REPRESENTATION('208378 KDV-PK-3',(#296),#517);
#296=AXIS2_PLACEMENT_3D('',#443,#345,#346);
#297=AXIS2_PLACEMENT_3D('',#444,#347,#348);
#298=AXIS2_PLACEMENT_3D('',#445,#349,#350);
#299=AXIS2_PLACEMENT_3D('',#447,#351,#352);
#300=AXIS2_PLACEMENT_3D('',#449,#353,#354);
#301=AXIS2_PLACEMENT_3D('',#450,#355,#356);
#302=AXIS2_PLACEMENT_3D('',#452,#357,#358);
#303=AXIS2_PLACEMENT_3D('',#453,#359,#360);
#304=AXIS2_PLACEMENT_3D('',#455,#361,#362);
#305=AXIS2_PLACEMENT_3D('',#456,#363,#364);
#306=AXIS2_PLACEMENT_3D('',#458,#365,#366);
#307=AXIS2_PLACEMENT_3D('',#459,#367,#368);
#308=AXIS2_PLACEMENT_3D('',#461,#369,#370);
#309=AXIS2_PLACEMENT_3D('',#462,#371,#372);
#310=AXIS2_PLACEMENT_3D('',#464,#373,#374);
#311=AXIS2_PLACEMENT_3D('',#465,#375,#376);
#312=AXIS2_PLACEMENT_3D('',#467,#377,#378);
#313=AXIS2_PLACEMENT_3D('',#468,#379,#380);
#314=AXIS2_PLACEMENT_3D('',#470,#381,#382);
#315=AXIS2_PLACEMENT_3D('',#471,#383,#384);
#316=AXIS2_PLACEMENT_3D('',#473,#385,#386);
#317=AXIS2_PLACEMENT_3D('',#474,#387,#388);
#318=AXIS2_PLACEMENT_3D('',#476,#389,#390);
#319=AXIS2_PLACEMENT_3D('',#477,#391,#392);
#320=AXIS2_PLACEMENT_3D('',#479,#393,#394);
#321=AXIS2_PLACEMENT_3D('',#480,#395,#396);
#322=AXIS2_PLACEMENT_3D('',#482,#397,#398);
#323=AXIS2_PLACEMENT_3D('',#483,#399,#400);
#324=AXIS2_PLACEMENT_3D('',#485,#401,#402);
#325=AXIS2_PLACEMENT_3D('',#486,#403,#404);
#326=AXIS2_PLACEMENT_3D('',#488,#405,#406);
#327=AXIS2_PLACEMENT_3D('',#489,#407,#408);
#328=AXIS2_PLACEMENT_3D('',#491,#409,#410);
#329=AXIS2_PLACEMENT_3D('',#492,#411,#412);
#330=AXIS2_PLACEMENT_3D('',#494,#413,#414);
#331=AXIS2_PLACEMENT_3D('',#495,#415,#416);
#332=AXIS2_PLACEMENT_3D('',#497,#417,#418);
#333=AXIS2_PLACEMENT_3D('',#498,#419,#420);
#334=AXIS2_PLACEMENT_3D('',#500,#421,#422);
#335=AXIS2_PLACEMENT_3D('',#501,#423,#424);
#336=AXIS2_PLACEMENT_3D('',#503,#425,#426);
#337=AXIS2_PLACEMENT_3D('',#504,#427,#428);
#338=AXIS2_PLACEMENT_3D('',#506,#429,#430);
#339=AXIS2_PLACEMENT_3D('',#507,#431,#432);
#340=AXIS2_PLACEMENT_3D('',#509,#433,#434);
#341=AXIS2_PLACEMENT_3D('',#510,#435,#436);
#342=AXIS2_PLACEMENT_3D('',#512,#437,#438);
#343=AXIS2_PLACEMENT_3D('',#513,#439,#440);
#344=AXIS2_PLACEMENT_3D('',#515,#441,#442);
#345=DIRECTION('',(0.,0.,1.));
#346=DIRECTION('',(1.,0.,0.));
#347=DIRECTION('',(0.,0.,1.));
#348=DIRECTION('',(1.,0.,0.));
#349=DIRECTION('',(0.,0.,-1.));
#350=DIRECTION('',(-1.,0.,0.));
#351=DIRECTION('',(0.,0.,-1.));
#352=DIRECTION('',(-1.,0.,0.));
#353=DIRECTION('',(0.,0.,-1.));
#354=DIRECTION('',(-1.,0.,0.));
#355=DIRECTION('',(0.,0.,-1.));
#356=DIRECTION('',(-1.,0.,0.));
#357=DIRECTION('',(0.,0.,-1.));
#358=DIRECTION('',(-1.,0.,0.));
#359=DIRECTION('',(0.,0.,-1.));
#360=DIRECTION('',(-1.,0.,0.));
#361=DIRECTION('',(0.,0.,-1.));
#362=DIRECTION('',(-1.,0.,0.));
#363=DIRECTION('',(0.,0.,-1.));
#364=DIRECTION('',(-1.,0.,0.));
#365=DIRECTION('',(0.,0.,-1.));
#366=DIRECTION('',(-1.,0.,0.));
#367=DIRECTION('',(0.,0.,-1.));
#368=DIRECTION('',(-1.,0.,0.));
#369=DIRECTION('',(0.,0.,-1.));
#370=DIRECTION('',(-1.,0.,0.));
#371=DIRECTION('',(0.,0.,-1.));
#372=DIRECTION('',(-1.,0.,0.));
#373=DIRECTION('',(0.,0.,-1.));
#374=DIRECTION('',(-1.,0.,0.));
#375=DIRECTION('',(0.,0.,-1.));
#376=DIRECTION('',(-1.,0.,0.));
#377=DIRECTION('',(0.,0.,-1.));
#378=DIRECTION('',(-1.,0.,0.));
#379=DIRECTION('',(0.,0.,-1.));
#380=DIRECTION('',(-1.,0.,0.));
#381=DIRECTION('',(0.,0.,1.));
#382=DIRECTION('',(1.,0.,0.));
#383=DIRECTION('',(0.,0.,-1.));
#384=DIRECTION('',(-1.,0.,0.));
#385=DIRECTION('',(0.,0.,-1.));
#386=DIRECTION('',(-1.,0.,0.));
#387=DIRECTION('',(0.,0.,-1.));
#388=DIRECTION('',(-1.,0.,0.));
#389=DIRECTION('',(0.,0.,-1.));
#390=DIRECTION('',(-1.,0.,0.));
#391=DIRECTION('',(0.,0.,-1.));
#392=DIRECTION('',(-1.,0.,0.));
#393=DIRECTION('',(0.,0.,-1.));
#394=DIRECTION('',(-1.,0.,0.));
#395=DIRECTION('',(0.,0.,-1.));
#396=DIRECTION('',(-1.,0.,0.));
#397=DIRECTION('',(0.,0.,-1.));
#398=DIRECTION('',(-1.,0.,0.));
#399=DIRECTION('',(0.,0.,-1.));
#400=DIRECTION('',(-1.,0.,0.));
#401=DIRECTION('',(0.,0.,1.));
#402=DIRECTION('',(1.,0.,0.));
#403=DIRECTION('',(0.,0.,-1.));
#404=DIRECTION('',(-1.,0.,0.));
#405=DIRECTION('',(0.,0.,-1.));
#406=DIRECTION('',(-1.,0.,0.));
#407=DIRECTION('',(0.,0.,-1.));
#408=DIRECTION('',(-1.,0.,0.));
#409=DIRECTION('',(0.,0.,-1.));
#410=DIRECTION('',(-1.,0.,0.));
#411=DIRECTION('',(0.,0.,-1.));
#412=DIRECTION('',(-1.,0.,0.));
#413=DIRECTION('',(0.,0.,-1.));
#414=DIRECTION('',(-1.,0.,0.));
#415=DIRECTION('',(0.,0.,-1.));
#416=DIRECTION('',(-1.,0.,0.));
#417=DIRECTION('',(0.,0.,-1.));
#418=DIRECTION('',(-1.,0.,0.));
#419=DIRECTION('',(0.,0.,-1.));
#420=DIRECTION('',(-1.,0.,0.));
#421=DIRECTION('',(0.,0.,-1.));
#422=DIRECTION('',(-1.,0.,0.));
#423=DIRECTION('',(0.,0.,-1.));
#424=DIRECTION('',(-1.,0.,0.));
#425=DIRECTION('',(0.,0.,-1.));
#426=DIRECTION('',(-1.,0.,0.));
#427=DIRECTION('',(0.,0.,-1.));
#428=DIRECTION('',(-1.,0.,0.));
#429=DIRECTION('',(0.,0.,-1.));
#430=DIRECTION('',(-1.,0.,0.));
#431=DIRECTION('',(0.,0.,-1.));
#432=DIRECTION('',(-1.,0.,0.));
#433=DIRECTION('',(0.,0.,-1.));
#434=DIRECTION('',(-1.,0.,0.));
#435=DIRECTION('',(0.,0.,-1.));
#436=DIRECTION('',(-1.,0.,0.));
#437=DIRECTION('',(0.,0.,-1.));
#438=DIRECTION('',(-1.,0.,0.));
#439=DIRECTION('',(0.,0.,-1.));
#440=DIRECTION('',(-1.,0.,0.));
#441=DIRECTION('',(0.,0.,-1.));
#442=DIRECTION('',(-1.,0.,0.));
#443=CARTESIAN_POINT('',(0.,0.,0.));
#444=CARTESIAN_POINT('',(0.,1.35469149439893,4.06575814682064E-17));
#445=CARTESIAN_POINT('',(0.,0.,0.));
#446=CARTESIAN_POINT('',(-1.25,0.,0.));
#447=CARTESIAN_POINT('',(0.,0.,0.));
#448=CARTESIAN_POINT('',(-1.35469149439893,0.,0.));
#449=CARTESIAN_POINT('',(0.,0.,-20.5));
#450=CARTESIAN_POINT('',(0.,0.,-14.8));
#451=CARTESIAN_POINT('',(-1.25,0.,-14.8));
#452=CARTESIAN_POINT('',(0.,1.25,-14.8));
#453=CARTESIAN_POINT('',(0.,0.,-14.8));
#454=CARTESIAN_POINT('',(-3.,0.,-14.8));
#455=CARTESIAN_POINT('',(0.,0.,-15.));
#456=CARTESIAN_POINT('',(0.,0.,-15.));
#457=CARTESIAN_POINT('',(-3.2,0.,-15.));
#458=CARTESIAN_POINT('',(0.,0.,-20.5));
#459=CARTESIAN_POINT('',(0.,0.,-19.5));
#460=CARTESIAN_POINT('',(-3.2,0.,-19.5));
#461=CARTESIAN_POINT('',(0.,0.,-19.5));
#462=CARTESIAN_POINT('',(0.,0.,-20.5));
#463=CARTESIAN_POINT('',(-3.46794919243112,0.,-20.5));
#464=CARTESIAN_POINT('',(0.,3.46794919243112,-20.5));
#465=CARTESIAN_POINT('',(0.,0.,-20.5));
#466=CARTESIAN_POINT('',(-4.,0.,-20.5));
#467=CARTESIAN_POINT('',(0.,0.,-20.5));
#468=CARTESIAN_POINT('',(0.,0.,-14.2));
#469=CARTESIAN_POINT('',(-4.,0.,-14.2));
#470=CARTESIAN_POINT('',(0.,4.,-14.2));
#471=CARTESIAN_POINT('',(0.,0.,-14.2));
#472=CARTESIAN_POINT('',(-2.75,0.,-14.2));
#473=CARTESIAN_POINT('',(0.,0.,-20.5));
#474=CARTESIAN_POINT('',(0.,0.,-11.5));
#475=CARTESIAN_POINT('',(-2.75,0.,-11.5));
#476=CARTESIAN_POINT('',(0.,2.75,-11.5));
#477=CARTESIAN_POINT('',(0.,0.,-11.5));
#478=CARTESIAN_POINT('',(-3.,0.,-11.5));
#479=CARTESIAN_POINT('',(0.,0.,-20.5));
#480=CARTESIAN_POINT('',(0.,0.,-10.));
#481=CARTESIAN_POINT('',(-3.,0.,-10.));
#482=CARTESIAN_POINT('',(0.,0.,-10.));
#483=CARTESIAN_POINT('',(0.,0.,-8.5));
#484=CARTESIAN_POINT('',(-2.13397459621556,0.,-8.5));
#485=CARTESIAN_POINT('',(0.,2.13397459621556,-8.5));
#486=CARTESIAN_POINT('',(0.,0.,-8.5));
#487=CARTESIAN_POINT('',(-2.,0.,-8.5));
#488=CARTESIAN_POINT('',(0.,0.,-8.3));
#489=CARTESIAN_POINT('',(0.,0.,-8.3));
#490=CARTESIAN_POINT('',(-1.8,0.,-8.3));
#491=CARTESIAN_POINT('',(0.,0.,-20.5));
#492=CARTESIAN_POINT('',(0.,0.,-5.55));
#493=CARTESIAN_POINT('',(-1.8,0.,-5.55));
#494=CARTESIAN_POINT('',(0.,0.,-5.55));
#495=CARTESIAN_POINT('',(0.,0.,-5.30857864376269));
#496=CARTESIAN_POINT('',(-1.55857864376269,0.,-5.30857864376269));
#497=CARTESIAN_POINT('',(0.,0.,-5.16715728752538));
#498=CARTESIAN_POINT('',(0.,0.,-5.16715728752538));
#499=CARTESIAN_POINT('',(-1.5,0.,-5.16715728752538));
#500=CARTESIAN_POINT('',(0.,0.,-20.5));
#501=CARTESIAN_POINT('',(0.,0.,-1.));
#502=CARTESIAN_POINT('',(-1.5,0.,-1.));
#503=CARTESIAN_POINT('',(0.,1.5,-1.));
#504=CARTESIAN_POINT('',(0.,0.,-1.));
#505=CARTESIAN_POINT('',(-1.75,0.,-1.));
#506=CARTESIAN_POINT('',(0.,0.,-0.949999999999999));
#507=CARTESIAN_POINT('',(0.,0.,-0.95));
#508=CARTESIAN_POINT('',(-1.8,0.,-0.95));
#509=CARTESIAN_POINT('',(0.,0.,-20.5));
#510=CARTESIAN_POINT('',(0.,0.,-0.923305061152575));
#511=CARTESIAN_POINT('',(-1.8,0.,-0.923305061152575));
#512=CARTESIAN_POINT('',(0.,0.,-0.923305061152575));
#513=CARTESIAN_POINT('',(0.,0.,-0.138196601125011));
#514=CARTESIAN_POINT('',(-1.54490279765796,0.,-0.138196601125011));
#515=CARTESIAN_POINT('',(0.,0.,-0.2));
#516=MECHANICAL_DESIGN_GEOMETRIC_PRESENTATION_REPRESENTATION('',(#285),
#517);
#517=(
GEOMETRIC_REPRESENTATION_CONTEXT(3)
GLOBAL_UNCERTAINTY_ASSIGNED_CONTEXT((#518))
GLOBAL_UNIT_ASSIGNED_CONTEXT((#521,#520,#519))
REPRESENTATION_CONTEXT('208378 KDV-PK-3','TOP_LEVEL_ASSEMBLY_PART')
);
#518=UNCERTAINTY_MEASURE_WITH_UNIT(LENGTH_MEASURE(0.005),#521,
'DISTANCE_ACCURACY_VALUE','Maximum Tolerance applied to model');
#519=(
NAMED_UNIT(*)
SI_UNIT($,.STERADIAN.)
SOLID_ANGLE_UNIT()
);
#520=(
NAMED_UNIT(*)
PLANE_ANGLE_UNIT()
SI_UNIT($,.RADIAN.)
);
#521=(
LENGTH_UNIT()
NAMED_UNIT(*)
SI_UNIT(.MILLI.,.METRE.)
);
#522=PRODUCT_DEFINITION_SHAPE('','',#523);
#523=PRODUCT_DEFINITION('','',#525,#524);
#524=PRODUCT_DEFINITION_CONTEXT('',#531,'design');
#525=PRODUCT_DEFINITION_FORMATION_WITH_SPECIFIED_SOURCE('','',#527,
 .NOT_KNOWN.);
#526=PRODUCT_RELATED_PRODUCT_CATEGORY('','',(#527));
#527=PRODUCT('208378 KDV-PK-3','208378 KDV-PK-3','208378 KDV-PK-3',(#529));
#528=PRODUCT_CATEGORY('','');
#529=PRODUCT_CONTEXT('',#531,'mechanical');
#530=APPLICATION_PROTOCOL_DEFINITION('international standard',
'automotive_design',2010,#531);
#531=APPLICATION_CONTEXT(
'core data for automotive mechanical design processes');
ENDSEC;
END-ISO-10303-21;
