ISO-10303-21;
HEADER;
/* Generated by software containing ST-Developer
 * from STEP Tools, Inc. (www.steptools.com) 
 */
/* OPTION: using custom renumber hook */

FILE_DESCRIPTION(
/* description */ ('STEP AP214'),
/* implementation_level */ '2;1');

FILE_NAME(
/* name */ '31747_LSNSG-32',
/* time_stamp */ '2024-09-05T02:19:05+02:00',
/* author */ ('License CC BY-ND 4.0'),
/* organization */ ('CADENAS'),
/* preprocessor_version */ 'ST-DEVELOPER v19.3',
/* originating_system */ 'PARTsolutions',
/* authorisation */ '  ');

FILE_SCHEMA (('AUTOMOTIVE_DESIGN {1 0 10303 214 3 1 1}'));
ENDSEC;

DATA;
#10=PROPERTY_DEFINITION_REPRESENTATION(#14,#12);
#11=PROPERTY_DEFINITION_REPRESENTATION(#15,#13);
#12=REPRESENTATION('',(#16),#597);
#13=REPRESENTATION('',(#17),#597);
#14=PROPERTY_DEFINITION('pmi validation property','',#602);
#15=PROPERTY_DEFINITION('pmi validation property','',#602);
#16=VALUE_REPRESENTATION_ITEM('number of annotations',COUNT_MEASURE(0.));
#17=VALUE_REPRESENTATION_ITEM('number of views',COUNT_MEASURE(0.));
#18=SHAPE_REPRESENTATION_RELATIONSHIP('','',#353,#19);
#19=ADVANCED_BREP_SHAPE_REPRESENTATION('',(#351),#597);
#20=DEGENERATE_TOROIDAL_SURFACE('',#389,4.95884609498247,13.3,.F.);
#21=DEGENERATE_TOROIDAL_SURFACE('',#391,4.95884609498247,13.3,.F.);
#22=CONICAL_SURFACE('',#376,12.0320508075689,1.0471975511966);
#23=CONICAL_SURFACE('',#380,10.,1.0471975511966);
#24=CONICAL_SURFACE('',#381,10.,0.523598775598303);
#25=CONICAL_SURFACE('',#388,9.88452994616208,0.523598775598305);
#26=LINE('',#511,#44);
#27=LINE('',#514,#45);
#28=LINE('',#516,#46);
#29=LINE('',#518,#47);
#30=LINE('',#522,#48);
#31=LINE('',#526,#49);
#32=LINE('',#528,#50);
#33=LINE('',#530,#51);
#34=LINE('',#534,#52);
#35=LINE('',#538,#53);
#36=LINE('',#540,#54);
#37=LINE('',#542,#55);
#38=LINE('',#544,#56);
#39=LINE('',#546,#57);
#40=LINE('',#548,#58);
#41=LINE('',#550,#59);
#42=LINE('',#552,#60);
#43=LINE('',#554,#61);
#44=VECTOR('',#408,1000.);
#45=VECTOR('',#409,1000.);
#46=VECTOR('',#410,1000.);
#47=VECTOR('',#411,1000.);
#48=VECTOR('',#416,1000.);
#49=VECTOR('',#421,1000.);
#50=VECTOR('',#422,1000.);
#51=VECTOR('',#423,1000.);
#52=VECTOR('',#428,1000.);
#53=VECTOR('',#433,1000.);
#54=VECTOR('',#434,1000.);
#55=VECTOR('',#435,1000.);
#56=VECTOR('',#438,1000.);
#57=VECTOR('',#439,1000.);
#58=VECTOR('',#440,1000.);
#59=VECTOR('',#443,1000.);
#60=VECTOR('',#444,1000.);
#61=VECTOR('',#445,1000.);
#62=PLANE('',#358);
#63=PLANE('',#362);
#64=PLANE('',#366);
#65=PLANE('',#367);
#66=PLANE('',#368);
#67=PLANE('',#372);
#68=PLANE('',#374);
#69=PLANE('',#383);
#70=PLANE('',#385);
#71=PLANE('',#393);
#72=PLANE('',#397);
#73=ORIENTED_EDGE('',*,*,#149,.T.);
#74=ORIENTED_EDGE('',*,*,#150,.F.);
#75=ORIENTED_EDGE('',*,*,#151,.T.);
#76=ORIENTED_EDGE('',*,*,#152,.F.);
#77=ORIENTED_EDGE('',*,*,#153,.F.);
#78=ORIENTED_EDGE('',*,*,#154,.T.);
#79=ORIENTED_EDGE('',*,*,#155,.T.);
#80=ORIENTED_EDGE('',*,*,#156,.F.);
#81=ORIENTED_EDGE('',*,*,#157,.F.);
#82=ORIENTED_EDGE('',*,*,#152,.T.);
#83=ORIENTED_EDGE('',*,*,#158,.T.);
#84=ORIENTED_EDGE('',*,*,#159,.F.);
#85=ORIENTED_EDGE('',*,*,#160,.F.);
#86=ORIENTED_EDGE('',*,*,#156,.T.);
#87=ORIENTED_EDGE('',*,*,#161,.F.);
#88=ORIENTED_EDGE('',*,*,#162,.F.);
#89=ORIENTED_EDGE('',*,*,#163,.T.);
#90=ORIENTED_EDGE('',*,*,#159,.T.);
#91=ORIENTED_EDGE('',*,*,#164,.T.);
#92=ORIENTED_EDGE('',*,*,#165,.F.);
#93=ORIENTED_EDGE('',*,*,#166,.F.);
#94=ORIENTED_EDGE('',*,*,#162,.T.);
#95=ORIENTED_EDGE('',*,*,#167,.T.);
#96=ORIENTED_EDGE('',*,*,#168,.F.);
#97=ORIENTED_EDGE('',*,*,#169,.F.);
#98=ORIENTED_EDGE('',*,*,#165,.T.);
#99=ORIENTED_EDGE('',*,*,#170,.T.);
#100=ORIENTED_EDGE('',*,*,#171,.F.);
#101=ORIENTED_EDGE('',*,*,#172,.F.);
#102=ORIENTED_EDGE('',*,*,#168,.T.);
#103=ORIENTED_EDGE('',*,*,#173,.T.);
#104=ORIENTED_EDGE('',*,*,#154,.F.);
#105=ORIENTED_EDGE('',*,*,#174,.F.);
#106=ORIENTED_EDGE('',*,*,#171,.T.);
#107=ORIENTED_EDGE('',*,*,#175,.T.);
#108=ORIENTED_EDGE('',*,*,#153,.T.);
#109=ORIENTED_EDGE('',*,*,#157,.T.);
#110=ORIENTED_EDGE('',*,*,#160,.T.);
#111=ORIENTED_EDGE('',*,*,#163,.F.);
#112=ORIENTED_EDGE('',*,*,#166,.T.);
#113=ORIENTED_EDGE('',*,*,#169,.T.);
#114=ORIENTED_EDGE('',*,*,#172,.T.);
#115=ORIENTED_EDGE('',*,*,#174,.T.);
#116=ORIENTED_EDGE('',*,*,#176,.F.);
#117=ORIENTED_EDGE('',*,*,#151,.F.);
#118=ORIENTED_EDGE('',*,*,#173,.F.);
#119=ORIENTED_EDGE('',*,*,#170,.F.);
#120=ORIENTED_EDGE('',*,*,#167,.F.);
#121=ORIENTED_EDGE('',*,*,#164,.F.);
#122=ORIENTED_EDGE('',*,*,#161,.T.);
#123=ORIENTED_EDGE('',*,*,#158,.F.);
#124=ORIENTED_EDGE('',*,*,#155,.F.);
#125=ORIENTED_EDGE('',*,*,#150,.T.);
#126=ORIENTED_EDGE('',*,*,#176,.T.);
#127=ORIENTED_EDGE('',*,*,#177,.T.);
#128=ORIENTED_EDGE('',*,*,#178,.F.);
#129=ORIENTED_EDGE('',*,*,#175,.F.);
#130=ORIENTED_EDGE('',*,*,#177,.F.);
#131=ORIENTED_EDGE('',*,*,#179,.T.);
#132=ORIENTED_EDGE('',*,*,#149,.F.);
#133=ORIENTED_EDGE('',*,*,#180,.F.);
#134=ORIENTED_EDGE('',*,*,#179,.F.);
#135=ORIENTED_EDGE('',*,*,#181,.T.);
#136=ORIENTED_EDGE('',*,*,#182,.F.);
#137=ORIENTED_EDGE('',*,*,#178,.T.);
#138=ORIENTED_EDGE('',*,*,#181,.F.);
#139=ORIENTED_EDGE('',*,*,#183,.T.);
#140=ORIENTED_EDGE('',*,*,#180,.T.);
#141=ORIENTED_EDGE('',*,*,#182,.T.);
#142=ORIENTED_EDGE('',*,*,#184,.F.);
#143=ORIENTED_EDGE('',*,*,#185,.T.);
#144=ORIENTED_EDGE('',*,*,#183,.F.);
#145=ORIENTED_EDGE('',*,*,#186,.T.);
#146=ORIENTED_EDGE('',*,*,#185,.F.);
#147=ORIENTED_EDGE('',*,*,#184,.T.);
#148=ORIENTED_EDGE('',*,*,#186,.F.);
#149=EDGE_CURVE('',#187,#187,#217,.T.);
#150=EDGE_CURVE('',#188,#188,#218,.T.);
#151=EDGE_CURVE('',#189,#190,#26,.T.);
#152=EDGE_CURVE('',#191,#190,#27,.T.);
#153=EDGE_CURVE('',#192,#191,#28,.T.);
#154=EDGE_CURVE('',#192,#189,#29,.T.);
#155=EDGE_CURVE('',#190,#193,#219,.T.);
#156=EDGE_CURVE('',#194,#193,#30,.T.);
#157=EDGE_CURVE('',#191,#194,#220,.T.);
#158=EDGE_CURVE('',#193,#195,#31,.T.);
#159=EDGE_CURVE('',#196,#195,#32,.T.);
#160=EDGE_CURVE('',#194,#196,#33,.T.);
#161=EDGE_CURVE('',#197,#195,#221,.T.);
#162=EDGE_CURVE('',#198,#197,#34,.T.);
#163=EDGE_CURVE('',#198,#196,#222,.T.);
#164=EDGE_CURVE('',#197,#199,#35,.T.);
#165=EDGE_CURVE('',#200,#199,#36,.T.);
#166=EDGE_CURVE('',#198,#200,#37,.T.);
#167=EDGE_CURVE('',#199,#201,#38,.T.);
#168=EDGE_CURVE('',#202,#201,#39,.T.);
#169=EDGE_CURVE('',#200,#202,#40,.T.);
#170=EDGE_CURVE('',#201,#203,#41,.T.);
#171=EDGE_CURVE('',#204,#203,#42,.T.);
#172=EDGE_CURVE('',#202,#204,#43,.T.);
#173=EDGE_CURVE('',#203,#189,#223,.T.);
#174=EDGE_CURVE('',#204,#192,#224,.T.);
#175=EDGE_CURVE('',#205,#205,#225,.F.);
#176=EDGE_CURVE('',#206,#206,#226,.F.);
#177=EDGE_CURVE('',#207,#207,#227,.T.);
#178=EDGE_CURVE('',#208,#208,#228,.T.);
#179=EDGE_CURVE('',#209,#209,#229,.T.);
#180=EDGE_CURVE('',#210,#210,#230,.T.);
#181=EDGE_CURVE('',#211,#211,#231,.T.);
#182=EDGE_CURVE('',#212,#212,#232,.T.);
#183=EDGE_CURVE('',#213,#213,#233,.T.);
#184=EDGE_CURVE('',#214,#214,#234,.T.);
#185=EDGE_CURVE('',#215,#215,#235,.T.);
#186=EDGE_CURVE('',#216,#216,#236,.T.);
#187=VERTEX_POINT('',#507);
#188=VERTEX_POINT('',#509);
#189=VERTEX_POINT('',#512);
#190=VERTEX_POINT('',#513);
#191=VERTEX_POINT('',#515);
#192=VERTEX_POINT('',#517);
#193=VERTEX_POINT('',#521);
#194=VERTEX_POINT('',#523);
#195=VERTEX_POINT('',#527);
#196=VERTEX_POINT('',#529);
#197=VERTEX_POINT('',#533);
#198=VERTEX_POINT('',#535);
#199=VERTEX_POINT('',#539);
#200=VERTEX_POINT('',#541);
#201=VERTEX_POINT('',#545);
#202=VERTEX_POINT('',#547);
#203=VERTEX_POINT('',#551);
#204=VERTEX_POINT('',#553);
#205=VERTEX_POINT('',#560);
#206=VERTEX_POINT('',#563);
#207=VERTEX_POINT('',#567);
#208=VERTEX_POINT('',#569);
#209=VERTEX_POINT('',#573);
#210=VERTEX_POINT('',#576);
#211=VERTEX_POINT('',#579);
#212=VERTEX_POINT('',#581);
#213=VERTEX_POINT('',#585);
#214=VERTEX_POINT('',#588);
#215=VERTEX_POINT('',#591);
#216=VERTEX_POINT('',#594);
#217=CIRCLE('',#356,10.);
#218=CIRCLE('',#357,10.);
#219=CIRCLE('',#360,15.5);
#220=CIRCLE('',#361,15.5);
#221=CIRCLE('',#364,0.999999999999982);
#222=CIRCLE('',#365,0.999999999999982);
#223=CIRCLE('',#370,1.00000000000006);
#224=CIRCLE('',#371,1.00000000000006);
#225=CIRCLE('',#373,10.3);
#226=CIRCLE('',#375,10.3);
#227=CIRCLE('',#378,10.);
#228=CIRCLE('',#379,10.);
#229=CIRCLE('',#382,9.88452994616208);
#230=CIRCLE('',#384,7.36552001447729);
#231=CIRCLE('',#386,9.88452994616208);
#232=CIRCLE('',#387,7.36552001447728);
#233=CIRCLE('',#390,6.35000000000001);
#234=CIRCLE('',#392,6.34999999999999);
#235=CIRCLE('',#394,5.);
#236=CIRCLE('',#396,5.);
#237=EDGE_LOOP('',(#73));
#238=EDGE_LOOP('',(#74));
#239=EDGE_LOOP('',(#75,#76,#77,#78));
#240=EDGE_LOOP('',(#79,#80,#81,#82));
#241=EDGE_LOOP('',(#83,#84,#85,#86));
#242=EDGE_LOOP('',(#87,#88,#89,#90));
#243=EDGE_LOOP('',(#91,#92,#93,#94));
#244=EDGE_LOOP('',(#95,#96,#97,#98));
#245=EDGE_LOOP('',(#99,#100,#101,#102));
#246=EDGE_LOOP('',(#103,#104,#105,#106));
#247=EDGE_LOOP('',(#107));
#248=EDGE_LOOP('',(#108,#109,#110,#111,#112,#113,#114,#115));
#249=EDGE_LOOP('',(#116));
#250=EDGE_LOOP('',(#117,#118,#119,#120,#121,#122,#123,#124));
#251=EDGE_LOOP('',(#125));
#252=EDGE_LOOP('',(#126));
#253=EDGE_LOOP('',(#127));
#254=EDGE_LOOP('',(#128));
#255=EDGE_LOOP('',(#129));
#256=EDGE_LOOP('',(#130));
#257=EDGE_LOOP('',(#131));
#258=EDGE_LOOP('',(#132));
#259=EDGE_LOOP('',(#133));
#260=EDGE_LOOP('',(#134));
#261=EDGE_LOOP('',(#135));
#262=EDGE_LOOP('',(#136));
#263=EDGE_LOOP('',(#137));
#264=EDGE_LOOP('',(#138));
#265=EDGE_LOOP('',(#139));
#266=EDGE_LOOP('',(#140));
#267=EDGE_LOOP('',(#141));
#268=EDGE_LOOP('',(#142));
#269=EDGE_LOOP('',(#143));
#270=EDGE_LOOP('',(#144));
#271=EDGE_LOOP('',(#145));
#272=EDGE_LOOP('',(#146));
#273=EDGE_LOOP('',(#147));
#274=EDGE_LOOP('',(#148));
#275=FACE_BOUND('',#237,.T.);
#276=FACE_BOUND('',#238,.T.);
#277=FACE_BOUND('',#239,.T.);
#278=FACE_BOUND('',#240,.T.);
#279=FACE_BOUND('',#241,.T.);
#280=FACE_BOUND('',#242,.T.);
#281=FACE_BOUND('',#243,.T.);
#282=FACE_BOUND('',#244,.T.);
#283=FACE_BOUND('',#245,.T.);
#284=FACE_BOUND('',#246,.T.);
#285=FACE_BOUND('',#247,.T.);
#286=FACE_BOUND('',#248,.T.);
#287=FACE_BOUND('',#249,.T.);
#288=FACE_BOUND('',#250,.T.);
#289=FACE_BOUND('',#251,.T.);
#290=FACE_BOUND('',#252,.T.);
#291=FACE_BOUND('',#253,.T.);
#292=FACE_BOUND('',#254,.T.);
#293=FACE_BOUND('',#255,.T.);
#294=FACE_BOUND('',#256,.T.);
#295=FACE_BOUND('',#257,.T.);
#296=FACE_BOUND('',#258,.T.);
#297=FACE_BOUND('',#259,.T.);
#298=FACE_BOUND('',#260,.T.);
#299=FACE_BOUND('',#261,.T.);
#300=FACE_BOUND('',#262,.T.);
#301=FACE_BOUND('',#263,.T.);
#302=FACE_BOUND('',#264,.T.);
#303=FACE_BOUND('',#265,.T.);
#304=FACE_BOUND('',#266,.T.);
#305=FACE_BOUND('',#267,.T.);
#306=FACE_BOUND('',#268,.T.);
#307=FACE_BOUND('',#269,.T.);
#308=FACE_BOUND('',#270,.T.);
#309=FACE_BOUND('',#271,.T.);
#310=FACE_BOUND('',#272,.T.);
#311=FACE_BOUND('',#273,.T.);
#312=FACE_BOUND('',#274,.T.);
#313=CYLINDRICAL_SURFACE('',#355,10.);
#314=CYLINDRICAL_SURFACE('',#359,15.5);
#315=CYLINDRICAL_SURFACE('',#363,0.999999999999982);
#316=CYLINDRICAL_SURFACE('',#369,1.00000000000006);
#317=CYLINDRICAL_SURFACE('',#377,10.);
#318=CYLINDRICAL_SURFACE('',#395,5.);
#319=ADVANCED_FACE('',(#275,#276),#313,.F.);
#320=ADVANCED_FACE('',(#277),#62,.F.);
#321=ADVANCED_FACE('',(#278),#314,.T.);
#322=ADVANCED_FACE('',(#279),#63,.F.);
#323=ADVANCED_FACE('',(#280),#315,.F.);
#324=ADVANCED_FACE('',(#281),#64,.F.);
#325=ADVANCED_FACE('',(#282),#65,.F.);
#326=ADVANCED_FACE('',(#283),#66,.F.);
#327=ADVANCED_FACE('',(#284),#316,.T.);
#328=ADVANCED_FACE('',(#285,#286),#67,.T.);
#329=ADVANCED_FACE('',(#287,#288),#68,.F.);
#330=ADVANCED_FACE('',(#289,#290),#22,.F.);
#331=ADVANCED_FACE('',(#291,#292),#317,.F.);
#332=ADVANCED_FACE('',(#293,#294),#23,.F.);
#333=ADVANCED_FACE('',(#295,#296),#24,.T.);
#334=ADVANCED_FACE('',(#297,#298),#69,.T.);
#335=ADVANCED_FACE('',(#299,#300),#70,.T.);
#336=ADVANCED_FACE('',(#301,#302),#25,.T.);
#337=ADVANCED_FACE('',(#303,#304),#20,.F.);
#338=ADVANCED_FACE('',(#305,#306),#21,.F.);
#339=ADVANCED_FACE('',(#307,#308),#71,.T.);
#340=ADVANCED_FACE('',(#309,#310),#318,.F.);
#341=ADVANCED_FACE('',(#311,#312),#72,.T.);
#342=CLOSED_SHELL('',(#319,#320,#321,#322,#323,#324,#325,#326,#327,#328,
#329,#330,#331,#332,#333,#334,#335,#336,#337,#338,#339,#340,#341));
#343=STYLED_ITEM('',(#344),#351);
#344=PRESENTATION_STYLE_ASSIGNMENT((#345));
#345=SURFACE_STYLE_USAGE(.BOTH.,#346);
#346=SURFACE_SIDE_STYLE('',(#347));
#347=SURFACE_STYLE_FILL_AREA(#348);
#348=FILL_AREA_STYLE('',(#349));
#349=FILL_AREA_STYLE_COLOUR('',#350);
#350=COLOUR_RGB('',0.689999997615814,0.689999997615814,0.689999997615814);
#351=MANIFOLD_SOLID_BREP('31747 LSNSG-32',#342);
#352=SHAPE_DEFINITION_REPRESENTATION(#602,#353);
#353=SHAPE_REPRESENTATION('31747 LSNSG-32',(#354),#597);
#354=AXIS2_PLACEMENT_3D('',#504,#398,#399);
#355=AXIS2_PLACEMENT_3D('',#505,#400,#401);
#356=AXIS2_PLACEMENT_3D('',#506,#402,#403);
#357=AXIS2_PLACEMENT_3D('',#508,#404,#405);
#358=AXIS2_PLACEMENT_3D('',#510,#406,#407);
#359=AXIS2_PLACEMENT_3D('',#519,#412,#413);
#360=AXIS2_PLACEMENT_3D('',#520,#414,#415);
#361=AXIS2_PLACEMENT_3D('',#524,#417,#418);
#362=AXIS2_PLACEMENT_3D('',#525,#419,#420);
#363=AXIS2_PLACEMENT_3D('',#531,#424,#425);
#364=AXIS2_PLACEMENT_3D('',#532,#426,#427);
#365=AXIS2_PLACEMENT_3D('',#536,#429,#430);
#366=AXIS2_PLACEMENT_3D('',#537,#431,#432);
#367=AXIS2_PLACEMENT_3D('',#543,#436,#437);
#368=AXIS2_PLACEMENT_3D('',#549,#441,#442);
#369=AXIS2_PLACEMENT_3D('',#555,#446,#447);
#370=AXIS2_PLACEMENT_3D('',#556,#448,#449);
#371=AXIS2_PLACEMENT_3D('',#557,#450,#451);
#372=AXIS2_PLACEMENT_3D('',#558,#452,#453);
#373=AXIS2_PLACEMENT_3D('',#559,#454,#455);
#374=AXIS2_PLACEMENT_3D('',#561,#456,#457);
#375=AXIS2_PLACEMENT_3D('',#562,#458,#459);
#376=AXIS2_PLACEMENT_3D('',#564,#460,#461);
#377=AXIS2_PLACEMENT_3D('',#565,#462,#463);
#378=AXIS2_PLACEMENT_3D('',#566,#464,#465);
#379=AXIS2_PLACEMENT_3D('',#568,#466,#467);
#380=AXIS2_PLACEMENT_3D('',#570,#468,#469);
#381=AXIS2_PLACEMENT_3D('',#571,#470,#471);
#382=AXIS2_PLACEMENT_3D('',#572,#472,#473);
#383=AXIS2_PLACEMENT_3D('',#574,#474,#475);
#384=AXIS2_PLACEMENT_3D('',#575,#476,#477);
#385=AXIS2_PLACEMENT_3D('',#577,#478,#479);
#386=AXIS2_PLACEMENT_3D('',#578,#480,#481);
#387=AXIS2_PLACEMENT_3D('',#580,#482,#483);
#388=AXIS2_PLACEMENT_3D('',#582,#484,#485);
#389=AXIS2_PLACEMENT_3D('',#583,#486,#487);
#390=AXIS2_PLACEMENT_3D('',#584,#488,#489);
#391=AXIS2_PLACEMENT_3D('',#586,#490,#491);
#392=AXIS2_PLACEMENT_3D('',#587,#492,#493);
#393=AXIS2_PLACEMENT_3D('',#589,#494,#495);
#394=AXIS2_PLACEMENT_3D('',#590,#496,#497);
#395=AXIS2_PLACEMENT_3D('',#592,#498,#499);
#396=AXIS2_PLACEMENT_3D('',#593,#500,#501);
#397=AXIS2_PLACEMENT_3D('',#595,#502,#503);
#398=DIRECTION('',(0.,0.,1.));
#399=DIRECTION('',(1.,0.,0.));
#400=DIRECTION('',(1.,0.,0.));
#401=DIRECTION('',(0.,0.,-1.));
#402=DIRECTION('',(1.,0.,0.));
#403=DIRECTION('',(0.,0.,-1.));
#404=DIRECTION('',(1.,0.,0.));
#405=DIRECTION('',(0.,0.,-1.));
#406=DIRECTION('',(0.,-0.408667766459147,0.912683218130635));
#407=DIRECTION('',(0.,-0.912683218130635,-0.408667766459147));
#408=DIRECTION('',(0.,0.912683218130635,0.408667766459147));
#409=DIRECTION('',(-1.,0.,0.));
#410=DIRECTION('',(0.,0.912683218130635,0.408667766459147));
#411=DIRECTION('',(-1.,0.,0.));
#412=DIRECTION('',(-1.,0.,0.));
#413=DIRECTION('',(0.,0.,1.));
#414=DIRECTION('',(1.,0.,0.));
#415=DIRECTION('',(0.,0.,-1.));
#416=DIRECTION('',(-1.,0.,0.));
#417=DIRECTION('',(1.,0.,0.));
#418=DIRECTION('',(0.,0.,-1.));
#419=DIRECTION('',(0.,0.62673569881107,-0.779231906325581));
#420=DIRECTION('',(0.,0.779231906325581,0.62673569881107));
#421=DIRECTION('',(0.,-0.779231906325581,-0.62673569881107));
#422=DIRECTION('',(-1.,0.,0.));
#423=DIRECTION('',(0.,-0.779231906325581,-0.62673569881107));
#424=DIRECTION('',(-1.,0.,0.));
#425=DIRECTION('',(0.,0.,1.));
#426=DIRECTION('',(1.,0.,0.));
#427=DIRECTION('',(0.,0.,-1.));
#428=DIRECTION('',(-1.,0.,0.));
#429=DIRECTION('',(1.,0.,0.));
#430=DIRECTION('',(0.,0.,-1.));
#431=DIRECTION('',(0.,0.,-1.));
#432=DIRECTION('',(-1.,0.,0.));
#433=DIRECTION('',(0.,-1.,0.));
#434=DIRECTION('',(-1.,0.,0.));
#435=DIRECTION('',(0.,-1.,0.));
#436=DIRECTION('',(0.,1.,0.));
#437=DIRECTION('',(0.,0.,1.));
#438=DIRECTION('',(0.,0.,-1.));
#439=DIRECTION('',(-1.,0.,0.));
#440=DIRECTION('',(0.,0.,-1.));
#441=DIRECTION('',(0.,0.,1.));
#442=DIRECTION('',(1.,0.,0.));
#443=DIRECTION('',(0.,1.,0.));
#444=DIRECTION('',(-1.,0.,0.));
#445=DIRECTION('',(0.,1.,0.));
#446=DIRECTION('',(-1.,0.,0.));
#447=DIRECTION('',(0.,0.,1.));
#448=DIRECTION('',(1.,0.,0.));
#449=DIRECTION('',(0.,0.,-1.));
#450=DIRECTION('',(1.,0.,0.));
#451=DIRECTION('',(0.,0.,-1.));
#452=DIRECTION('',(1.,0.,0.));
#453=DIRECTION('',(0.,0.,-1.));
#454=DIRECTION('',(1.,0.,0.));
#455=DIRECTION('',(0.,0.,-1.));
#456=DIRECTION('',(1.,0.,0.));
#457=DIRECTION('',(0.,0.,-1.));
#458=DIRECTION('',(1.,0.,0.));
#459=DIRECTION('',(0.,0.,-1.));
#460=DIRECTION('',(-1.,0.,0.));
#461=DIRECTION('',(0.,0.,1.));
#462=DIRECTION('',(1.,0.,0.));
#463=DIRECTION('',(0.,0.,-1.));
#464=DIRECTION('',(1.,0.,0.));
#465=DIRECTION('',(0.,0.,-1.));
#466=DIRECTION('',(1.,0.,0.));
#467=DIRECTION('',(0.,0.,-1.));
#468=DIRECTION('',(1.,0.,0.));
#469=DIRECTION('',(0.,0.,-1.));
#470=DIRECTION('',(1.,0.,0.));
#471=DIRECTION('',(0.,0.,-1.));
#472=DIRECTION('',(1.,0.,0.));
#473=DIRECTION('',(0.,0.,-1.));
#474=DIRECTION('',(-1.,0.,0.));
#475=DIRECTION('',(0.,0.,1.));
#476=DIRECTION('',(-1.,0.,0.));
#477=DIRECTION('',(0.,0.,1.));
#478=DIRECTION('',(1.,0.,0.));
#479=DIRECTION('',(0.,0.,-1.));
#480=DIRECTION('',(1.,0.,0.));
#481=DIRECTION('',(0.,0.,-1.));
#482=DIRECTION('',(1.,0.,0.));
#483=DIRECTION('',(0.,0.,-1.));
#484=DIRECTION('',(-1.,0.,0.));
#485=DIRECTION('',(0.,0.,1.));
#486=DIRECTION('',(1.,0.,0.));
#487=DIRECTION('',(0.,0.,-1.));
#488=DIRECTION('',(1.,0.,0.));
#489=DIRECTION('',(0.,0.,-1.));
#490=DIRECTION('',(1.,0.,0.));
#491=DIRECTION('',(0.,0.,-1.));
#492=DIRECTION('',(1.,0.,0.));
#493=DIRECTION('',(0.,0.,-1.));
#494=DIRECTION('',(-1.,0.,0.));
#495=DIRECTION('',(0.,0.,1.));
#496=DIRECTION('',(1.,0.,0.));
#497=DIRECTION('',(0.,0.,-1.));
#498=DIRECTION('',(1.,0.,0.));
#499=DIRECTION('',(0.,0.,-1.));
#500=DIRECTION('',(1.,0.,0.));
#501=DIRECTION('',(0.,0.,-1.));
#502=DIRECTION('',(1.,0.,0.));
#503=DIRECTION('',(0.,0.,-1.));
#504=CARTESIAN_POINT('',(0.,0.,0.));
#505=CARTESIAN_POINT('',(5.,32.,13.25));
#506=CARTESIAN_POINT('',(-4.80000000000001,32.,13.25));
#507=CARTESIAN_POINT('',(-4.80000000000001,32.,3.25));
#508=CARTESIAN_POINT('',(-4.82679491924311,32.,13.25));
#509=CARTESIAN_POINT('',(-4.82679491924311,32.,3.25));
#510=CARTESIAN_POINT('',(5.,8.70700574308522,-14.1626832181306));
#511=CARTESIAN_POINT('',(-5.,8.70700574308522,-14.1626832181306));
#512=CARTESIAN_POINT('',(-5.,8.70700574308522,-14.1626832181306));
#513=CARTESIAN_POINT('',(-5.,38.3343503801168,-0.896589881024843));
#514=CARTESIAN_POINT('',(5.,38.3343503801168,-0.896589881024843));
#515=CARTESIAN_POINT('',(5.,38.3343503801168,-0.896589881024843));
#516=CARTESIAN_POINT('',(5.,8.70700574308522,-14.1626832181306));
#517=CARTESIAN_POINT('',(5.,8.70700574308522,-14.1626832181306));
#518=CARTESIAN_POINT('',(5.,8.70700574308522,-14.1626832181306));
#519=CARTESIAN_POINT('',(5.,32.,13.25));
#520=CARTESIAN_POINT('',(-5.,32.,13.25));
#521=CARTESIAN_POINT('',(-5.,22.2855966684284,25.3280945480465));
#522=CARTESIAN_POINT('',(5.,22.2855966684284,25.3280945480465));
#523=CARTESIAN_POINT('',(5.,22.2855966684284,25.3280945480465));
#524=CARTESIAN_POINT('',(5.,32.,13.25));
#525=CARTESIAN_POINT('',(5.,22.2855966684284,25.3280945480465));
#526=CARTESIAN_POINT('',(-5.,22.2855966684284,25.3280945480465));
#527=CARTESIAN_POINT('',(-5.,8.7864849907483,14.4707680936744));
#528=CARTESIAN_POINT('',(5.,8.7864849907483,14.4707680936744));
#529=CARTESIAN_POINT('',(5.,8.7864849907483,14.4707680936744));
#530=CARTESIAN_POINT('',(5.,22.2855966684284,25.3280945480465));
#531=CARTESIAN_POINT('',(5.,8.15974929193723,15.25));
#532=CARTESIAN_POINT('',(-5.,8.15974929193723,15.25));
#533=CARTESIAN_POINT('',(-5.,8.15974929193723,14.25));
#534=CARTESIAN_POINT('',(5.,8.15974929193723,14.25));
#535=CARTESIAN_POINT('',(5.,8.15974929193723,14.25));
#536=CARTESIAN_POINT('',(5.,8.15974929193723,15.25));
#537=CARTESIAN_POINT('',(5.,8.15974929193723,14.25));
#538=CARTESIAN_POINT('',(-5.,8.15974929193723,14.25));
#539=CARTESIAN_POINT('',(-5.,1.73472347597681E-15,14.25));
#540=CARTESIAN_POINT('',(5.,1.73472347597681E-15,14.25));
#541=CARTESIAN_POINT('',(5.,1.73472347597681E-15,14.25));
#542=CARTESIAN_POINT('',(5.,8.15974929193723,14.25));
#543=CARTESIAN_POINT('',(5.,0.,14.25));
#544=CARTESIAN_POINT('',(-5.,0.,14.25));
#545=CARTESIAN_POINT('',(-5.,0.,-14.25));
#546=CARTESIAN_POINT('',(5.,0.,-14.25));
#547=CARTESIAN_POINT('',(5.,0.,-14.25));
#548=CARTESIAN_POINT('',(5.,0.,14.25));
#549=CARTESIAN_POINT('',(5.,0.,-14.25));
#550=CARTESIAN_POINT('',(-5.,0.,-14.25));
#551=CARTESIAN_POINT('',(-5.,8.29833797662607,-14.25));
#552=CARTESIAN_POINT('',(5.,8.29833797662607,-14.25));
#553=CARTESIAN_POINT('',(5.,8.29833797662607,-14.25));
#554=CARTESIAN_POINT('',(5.,0.,-14.25));
#555=CARTESIAN_POINT('',(5.,8.29833797662606,-13.2499999999999));
#556=CARTESIAN_POINT('',(-5.,8.29833797662606,-13.2499999999999));
#557=CARTESIAN_POINT('',(5.,8.29833797662606,-13.2499999999999));
#558=CARTESIAN_POINT('',(5.,32.,13.25));
#559=CARTESIAN_POINT('',(5.,32.,13.25));
#560=CARTESIAN_POINT('',(5.,32.,2.95));
#561=CARTESIAN_POINT('',(-5.,32.,13.25));
#562=CARTESIAN_POINT('',(-5.,32.,13.25));
#563=CARTESIAN_POINT('',(-5.,32.,2.95));
#564=CARTESIAN_POINT('',(-6.,32.,13.25));
#565=CARTESIAN_POINT('',(5.,32.,13.25));
#566=CARTESIAN_POINT('',(4.82679491924311,32.,13.25));
#567=CARTESIAN_POINT('',(4.82679491924311,32.,3.25));
#568=CARTESIAN_POINT('',(4.80000000000001,32.,13.25));
#569=CARTESIAN_POINT('',(4.80000000000001,32.,3.25));
#570=CARTESIAN_POINT('',(4.82679491924311,32.,13.25));
#571=CARTESIAN_POINT('',(-4.80000000000001,32.,13.25));
#572=CARTESIAN_POINT('',(-5.00000000000001,32.,13.25));
#573=CARTESIAN_POINT('',(-5.00000000000001,32.,3.36547005383792));
#574=CARTESIAN_POINT('',(-5.00000000000001,41.8845299461621,13.25));
#575=CARTESIAN_POINT('',(-5.00000000000001,32.,13.25));
#576=CARTESIAN_POINT('',(-5.00000000000001,32.,20.6155200144773));
#577=CARTESIAN_POINT('',(5.00000000000001,39.3602524602255,13.25));
#578=CARTESIAN_POINT('',(5.00000000000001,32.,13.25));
#579=CARTESIAN_POINT('',(5.00000000000001,32.,3.36547005383792));
#580=CARTESIAN_POINT('',(5.00000000000001,32.,13.25));
#581=CARTESIAN_POINT('',(5.00000000000001,32.,5.88447998552272));
#582=CARTESIAN_POINT('',(5.00000000000001,32.,13.25));
#583=CARTESIAN_POINT('',(-1.30104260698261E-14,32.,13.25));
#584=CARTESIAN_POINT('',(-6.99999999999999,32.,13.25));
#585=CARTESIAN_POINT('',(-6.99999999999999,32.,6.89999999999999));
#586=CARTESIAN_POINT('',(-1.30104260698261E-14,32.,13.25));
#587=CARTESIAN_POINT('',(6.99999999999999,32.,13.25));
#588=CARTESIAN_POINT('',(6.99999999999999,32.,6.9));
#589=CARTESIAN_POINT('',(-6.99999999999999,38.35,13.25));
#590=CARTESIAN_POINT('',(-6.99999999999999,32.,13.25));
#591=CARTESIAN_POINT('',(-6.99999999999999,32.,8.25));
#592=CARTESIAN_POINT('',(6.99999999999999,32.,13.25));
#593=CARTESIAN_POINT('',(6.99999999999999,32.,13.25));
#594=CARTESIAN_POINT('',(6.99999999999999,32.,8.25));
#595=CARTESIAN_POINT('',(6.99999999999999,37.,13.25));
#596=MECHANICAL_DESIGN_GEOMETRIC_PRESENTATION_REPRESENTATION('',(#343),
#597);
#597=(
GEOMETRIC_REPRESENTATION_CONTEXT(3)
GLOBAL_UNCERTAINTY_ASSIGNED_CONTEXT((#598))
GLOBAL_UNIT_ASSIGNED_CONTEXT((#601,#600,#599))
REPRESENTATION_CONTEXT('31747 LSNSG-32','TOP_LEVEL_ASSEMBLY_PART')
);
#598=UNCERTAINTY_MEASURE_WITH_UNIT(LENGTH_MEASURE(0.005),#601,
'DISTANCE_ACCURACY_VALUE','Maximum Tolerance applied to model');
#599=(
NAMED_UNIT(*)
SI_UNIT($,.STERADIAN.)
SOLID_ANGLE_UNIT()
);
#600=(
NAMED_UNIT(*)
PLANE_ANGLE_UNIT()
SI_UNIT($,.RADIAN.)
);
#601=(
LENGTH_UNIT()
NAMED_UNIT(*)
SI_UNIT(.MILLI.,.METRE.)
);
#602=PRODUCT_DEFINITION_SHAPE('','',#603);
#603=PRODUCT_DEFINITION('','',#605,#604);
#604=PRODUCT_DEFINITION_CONTEXT('',#611,'design');
#605=PRODUCT_DEFINITION_FORMATION_WITH_SPECIFIED_SOURCE('','',#607,
 .NOT_KNOWN.);
#606=PRODUCT_RELATED_PRODUCT_CATEGORY('','',(#607));
#607=PRODUCT('31747 LSNSG-32','31747 LSNSG-32','31747 LSNSG-32',(#609));
#608=PRODUCT_CATEGORY('','');
#609=PRODUCT_CONTEXT('',#611,'mechanical');
#610=APPLICATION_PROTOCOL_DEFINITION('international standard',
'automotive_design',2010,#611);
#611=APPLICATION_CONTEXT(
'core data for automotive mechanical design processes');
ENDSEC;
END-ISO-10303-21;
