ISO-10303-21;
HEADER;
/* Generated by software containing ST-Developer
 * from STEP Tools, Inc. (www.steptools.com) 
 */
/* OPTION: using custom renumber hook */

FILE_DESCRIPTION(
/* description */ ('STEP AP214'),
/* implementation_level */ '2;1');

FILE_NAME(
/* name */ '31751_LSNSG-80',
/* time_stamp */ '2024-09-05T02:20:48+02:00',
/* author */ ('License CC BY-ND 4.0'),
/* organization */ ('CADENAS'),
/* preprocessor_version */ 'ST-DEVELOPER v19.3',
/* originating_system */ 'PARTsolutions',
/* authorisation */ '  ');

FILE_SCHEMA (('AUTOMOTIVE_DESIGN {1 0 10303 214 3 1 1}'));
ENDSEC;

DATA;
#10=PROPERTY_DEFINITION_REPRESENTATION(#14,#12);
#11=PROPERTY_DEFINITION_REPRESENTATION(#15,#13);
#12=REPRESENTATION('',(#16),#637);
#13=REPRESENTATION('',(#17),#637);
#14=PROPERTY_DEFINITION('pmi validation property','',#642);
#15=PROPERTY_DEFINITION('pmi validation property','',#642);
#16=VALUE_REPRESENTATION_ITEM('number of annotations',COUNT_MEASURE(0.));
#17=VALUE_REPRESENTATION_ITEM('number of views',COUNT_MEASURE(0.));
#18=SHAPE_REPRESENTATION_RELATIONSHIP('','',#375,#19);
#19=ADVANCED_BREP_SHAPE_REPRESENTATION('',(#373),#637);
#20=DEGENERATE_TOROIDAL_SURFACE('',#415,7.59436802675436,23.75,.F.);
#21=DEGENERATE_TOROIDAL_SURFACE('',#417,7.59436802675436,23.75,.F.);
#22=CONICAL_SURFACE('',#398,22.3320508075689,1.0471975511966);
#23=CONICAL_SURFACE('',#402,20.,1.0471975511966);
#24=CONICAL_SURFACE('',#403,20.,0.523598775598311);
#25=CONICAL_SURFACE('',#407,14.5361564794243,0.523598775598319);
#26=CONICAL_SURFACE('',#409,14.3283103825161,0.523598775598278);
#27=CONICAL_SURFACE('',#414,19.7921539030917,0.523598775598309);
#28=LINE('',#545,#46);
#29=LINE('',#548,#47);
#30=LINE('',#550,#48);
#31=LINE('',#552,#49);
#32=LINE('',#556,#50);
#33=LINE('',#560,#51);
#34=LINE('',#562,#52);
#35=LINE('',#564,#53);
#36=LINE('',#568,#54);
#37=LINE('',#572,#55);
#38=LINE('',#574,#56);
#39=LINE('',#576,#57);
#40=LINE('',#578,#58);
#41=LINE('',#580,#59);
#42=LINE('',#582,#60);
#43=LINE('',#584,#61);
#44=LINE('',#586,#62);
#45=LINE('',#588,#63);
#46=VECTOR('',#434,1000.);
#47=VECTOR('',#435,1000.);
#48=VECTOR('',#436,1000.);
#49=VECTOR('',#437,1000.);
#50=VECTOR('',#442,1000.);
#51=VECTOR('',#447,1000.);
#52=VECTOR('',#448,1000.);
#53=VECTOR('',#449,1000.);
#54=VECTOR('',#454,1000.);
#55=VECTOR('',#459,1000.);
#56=VECTOR('',#460,1000.);
#57=VECTOR('',#461,1000.);
#58=VECTOR('',#464,1000.);
#59=VECTOR('',#465,1000.);
#60=VECTOR('',#466,1000.);
#61=VECTOR('',#469,1000.);
#62=VECTOR('',#470,1000.);
#63=VECTOR('',#471,1000.);
#64=PLANE('',#380);
#65=PLANE('',#384);
#66=PLANE('',#388);
#67=PLANE('',#389);
#68=PLANE('',#390);
#69=PLANE('',#394);
#70=PLANE('',#396);
#71=PLANE('',#405);
#72=PLANE('',#412);
#73=PLANE('',#419);
#74=PLANE('',#423);
#75=ORIENTED_EDGE('',*,*,#155,.T.);
#76=ORIENTED_EDGE('',*,*,#156,.F.);
#77=ORIENTED_EDGE('',*,*,#157,.T.);
#78=ORIENTED_EDGE('',*,*,#158,.F.);
#79=ORIENTED_EDGE('',*,*,#159,.F.);
#80=ORIENTED_EDGE('',*,*,#160,.T.);
#81=ORIENTED_EDGE('',*,*,#161,.T.);
#82=ORIENTED_EDGE('',*,*,#162,.F.);
#83=ORIENTED_EDGE('',*,*,#163,.F.);
#84=ORIENTED_EDGE('',*,*,#158,.T.);
#85=ORIENTED_EDGE('',*,*,#164,.T.);
#86=ORIENTED_EDGE('',*,*,#165,.F.);
#87=ORIENTED_EDGE('',*,*,#166,.F.);
#88=ORIENTED_EDGE('',*,*,#162,.T.);
#89=ORIENTED_EDGE('',*,*,#167,.F.);
#90=ORIENTED_EDGE('',*,*,#168,.F.);
#91=ORIENTED_EDGE('',*,*,#169,.T.);
#92=ORIENTED_EDGE('',*,*,#165,.T.);
#93=ORIENTED_EDGE('',*,*,#170,.T.);
#94=ORIENTED_EDGE('',*,*,#171,.F.);
#95=ORIENTED_EDGE('',*,*,#172,.F.);
#96=ORIENTED_EDGE('',*,*,#168,.T.);
#97=ORIENTED_EDGE('',*,*,#173,.T.);
#98=ORIENTED_EDGE('',*,*,#174,.F.);
#99=ORIENTED_EDGE('',*,*,#175,.F.);
#100=ORIENTED_EDGE('',*,*,#171,.T.);
#101=ORIENTED_EDGE('',*,*,#176,.T.);
#102=ORIENTED_EDGE('',*,*,#177,.F.);
#103=ORIENTED_EDGE('',*,*,#178,.F.);
#104=ORIENTED_EDGE('',*,*,#174,.T.);
#105=ORIENTED_EDGE('',*,*,#179,.T.);
#106=ORIENTED_EDGE('',*,*,#160,.F.);
#107=ORIENTED_EDGE('',*,*,#180,.F.);
#108=ORIENTED_EDGE('',*,*,#177,.T.);
#109=ORIENTED_EDGE('',*,*,#181,.T.);
#110=ORIENTED_EDGE('',*,*,#159,.T.);
#111=ORIENTED_EDGE('',*,*,#163,.T.);
#112=ORIENTED_EDGE('',*,*,#166,.T.);
#113=ORIENTED_EDGE('',*,*,#169,.F.);
#114=ORIENTED_EDGE('',*,*,#172,.T.);
#115=ORIENTED_EDGE('',*,*,#175,.T.);
#116=ORIENTED_EDGE('',*,*,#178,.T.);
#117=ORIENTED_EDGE('',*,*,#180,.T.);
#118=ORIENTED_EDGE('',*,*,#182,.F.);
#119=ORIENTED_EDGE('',*,*,#157,.F.);
#120=ORIENTED_EDGE('',*,*,#179,.F.);
#121=ORIENTED_EDGE('',*,*,#176,.F.);
#122=ORIENTED_EDGE('',*,*,#173,.F.);
#123=ORIENTED_EDGE('',*,*,#170,.F.);
#124=ORIENTED_EDGE('',*,*,#167,.T.);
#125=ORIENTED_EDGE('',*,*,#164,.F.);
#126=ORIENTED_EDGE('',*,*,#161,.F.);
#127=ORIENTED_EDGE('',*,*,#156,.T.);
#128=ORIENTED_EDGE('',*,*,#182,.T.);
#129=ORIENTED_EDGE('',*,*,#183,.T.);
#130=ORIENTED_EDGE('',*,*,#184,.F.);
#131=ORIENTED_EDGE('',*,*,#181,.F.);
#132=ORIENTED_EDGE('',*,*,#183,.F.);
#133=ORIENTED_EDGE('',*,*,#185,.T.);
#134=ORIENTED_EDGE('',*,*,#155,.F.);
#135=ORIENTED_EDGE('',*,*,#186,.T.);
#136=ORIENTED_EDGE('',*,*,#185,.F.);
#137=ORIENTED_EDGE('',*,*,#187,.F.);
#138=ORIENTED_EDGE('',*,*,#186,.F.);
#139=ORIENTED_EDGE('',*,*,#188,.T.);
#140=ORIENTED_EDGE('',*,*,#189,.F.);
#141=ORIENTED_EDGE('',*,*,#190,.T.);
#142=ORIENTED_EDGE('',*,*,#188,.F.);
#143=ORIENTED_EDGE('',*,*,#184,.T.);
#144=ORIENTED_EDGE('',*,*,#190,.F.);
#145=ORIENTED_EDGE('',*,*,#191,.T.);
#146=ORIENTED_EDGE('',*,*,#187,.T.);
#147=ORIENTED_EDGE('',*,*,#189,.T.);
#148=ORIENTED_EDGE('',*,*,#192,.F.);
#149=ORIENTED_EDGE('',*,*,#193,.T.);
#150=ORIENTED_EDGE('',*,*,#191,.F.);
#151=ORIENTED_EDGE('',*,*,#194,.T.);
#152=ORIENTED_EDGE('',*,*,#193,.F.);
#153=ORIENTED_EDGE('',*,*,#192,.T.);
#154=ORIENTED_EDGE('',*,*,#194,.F.);
#155=EDGE_CURVE('',#195,#195,#227,.T.);
#156=EDGE_CURVE('',#196,#196,#228,.T.);
#157=EDGE_CURVE('',#197,#198,#28,.T.);
#158=EDGE_CURVE('',#199,#198,#29,.T.);
#159=EDGE_CURVE('',#200,#199,#30,.T.);
#160=EDGE_CURVE('',#200,#197,#31,.T.);
#161=EDGE_CURVE('',#198,#201,#229,.T.);
#162=EDGE_CURVE('',#202,#201,#32,.T.);
#163=EDGE_CURVE('',#199,#202,#230,.T.);
#164=EDGE_CURVE('',#201,#203,#33,.T.);
#165=EDGE_CURVE('',#204,#203,#34,.T.);
#166=EDGE_CURVE('',#202,#204,#35,.T.);
#167=EDGE_CURVE('',#205,#203,#231,.T.);
#168=EDGE_CURVE('',#206,#205,#36,.T.);
#169=EDGE_CURVE('',#206,#204,#232,.T.);
#170=EDGE_CURVE('',#205,#207,#37,.T.);
#171=EDGE_CURVE('',#208,#207,#38,.T.);
#172=EDGE_CURVE('',#206,#208,#39,.T.);
#173=EDGE_CURVE('',#207,#209,#40,.T.);
#174=EDGE_CURVE('',#210,#209,#41,.T.);
#175=EDGE_CURVE('',#208,#210,#42,.T.);
#176=EDGE_CURVE('',#209,#211,#43,.T.);
#177=EDGE_CURVE('',#212,#211,#44,.T.);
#178=EDGE_CURVE('',#210,#212,#45,.T.);
#179=EDGE_CURVE('',#211,#197,#233,.T.);
#180=EDGE_CURVE('',#212,#200,#234,.T.);
#181=EDGE_CURVE('',#213,#213,#235,.F.);
#182=EDGE_CURVE('',#214,#214,#236,.F.);
#183=EDGE_CURVE('',#215,#215,#237,.T.);
#184=EDGE_CURVE('',#216,#216,#238,.T.);
#185=EDGE_CURVE('',#217,#217,#239,.T.);
#186=EDGE_CURVE('',#218,#218,#240,.T.);
#187=EDGE_CURVE('',#219,#219,#241,.F.);
#188=EDGE_CURVE('',#220,#220,#242,.T.);
#189=EDGE_CURVE('',#221,#221,#243,.F.);
#190=EDGE_CURVE('',#222,#222,#244,.T.);
#191=EDGE_CURVE('',#223,#223,#245,.T.);
#192=EDGE_CURVE('',#224,#224,#246,.T.);
#193=EDGE_CURVE('',#225,#225,#247,.T.);
#194=EDGE_CURVE('',#226,#226,#248,.T.);
#195=VERTEX_POINT('',#541);
#196=VERTEX_POINT('',#543);
#197=VERTEX_POINT('',#546);
#198=VERTEX_POINT('',#547);
#199=VERTEX_POINT('',#549);
#200=VERTEX_POINT('',#551);
#201=VERTEX_POINT('',#555);
#202=VERTEX_POINT('',#557);
#203=VERTEX_POINT('',#561);
#204=VERTEX_POINT('',#563);
#205=VERTEX_POINT('',#567);
#206=VERTEX_POINT('',#569);
#207=VERTEX_POINT('',#573);
#208=VERTEX_POINT('',#575);
#209=VERTEX_POINT('',#579);
#210=VERTEX_POINT('',#581);
#211=VERTEX_POINT('',#585);
#212=VERTEX_POINT('',#587);
#213=VERTEX_POINT('',#594);
#214=VERTEX_POINT('',#597);
#215=VERTEX_POINT('',#601);
#216=VERTEX_POINT('',#603);
#217=VERTEX_POINT('',#607);
#218=VERTEX_POINT('',#610);
#219=VERTEX_POINT('',#613);
#220=VERTEX_POINT('',#616);
#221=VERTEX_POINT('',#618);
#222=VERTEX_POINT('',#621);
#223=VERTEX_POINT('',#625);
#224=VERTEX_POINT('',#628);
#225=VERTEX_POINT('',#631);
#226=VERTEX_POINT('',#634);
#227=CIRCLE('',#378,20.);
#228=CIRCLE('',#379,20.);
#229=CIRCLE('',#382,28.5);
#230=CIRCLE('',#383,28.5);
#231=CIRCLE('',#386,0.999999999999988);
#232=CIRCLE('',#387,0.999999999999988);
#233=CIRCLE('',#392,0.999999999999935);
#234=CIRCLE('',#393,0.999999999999935);
#235=CIRCLE('',#395,20.6);
#236=CIRCLE('',#397,20.6);
#237=CIRCLE('',#400,20.);
#238=CIRCLE('',#401,20.);
#239=CIRCLE('',#404,19.7921539030917);
#240=CIRCLE('',#406,14.5361564794243);
#241=CIRCLE('',#408,14.4469514592392);
#242=CIRCLE('',#410,14.5361564794243);
#243=CIRCLE('',#411,14.4469514592392);
#244=CIRCLE('',#413,19.7921539030917);
#245=CIRCLE('',#416,12.6);
#246=CIRCLE('',#418,12.6);
#247=CIRCLE('',#420,10.);
#248=CIRCLE('',#422,10.);
#249=EDGE_LOOP('',(#75));
#250=EDGE_LOOP('',(#76));
#251=EDGE_LOOP('',(#77,#78,#79,#80));
#252=EDGE_LOOP('',(#81,#82,#83,#84));
#253=EDGE_LOOP('',(#85,#86,#87,#88));
#254=EDGE_LOOP('',(#89,#90,#91,#92));
#255=EDGE_LOOP('',(#93,#94,#95,#96));
#256=EDGE_LOOP('',(#97,#98,#99,#100));
#257=EDGE_LOOP('',(#101,#102,#103,#104));
#258=EDGE_LOOP('',(#105,#106,#107,#108));
#259=EDGE_LOOP('',(#109));
#260=EDGE_LOOP('',(#110,#111,#112,#113,#114,#115,#116,#117));
#261=EDGE_LOOP('',(#118));
#262=EDGE_LOOP('',(#119,#120,#121,#122,#123,#124,#125,#126));
#263=EDGE_LOOP('',(#127));
#264=EDGE_LOOP('',(#128));
#265=EDGE_LOOP('',(#129));
#266=EDGE_LOOP('',(#130));
#267=EDGE_LOOP('',(#131));
#268=EDGE_LOOP('',(#132));
#269=EDGE_LOOP('',(#133));
#270=EDGE_LOOP('',(#134));
#271=EDGE_LOOP('',(#135));
#272=EDGE_LOOP('',(#136));
#273=EDGE_LOOP('',(#137));
#274=EDGE_LOOP('',(#138));
#275=EDGE_LOOP('',(#139));
#276=EDGE_LOOP('',(#140));
#277=EDGE_LOOP('',(#141));
#278=EDGE_LOOP('',(#142));
#279=EDGE_LOOP('',(#143));
#280=EDGE_LOOP('',(#144));
#281=EDGE_LOOP('',(#145));
#282=EDGE_LOOP('',(#146));
#283=EDGE_LOOP('',(#147));
#284=EDGE_LOOP('',(#148));
#285=EDGE_LOOP('',(#149));
#286=EDGE_LOOP('',(#150));
#287=EDGE_LOOP('',(#151));
#288=EDGE_LOOP('',(#152));
#289=EDGE_LOOP('',(#153));
#290=EDGE_LOOP('',(#154));
#291=FACE_BOUND('',#249,.T.);
#292=FACE_BOUND('',#250,.T.);
#293=FACE_BOUND('',#251,.T.);
#294=FACE_BOUND('',#252,.T.);
#295=FACE_BOUND('',#253,.T.);
#296=FACE_BOUND('',#254,.T.);
#297=FACE_BOUND('',#255,.T.);
#298=FACE_BOUND('',#256,.T.);
#299=FACE_BOUND('',#257,.T.);
#300=FACE_BOUND('',#258,.T.);
#301=FACE_BOUND('',#259,.T.);
#302=FACE_BOUND('',#260,.T.);
#303=FACE_BOUND('',#261,.T.);
#304=FACE_BOUND('',#262,.T.);
#305=FACE_BOUND('',#263,.T.);
#306=FACE_BOUND('',#264,.T.);
#307=FACE_BOUND('',#265,.T.);
#308=FACE_BOUND('',#266,.T.);
#309=FACE_BOUND('',#267,.T.);
#310=FACE_BOUND('',#268,.T.);
#311=FACE_BOUND('',#269,.T.);
#312=FACE_BOUND('',#270,.T.);
#313=FACE_BOUND('',#271,.T.);
#314=FACE_BOUND('',#272,.T.);
#315=FACE_BOUND('',#273,.T.);
#316=FACE_BOUND('',#274,.T.);
#317=FACE_BOUND('',#275,.T.);
#318=FACE_BOUND('',#276,.T.);
#319=FACE_BOUND('',#277,.T.);
#320=FACE_BOUND('',#278,.T.);
#321=FACE_BOUND('',#279,.T.);
#322=FACE_BOUND('',#280,.T.);
#323=FACE_BOUND('',#281,.T.);
#324=FACE_BOUND('',#282,.T.);
#325=FACE_BOUND('',#283,.T.);
#326=FACE_BOUND('',#284,.T.);
#327=FACE_BOUND('',#285,.T.);
#328=FACE_BOUND('',#286,.T.);
#329=FACE_BOUND('',#287,.T.);
#330=FACE_BOUND('',#288,.T.);
#331=FACE_BOUND('',#289,.T.);
#332=FACE_BOUND('',#290,.T.);
#333=CYLINDRICAL_SURFACE('',#377,20.);
#334=CYLINDRICAL_SURFACE('',#381,28.5);
#335=CYLINDRICAL_SURFACE('',#385,0.999999999999988);
#336=CYLINDRICAL_SURFACE('',#391,0.999999999999935);
#337=CYLINDRICAL_SURFACE('',#399,20.);
#338=CYLINDRICAL_SURFACE('',#421,10.);
#339=ADVANCED_FACE('',(#291,#292),#333,.F.);
#340=ADVANCED_FACE('',(#293),#64,.F.);
#341=ADVANCED_FACE('',(#294),#334,.T.);
#342=ADVANCED_FACE('',(#295),#65,.F.);
#343=ADVANCED_FACE('',(#296),#335,.F.);
#344=ADVANCED_FACE('',(#297),#66,.F.);
#345=ADVANCED_FACE('',(#298),#67,.F.);
#346=ADVANCED_FACE('',(#299),#68,.F.);
#347=ADVANCED_FACE('',(#300),#336,.T.);
#348=ADVANCED_FACE('',(#301,#302),#69,.T.);
#349=ADVANCED_FACE('',(#303,#304),#70,.F.);
#350=ADVANCED_FACE('',(#305,#306),#22,.F.);
#351=ADVANCED_FACE('',(#307,#308),#337,.F.);
#352=ADVANCED_FACE('',(#309,#310),#23,.F.);
#353=ADVANCED_FACE('',(#311,#312),#24,.T.);
#354=ADVANCED_FACE('',(#313,#314),#71,.T.);
#355=ADVANCED_FACE('',(#315,#316),#25,.F.);
#356=ADVANCED_FACE('',(#317,#318),#26,.F.);
#357=ADVANCED_FACE('',(#319,#320),#72,.T.);
#358=ADVANCED_FACE('',(#321,#322),#27,.T.);
#359=ADVANCED_FACE('',(#323,#324),#20,.F.);
#360=ADVANCED_FACE('',(#325,#326),#21,.F.);
#361=ADVANCED_FACE('',(#327,#328),#73,.T.);
#362=ADVANCED_FACE('',(#329,#330),#338,.F.);
#363=ADVANCED_FACE('',(#331,#332),#74,.T.);
#364=CLOSED_SHELL('',(#339,#340,#341,#342,#343,#344,#345,#346,#347,#348,
#349,#350,#351,#352,#353,#354,#355,#356,#357,#358,#359,#360,#361,#362,#363));
#365=STYLED_ITEM('',(#366),#373);
#366=PRESENTATION_STYLE_ASSIGNMENT((#367));
#367=SURFACE_STYLE_USAGE(.BOTH.,#368);
#368=SURFACE_SIDE_STYLE('',(#369));
#369=SURFACE_STYLE_FILL_AREA(#370);
#370=FILL_AREA_STYLE('',(#371));
#371=FILL_AREA_STYLE_COLOUR('',#372);
#372=COLOUR_RGB('',0.689999997615814,0.689999997615814,0.689999997615814);
#373=MANIFOLD_SOLID_BREP('31751 LSNSG-80',#364);
#374=SHAPE_DEFINITION_REPRESENTATION(#642,#375);
#375=SHAPE_REPRESENTATION('31751 LSNSG-80',(#376),#637);
#376=AXIS2_PLACEMENT_3D('',#538,#424,#425);
#377=AXIS2_PLACEMENT_3D('',#539,#426,#427);
#378=AXIS2_PLACEMENT_3D('',#540,#428,#429);
#379=AXIS2_PLACEMENT_3D('',#542,#430,#431);
#380=AXIS2_PLACEMENT_3D('',#544,#432,#433);
#381=AXIS2_PLACEMENT_3D('',#553,#438,#439);
#382=AXIS2_PLACEMENT_3D('',#554,#440,#441);
#383=AXIS2_PLACEMENT_3D('',#558,#443,#444);
#384=AXIS2_PLACEMENT_3D('',#559,#445,#446);
#385=AXIS2_PLACEMENT_3D('',#565,#450,#451);
#386=AXIS2_PLACEMENT_3D('',#566,#452,#453);
#387=AXIS2_PLACEMENT_3D('',#570,#455,#456);
#388=AXIS2_PLACEMENT_3D('',#571,#457,#458);
#389=AXIS2_PLACEMENT_3D('',#577,#462,#463);
#390=AXIS2_PLACEMENT_3D('',#583,#467,#468);
#391=AXIS2_PLACEMENT_3D('',#589,#472,#473);
#392=AXIS2_PLACEMENT_3D('',#590,#474,#475);
#393=AXIS2_PLACEMENT_3D('',#591,#476,#477);
#394=AXIS2_PLACEMENT_3D('',#592,#478,#479);
#395=AXIS2_PLACEMENT_3D('',#593,#480,#481);
#396=AXIS2_PLACEMENT_3D('',#595,#482,#483);
#397=AXIS2_PLACEMENT_3D('',#596,#484,#485);
#398=AXIS2_PLACEMENT_3D('',#598,#486,#487);
#399=AXIS2_PLACEMENT_3D('',#599,#488,#489);
#400=AXIS2_PLACEMENT_3D('',#600,#490,#491);
#401=AXIS2_PLACEMENT_3D('',#602,#492,#493);
#402=AXIS2_PLACEMENT_3D('',#604,#494,#495);
#403=AXIS2_PLACEMENT_3D('',#605,#496,#497);
#404=AXIS2_PLACEMENT_3D('',#606,#498,#499);
#405=AXIS2_PLACEMENT_3D('',#608,#500,#501);
#406=AXIS2_PLACEMENT_3D('',#609,#502,#503);
#407=AXIS2_PLACEMENT_3D('',#611,#504,#505);
#408=AXIS2_PLACEMENT_3D('',#612,#506,#507);
#409=AXIS2_PLACEMENT_3D('',#614,#508,#509);
#410=AXIS2_PLACEMENT_3D('',#615,#510,#511);
#411=AXIS2_PLACEMENT_3D('',#617,#512,#513);
#412=AXIS2_PLACEMENT_3D('',#619,#514,#515);
#413=AXIS2_PLACEMENT_3D('',#620,#516,#517);
#414=AXIS2_PLACEMENT_3D('',#622,#518,#519);
#415=AXIS2_PLACEMENT_3D('',#623,#520,#521);
#416=AXIS2_PLACEMENT_3D('',#624,#522,#523);
#417=AXIS2_PLACEMENT_3D('',#626,#524,#525);
#418=AXIS2_PLACEMENT_3D('',#627,#526,#527);
#419=AXIS2_PLACEMENT_3D('',#629,#528,#529);
#420=AXIS2_PLACEMENT_3D('',#630,#530,#531);
#421=AXIS2_PLACEMENT_3D('',#632,#532,#533);
#422=AXIS2_PLACEMENT_3D('',#633,#534,#535);
#423=AXIS2_PLACEMENT_3D('',#635,#536,#537);
#424=DIRECTION('',(0.,0.,1.));
#425=DIRECTION('',(1.,0.,0.));
#426=DIRECTION('',(1.,0.,0.));
#427=DIRECTION('',(0.,0.,-1.));
#428=DIRECTION('',(1.,0.,0.));
#429=DIRECTION('',(0.,0.,-1.));
#430=DIRECTION('',(1.,0.,0.));
#431=DIRECTION('',(0.,0.,-1.));
#432=DIRECTION('',(0.,-0.471021009728452,0.882121991787071));
#433=DIRECTION('',(0.,-0.882121991787071,-0.471021009728452));
#434=DIRECTION('',(0.,0.882121991787071,0.471021009728452));
#435=DIRECTION('',(-1.,0.,0.));
#436=DIRECTION('',(0.,0.882121991787071,0.471021009728452));
#437=DIRECTION('',(-1.,0.,0.));
#438=DIRECTION('',(-1.,0.,0.));
#439=DIRECTION('',(0.,0.,1.));
#440=DIRECTION('',(1.,0.,0.));
#441=DIRECTION('',(0.,0.,-1.));
#442=DIRECTION('',(-1.,0.,0.));
#443=DIRECTION('',(1.,0.,0.));
#444=DIRECTION('',(0.,0.,-1.));
#445=DIRECTION('',(0.,0.599006439882366,-0.800744206959659));
#446=DIRECTION('',(0.,0.800744206959659,0.599006439882366));
#447=DIRECTION('',(0.,-0.800744206959659,-0.599006439882366));
#448=DIRECTION('',(-1.,0.,0.));
#449=DIRECTION('',(0.,-0.800744206959659,-0.599006439882366));
#450=DIRECTION('',(-1.,0.,0.));
#451=DIRECTION('',(0.,0.,1.));
#452=DIRECTION('',(1.,0.,0.));
#453=DIRECTION('',(0.,0.,-1.));
#454=DIRECTION('',(-1.,0.,0.));
#455=DIRECTION('',(1.,0.,0.));
#456=DIRECTION('',(0.,0.,-1.));
#457=DIRECTION('',(0.,0.,-1.));
#458=DIRECTION('',(-1.,0.,0.));
#459=DIRECTION('',(0.,-1.,0.));
#460=DIRECTION('',(-1.,0.,0.));
#461=DIRECTION('',(0.,-1.,0.));
#462=DIRECTION('',(0.,1.,0.));
#463=DIRECTION('',(0.,0.,1.));
#464=DIRECTION('',(0.,0.,-1.));
#465=DIRECTION('',(-1.,0.,0.));
#466=DIRECTION('',(0.,0.,-1.));
#467=DIRECTION('',(0.,0.,1.));
#468=DIRECTION('',(1.,0.,0.));
#469=DIRECTION('',(0.,1.,0.));
#470=DIRECTION('',(-1.,0.,0.));
#471=DIRECTION('',(0.,1.,0.));
#472=DIRECTION('',(-1.,0.,0.));
#473=DIRECTION('',(0.,0.,1.));
#474=DIRECTION('',(1.,0.,0.));
#475=DIRECTION('',(0.,0.,-1.));
#476=DIRECTION('',(1.,0.,0.));
#477=DIRECTION('',(0.,0.,-1.));
#478=DIRECTION('',(1.,0.,0.));
#479=DIRECTION('',(0.,0.,-1.));
#480=DIRECTION('',(1.,0.,0.));
#481=DIRECTION('',(0.,0.,-1.));
#482=DIRECTION('',(1.,0.,0.));
#483=DIRECTION('',(0.,0.,-1.));
#484=DIRECTION('',(1.,0.,0.));
#485=DIRECTION('',(0.,0.,-1.));
#486=DIRECTION('',(-1.,0.,0.));
#487=DIRECTION('',(0.,0.,1.));
#488=DIRECTION('',(1.,0.,0.));
#489=DIRECTION('',(0.,0.,-1.));
#490=DIRECTION('',(1.,0.,0.));
#491=DIRECTION('',(0.,0.,-1.));
#492=DIRECTION('',(1.,0.,0.));
#493=DIRECTION('',(0.,0.,-1.));
#494=DIRECTION('',(1.,0.,0.));
#495=DIRECTION('',(0.,0.,-1.));
#496=DIRECTION('',(1.,0.,0.));
#497=DIRECTION('',(0.,0.,-1.));
#498=DIRECTION('',(1.,0.,0.));
#499=DIRECTION('',(0.,0.,-1.));
#500=DIRECTION('',(-1.,0.,0.));
#501=DIRECTION('',(0.,0.,1.));
#502=DIRECTION('',(1.,0.,0.));
#503=DIRECTION('',(0.,0.,-1.));
#504=DIRECTION('',(-1.,0.,0.));
#505=DIRECTION('',(0.,0.,1.));
#506=DIRECTION('',(1.,0.,0.));
#507=DIRECTION('',(0.,0.,-1.));
#508=DIRECTION('',(1.,0.,0.));
#509=DIRECTION('',(0.,0.,-1.));
#510=DIRECTION('',(1.,0.,0.));
#511=DIRECTION('',(0.,0.,-1.));
#512=DIRECTION('',(-1.,0.,0.));
#513=DIRECTION('',(0.,0.,1.));
#514=DIRECTION('',(1.,0.,0.));
#515=DIRECTION('',(0.,0.,-1.));
#516=DIRECTION('',(1.,0.,0.));
#517=DIRECTION('',(0.,0.,-1.));
#518=DIRECTION('',(-1.,0.,0.));
#519=DIRECTION('',(0.,0.,1.));
#520=DIRECTION('',(1.,5.55111512312578E-16,0.));
#521=DIRECTION('',(-5.55111512312578E-16,1.,0.));
#522=DIRECTION('',(1.,5.55111512312578E-16,0.));
#523=DIRECTION('',(-5.55111512312578E-16,1.,0.));
#524=DIRECTION('',(1.,5.55111512312578E-16,0.));
#525=DIRECTION('',(-5.55111512312578E-16,1.,0.));
#526=DIRECTION('',(1.,5.55111512312578E-16,0.));
#527=DIRECTION('',(-5.55111512312578E-16,1.,0.));
#528=DIRECTION('',(-1.,-5.55111512312578E-16,0.));
#529=DIRECTION('',(5.55111512312578E-16,-1.,0.));
#530=DIRECTION('',(1.,5.55111512312578E-16,0.));
#531=DIRECTION('',(-5.55111512312578E-16,1.,0.));
#532=DIRECTION('',(1.,5.55111512312578E-16,0.));
#533=DIRECTION('',(-5.55111512312578E-16,1.,0.));
#534=DIRECTION('',(1.,5.55111512312578E-16,0.));
#535=DIRECTION('',(-5.55111512312578E-16,1.,0.));
#536=DIRECTION('',(1.,5.55111512312578E-16,0.));
#537=DIRECTION('',(-5.55111512312578E-16,1.,0.));
#538=CARTESIAN_POINT('',(0.,0.,0.));
#539=CARTESIAN_POINT('',(9.,63.,28.));
#540=CARTESIAN_POINT('',(-8.64,63.,28.));
#541=CARTESIAN_POINT('',(-8.64,63.,8.));
#542=CARTESIAN_POINT('',(-8.65358983848623,63.,28.));
#543=CARTESIAN_POINT('',(-8.65358983848623,63.,8.));
#544=CARTESIAN_POINT('',(9.,16.9787603933689,-28.8821219917871));
#545=CARTESIAN_POINT('',(-9.,16.9787603933689,-28.8821219917871));
#546=CARTESIAN_POINT('',(-9.,16.9787603933689,-28.8821219917871));
#547=CARTESIAN_POINT('',(-9.,76.4240987772609,2.85952323406848));
#548=CARTESIAN_POINT('',(9.,76.4240987772609,2.85952323406848));
#549=CARTESIAN_POINT('',(9.,76.4240987772609,2.85952323406848));
#550=CARTESIAN_POINT('',(9.,16.9787603933689,-28.8821219917871));
#551=CARTESIAN_POINT('',(9.,16.9787603933689,-28.8821219917871));
#552=CARTESIAN_POINT('',(9.,16.9787603933689,-28.8821219917871));
#553=CARTESIAN_POINT('',(9.,63.,28.));
#554=CARTESIAN_POINT('',(-9.,63.,28.));
#555=CARTESIAN_POINT('',(-9.,45.9283164633526,50.8212098983503));
#556=CARTESIAN_POINT('',(9.,45.9283164633526,50.8212098983503));
#557=CARTESIAN_POINT('',(9.,45.9283164633526,50.8212098983503));
#558=CARTESIAN_POINT('',(9.,63.,28.));
#559=CARTESIAN_POINT('',(9.,45.9283164633526,50.8212098983503));
#560=CARTESIAN_POINT('',(-9.,45.9283164633526,50.8212098983503));
#561=CARTESIAN_POINT('',(-9.,17.0243626154195,29.1992557930403));
#562=CARTESIAN_POINT('',(9.,17.0243626154195,29.1992557930403));
#563=CARTESIAN_POINT('',(9.,17.0243626154195,29.1992557930403));
#564=CARTESIAN_POINT('',(9.,45.9283164633526,50.8212098983503));
#565=CARTESIAN_POINT('',(9.,16.4253561755372,30.));
#566=CARTESIAN_POINT('',(-9.,16.4253561755372,30.));
#567=CARTESIAN_POINT('',(-9.,16.4253561755372,29.));
#568=CARTESIAN_POINT('',(9.,16.4253561755372,29.));
#569=CARTESIAN_POINT('',(9.,16.4253561755372,29.));
#570=CARTESIAN_POINT('',(9.,16.4253561755372,30.));
#571=CARTESIAN_POINT('',(9.,16.4253561755372,29.));
#572=CARTESIAN_POINT('',(-9.,16.4253561755372,29.));
#573=CARTESIAN_POINT('',(-9.,0.,29.));
#574=CARTESIAN_POINT('',(9.,0.,29.));
#575=CARTESIAN_POINT('',(9.,0.,29.));
#576=CARTESIAN_POINT('',(9.,16.4253561755372,29.));
#577=CARTESIAN_POINT('',(9.,0.,29.));
#578=CARTESIAN_POINT('',(-9.,0.,29.));
#579=CARTESIAN_POINT('',(-9.,0.,-29.));
#580=CARTESIAN_POINT('',(9.,0.,-29.));
#581=CARTESIAN_POINT('',(9.,0.,-29.));
#582=CARTESIAN_POINT('',(9.,0.,29.));
#583=CARTESIAN_POINT('',(9.,0.,-29.));
#584=CARTESIAN_POINT('',(-9.,0.,-29.));
#585=CARTESIAN_POINT('',(-9.,16.5077393836405,-29.));
#586=CARTESIAN_POINT('',(9.,16.5077393836405,-29.));
#587=CARTESIAN_POINT('',(9.,16.5077393836405,-29.));
#588=CARTESIAN_POINT('',(9.,0.,-29.));
#589=CARTESIAN_POINT('',(9.,16.5077393836405,-28.0000000000001));
#590=CARTESIAN_POINT('',(-9.,16.5077393836405,-28.0000000000001));
#591=CARTESIAN_POINT('',(9.,16.5077393836405,-28.0000000000001));
#592=CARTESIAN_POINT('',(9.,63.,28.));
#593=CARTESIAN_POINT('',(9.,63.,28.));
#594=CARTESIAN_POINT('',(9.,63.,7.4));
#595=CARTESIAN_POINT('',(-9.,63.,28.));
#596=CARTESIAN_POINT('',(-9.,63.,28.));
#597=CARTESIAN_POINT('',(-9.,63.,7.4));
#598=CARTESIAN_POINT('',(-10.,63.,28.));
#599=CARTESIAN_POINT('',(9.,63.,28.));
#600=CARTESIAN_POINT('',(8.65358983848623,63.,28.));
#601=CARTESIAN_POINT('',(8.65358983848623,63.,8.));
#602=CARTESIAN_POINT('',(8.64,63.,28.));
#603=CARTESIAN_POINT('',(8.64,63.,8.));
#604=CARTESIAN_POINT('',(8.65358983848623,63.,28.));
#605=CARTESIAN_POINT('',(-8.64,63.,28.));
#606=CARTESIAN_POINT('',(-9.,63.,28.));
#607=CARTESIAN_POINT('',(-9.,63.,8.20784609690827));
#608=CARTESIAN_POINT('',(-9.,82.7921539030917,28.));
#609=CARTESIAN_POINT('',(-9.,63.,28.));
#610=CARTESIAN_POINT('',(-9.,63.,13.4638435205757));
#611=CARTESIAN_POINT('',(-9.,63.,28.));
#612=CARTESIAN_POINT('',(-8.8454923727491,63.,28.));
#613=CARTESIAN_POINT('',(-8.8454923727491,63.,13.5530485407609));
#614=CARTESIAN_POINT('',(8.64,63.,28.));
#615=CARTESIAN_POINT('',(9.,63.,28.));
#616=CARTESIAN_POINT('',(9.,63.,13.4638435205757));
#617=CARTESIAN_POINT('',(8.84549237274908,63.,28.));
#618=CARTESIAN_POINT('',(8.84549237274908,63.,42.4469514592392));
#619=CARTESIAN_POINT('',(9.,77.5361564794243,28.));
#620=CARTESIAN_POINT('',(9.,63.,28.));
#621=CARTESIAN_POINT('',(9.,63.,8.20784609690827));
#622=CARTESIAN_POINT('',(9.,63.,28.));
#623=CARTESIAN_POINT('',(-3.46944695195361E-15,63.,28.));
#624=CARTESIAN_POINT('',(-12.5,63.,28.));
#625=CARTESIAN_POINT('',(-12.5,75.6,28.));
#626=CARTESIAN_POINT('',(-3.46944695195361E-15,63.,28.));
#627=CARTESIAN_POINT('',(12.5,63.,28.));
#628=CARTESIAN_POINT('',(12.5,75.6,28.));
#629=CARTESIAN_POINT('',(-12.5,75.6,28.));
#630=CARTESIAN_POINT('',(-12.5,63.,28.));
#631=CARTESIAN_POINT('',(-12.5,73.,28.));
#632=CARTESIAN_POINT('',(12.5,63.,28.));
#633=CARTESIAN_POINT('',(12.5,63.,28.));
#634=CARTESIAN_POINT('',(12.5,73.,28.));
#635=CARTESIAN_POINT('',(12.5,73.,28.));
#636=MECHANICAL_DESIGN_GEOMETRIC_PRESENTATION_REPRESENTATION('',(#365),
#637);
#637=(
GEOMETRIC_REPRESENTATION_CONTEXT(3)
GLOBAL_UNCERTAINTY_ASSIGNED_CONTEXT((#638))
GLOBAL_UNIT_ASSIGNED_CONTEXT((#641,#640,#639))
REPRESENTATION_CONTEXT('31751 LSNSG-80','TOP_LEVEL_ASSEMBLY_PART')
);
#638=UNCERTAINTY_MEASURE_WITH_UNIT(LENGTH_MEASURE(0.005),#641,
'DISTANCE_ACCURACY_VALUE','Maximum Tolerance applied to model');
#639=(
NAMED_UNIT(*)
SI_UNIT($,.STERADIAN.)
SOLID_ANGLE_UNIT()
);
#640=(
NAMED_UNIT(*)
PLANE_ANGLE_UNIT()
SI_UNIT($,.RADIAN.)
);
#641=(
LENGTH_UNIT()
NAMED_UNIT(*)
SI_UNIT(.MILLI.,.METRE.)
);
#642=PRODUCT_DEFINITION_SHAPE('','',#643);
#643=PRODUCT_DEFINITION('','',#645,#644);
#644=PRODUCT_DEFINITION_CONTEXT('',#651,'design');
#645=PRODUCT_DEFINITION_FORMATION_WITH_SPECIFIED_SOURCE('','',#647,
 .NOT_KNOWN.);
#646=PRODUCT_RELATED_PRODUCT_CATEGORY('','',(#647));
#647=PRODUCT('31751 LSNSG-80','31751 LSNSG-80','31751 LSNSG-80',(#649));
#648=PRODUCT_CATEGORY('','');
#649=PRODUCT_CONTEXT('',#651,'mechanical');
#650=APPLICATION_PROTOCOL_DEFINITION('international standard',
'automotive_design',2010,#651);
#651=APPLICATION_CONTEXT(
'core data for automotive mechanical design processes');
ENDSEC;
END-ISO-10303-21;
