ISO-10303-21;
HEADER;
/* Generated by software containing ST-Developer
 * from STEP Tools, Inc. (www.steptools.com) 
 */
/* OPTION: using custom renumber hook */

FILE_DESCRIPTION(
/* description */ ('STEP AP214'),
/* implementation_level */ '2;1');

FILE_NAME(
/* name */ '31753_LSNSG-125',
/* time_stamp */ '2024-09-05T02:18:47+02:00',
/* author */ ('License CC BY-ND 4.0'),
/* organization */ ('CADENAS'),
/* preprocessor_version */ 'ST-DEVELOPER v19.3',
/* originating_system */ 'PARTsolutions',
/* authorisation */ '  ');

FILE_SCHEMA (('AUTOMOTIVE_DESIGN {1 0 10303 214 3 1 1}'));
ENDSEC;

DATA;
#10=PROPERTY_DEFINITION_REPRESENTATION(#14,#12);
#11=PROPERTY_DEFINITION_REPRESENTATION(#15,#13);
#12=REPRESENTATION('',(#16),#637);
#13=REPRESENTATION('',(#17),#637);
#14=PROPERTY_DEFINITION('pmi validation property','',#642);
#15=PROPERTY_DEFINITION('pmi validation property','',#642);
#16=VALUE_REPRESENTATION_ITEM('number of annotations',COUNT_MEASURE(0.));
#17=VALUE_REPRESENTATION_ITEM('number of views',COUNT_MEASURE(0.));
#18=SHAPE_REPRESENTATION_RELATIONSHIP('','',#375,#19);
#19=ADVANCED_BREP_SHAPE_REPRESENTATION('',(#373),#637);
#20=DEGENERATE_TOROIDAL_SURFACE('',#415,11.0376646795965,35.15,.F.);
#21=DEGENERATE_TOROIDAL_SURFACE('',#417,11.0376646795965,35.15,.F.);
#22=CONICAL_SURFACE('',#395,32.6320508075689,1.0471975511966);
#23=CONICAL_SURFACE('',#397,30.,1.0471975511966);
#24=CONICAL_SURFACE('',#401,30.,0.523598775598294);
#25=CONICAL_SURFACE('',#405,22.0892080450606,0.523598775598291);
#26=CONICAL_SURFACE('',#407,21.8005329104658,0.523598775598292);
#27=CONICAL_SURFACE('',#412,29.7113248654052,0.523598775598294);
#28=CIRCLE('',#379,39.5);
#29=CIRCLE('',#380,39.5);
#30=CIRCLE('',#383,0.999999999999967);
#31=CIRCLE('',#384,0.999999999999967);
#32=CIRCLE('',#389,1.00000000000001);
#33=CIRCLE('',#390,1.00000000000001);
#34=CIRCLE('',#392,30.9);
#35=CIRCLE('',#394,30.9);
#36=CIRCLE('',#396,30.);
#37=CIRCLE('',#398,30.);
#38=CIRCLE('',#400,30.);
#39=CIRCLE('',#402,29.7113248654052);
#40=CIRCLE('',#404,22.0892080450606);
#41=CIRCLE('',#406,21.9228265460277);
#42=CIRCLE('',#408,22.0892080450606);
#43=CIRCLE('',#409,21.9228265460277);
#44=CIRCLE('',#411,29.7113248654052);
#45=CIRCLE('',#413,30.);
#46=CIRCLE('',#416,18.85);
#47=CIRCLE('',#418,18.85);
#48=CIRCLE('',#420,15.);
#49=CIRCLE('',#422,15.);
#50=CYLINDRICAL_SURFACE('',#378,39.5);
#51=CYLINDRICAL_SURFACE('',#382,0.999999999999967);
#52=CYLINDRICAL_SURFACE('',#388,1.00000000000001);
#53=CYLINDRICAL_SURFACE('',#399,30.);
#54=CYLINDRICAL_SURFACE('',#414,30.);
#55=CYLINDRICAL_SURFACE('',#421,15.);
#56=ORIENTED_EDGE('',*,*,#136,.T.);
#57=ORIENTED_EDGE('',*,*,#137,.F.);
#58=ORIENTED_EDGE('',*,*,#138,.F.);
#59=ORIENTED_EDGE('',*,*,#139,.T.);
#60=ORIENTED_EDGE('',*,*,#140,.T.);
#61=ORIENTED_EDGE('',*,*,#141,.F.);
#62=ORIENTED_EDGE('',*,*,#142,.F.);
#63=ORIENTED_EDGE('',*,*,#137,.T.);
#64=ORIENTED_EDGE('',*,*,#143,.T.);
#65=ORIENTED_EDGE('',*,*,#144,.F.);
#66=ORIENTED_EDGE('',*,*,#145,.F.);
#67=ORIENTED_EDGE('',*,*,#141,.T.);
#68=ORIENTED_EDGE('',*,*,#146,.F.);
#69=ORIENTED_EDGE('',*,*,#147,.F.);
#70=ORIENTED_EDGE('',*,*,#148,.T.);
#71=ORIENTED_EDGE('',*,*,#144,.T.);
#72=ORIENTED_EDGE('',*,*,#149,.T.);
#73=ORIENTED_EDGE('',*,*,#150,.F.);
#74=ORIENTED_EDGE('',*,*,#151,.F.);
#75=ORIENTED_EDGE('',*,*,#147,.T.);
#76=ORIENTED_EDGE('',*,*,#152,.T.);
#77=ORIENTED_EDGE('',*,*,#153,.F.);
#78=ORIENTED_EDGE('',*,*,#154,.F.);
#79=ORIENTED_EDGE('',*,*,#150,.T.);
#80=ORIENTED_EDGE('',*,*,#155,.T.);
#81=ORIENTED_EDGE('',*,*,#156,.F.);
#82=ORIENTED_EDGE('',*,*,#157,.F.);
#83=ORIENTED_EDGE('',*,*,#153,.T.);
#84=ORIENTED_EDGE('',*,*,#158,.T.);
#85=ORIENTED_EDGE('',*,*,#139,.F.);
#86=ORIENTED_EDGE('',*,*,#159,.F.);
#87=ORIENTED_EDGE('',*,*,#156,.T.);
#88=ORIENTED_EDGE('',*,*,#160,.T.);
#89=ORIENTED_EDGE('',*,*,#138,.T.);
#90=ORIENTED_EDGE('',*,*,#142,.T.);
#91=ORIENTED_EDGE('',*,*,#145,.T.);
#92=ORIENTED_EDGE('',*,*,#148,.F.);
#93=ORIENTED_EDGE('',*,*,#151,.T.);
#94=ORIENTED_EDGE('',*,*,#154,.T.);
#95=ORIENTED_EDGE('',*,*,#157,.T.);
#96=ORIENTED_EDGE('',*,*,#159,.T.);
#97=ORIENTED_EDGE('',*,*,#161,.F.);
#98=ORIENTED_EDGE('',*,*,#136,.F.);
#99=ORIENTED_EDGE('',*,*,#158,.F.);
#100=ORIENTED_EDGE('',*,*,#155,.F.);
#101=ORIENTED_EDGE('',*,*,#152,.F.);
#102=ORIENTED_EDGE('',*,*,#149,.F.);
#103=ORIENTED_EDGE('',*,*,#146,.T.);
#104=ORIENTED_EDGE('',*,*,#143,.F.);
#105=ORIENTED_EDGE('',*,*,#140,.F.);
#106=ORIENTED_EDGE('',*,*,#162,.T.);
#107=ORIENTED_EDGE('',*,*,#161,.T.);
#108=ORIENTED_EDGE('',*,*,#160,.F.);
#109=ORIENTED_EDGE('',*,*,#163,.F.);
#110=ORIENTED_EDGE('',*,*,#164,.T.);
#111=ORIENTED_EDGE('',*,*,#162,.F.);
#112=ORIENTED_EDGE('',*,*,#165,.T.);
#113=ORIENTED_EDGE('',*,*,#164,.F.);
#114=ORIENTED_EDGE('',*,*,#166,.T.);
#115=ORIENTED_EDGE('',*,*,#165,.F.);
#116=ORIENTED_EDGE('',*,*,#167,.F.);
#117=ORIENTED_EDGE('',*,*,#166,.F.);
#118=ORIENTED_EDGE('',*,*,#168,.T.);
#119=ORIENTED_EDGE('',*,*,#169,.F.);
#120=ORIENTED_EDGE('',*,*,#170,.T.);
#121=ORIENTED_EDGE('',*,*,#168,.F.);
#122=ORIENTED_EDGE('',*,*,#171,.T.);
#123=ORIENTED_EDGE('',*,*,#170,.F.);
#124=ORIENTED_EDGE('',*,*,#163,.T.);
#125=ORIENTED_EDGE('',*,*,#171,.F.);
#126=ORIENTED_EDGE('',*,*,#172,.T.);
#127=ORIENTED_EDGE('',*,*,#167,.T.);
#128=ORIENTED_EDGE('',*,*,#169,.T.);
#129=ORIENTED_EDGE('',*,*,#173,.F.);
#130=ORIENTED_EDGE('',*,*,#174,.T.);
#131=ORIENTED_EDGE('',*,*,#172,.F.);
#132=ORIENTED_EDGE('',*,*,#175,.T.);
#133=ORIENTED_EDGE('',*,*,#174,.F.);
#134=ORIENTED_EDGE('',*,*,#173,.T.);
#135=ORIENTED_EDGE('',*,*,#175,.F.);
#136=EDGE_CURVE('',#176,#177,#208,.T.);
#137=EDGE_CURVE('',#178,#177,#209,.T.);
#138=EDGE_CURVE('',#179,#178,#210,.T.);
#139=EDGE_CURVE('',#179,#176,#211,.T.);
#140=EDGE_CURVE('',#177,#180,#28,.T.);
#141=EDGE_CURVE('',#181,#180,#212,.T.);
#142=EDGE_CURVE('',#178,#181,#29,.T.);
#143=EDGE_CURVE('',#180,#182,#213,.T.);
#144=EDGE_CURVE('',#183,#182,#214,.T.);
#145=EDGE_CURVE('',#181,#183,#215,.T.);
#146=EDGE_CURVE('',#184,#182,#30,.T.);
#147=EDGE_CURVE('',#185,#184,#216,.T.);
#148=EDGE_CURVE('',#185,#183,#31,.T.);
#149=EDGE_CURVE('',#184,#186,#217,.T.);
#150=EDGE_CURVE('',#187,#186,#218,.T.);
#151=EDGE_CURVE('',#185,#187,#219,.T.);
#152=EDGE_CURVE('',#186,#188,#220,.T.);
#153=EDGE_CURVE('',#189,#188,#221,.T.);
#154=EDGE_CURVE('',#187,#189,#222,.T.);
#155=EDGE_CURVE('',#188,#190,#223,.T.);
#156=EDGE_CURVE('',#191,#190,#224,.T.);
#157=EDGE_CURVE('',#189,#191,#225,.T.);
#158=EDGE_CURVE('',#190,#176,#32,.T.);
#159=EDGE_CURVE('',#191,#179,#33,.T.);
#160=EDGE_CURVE('',#192,#192,#34,.F.);
#161=EDGE_CURVE('',#193,#193,#35,.F.);
#162=EDGE_CURVE('',#194,#194,#36,.T.);
#163=EDGE_CURVE('',#195,#195,#37,.T.);
#164=EDGE_CURVE('',#196,#196,#38,.T.);
#165=EDGE_CURVE('',#197,#197,#39,.T.);
#166=EDGE_CURVE('',#198,#198,#40,.T.);
#167=EDGE_CURVE('',#199,#199,#41,.F.);
#168=EDGE_CURVE('',#200,#200,#42,.T.);
#169=EDGE_CURVE('',#201,#201,#43,.F.);
#170=EDGE_CURVE('',#202,#202,#44,.T.);
#171=EDGE_CURVE('',#203,#203,#45,.T.);
#172=EDGE_CURVE('',#204,#204,#46,.T.);
#173=EDGE_CURVE('',#205,#205,#47,.T.);
#174=EDGE_CURVE('',#206,#206,#48,.T.);
#175=EDGE_CURVE('',#207,#207,#49,.T.);
#176=VERTEX_POINT('',#541);
#177=VERTEX_POINT('',#542);
#178=VERTEX_POINT('',#544);
#179=VERTEX_POINT('',#546);
#180=VERTEX_POINT('',#550);
#181=VERTEX_POINT('',#552);
#182=VERTEX_POINT('',#556);
#183=VERTEX_POINT('',#558);
#184=VERTEX_POINT('',#562);
#185=VERTEX_POINT('',#564);
#186=VERTEX_POINT('',#568);
#187=VERTEX_POINT('',#570);
#188=VERTEX_POINT('',#574);
#189=VERTEX_POINT('',#576);
#190=VERTEX_POINT('',#580);
#191=VERTEX_POINT('',#582);
#192=VERTEX_POINT('',#589);
#193=VERTEX_POINT('',#592);
#194=VERTEX_POINT('',#595);
#195=VERTEX_POINT('',#598);
#196=VERTEX_POINT('',#601);
#197=VERTEX_POINT('',#604);
#198=VERTEX_POINT('',#607);
#199=VERTEX_POINT('',#610);
#200=VERTEX_POINT('',#613);
#201=VERTEX_POINT('',#615);
#202=VERTEX_POINT('',#618);
#203=VERTEX_POINT('',#621);
#204=VERTEX_POINT('',#625);
#205=VERTEX_POINT('',#628);
#206=VERTEX_POINT('',#631);
#207=VERTEX_POINT('',#634);
#208=LINE('',#540,#226);
#209=LINE('',#543,#227);
#210=LINE('',#545,#228);
#211=LINE('',#547,#229);
#212=LINE('',#551,#230);
#213=LINE('',#555,#231);
#214=LINE('',#557,#232);
#215=LINE('',#559,#233);
#216=LINE('',#563,#234);
#217=LINE('',#567,#235);
#218=LINE('',#569,#236);
#219=LINE('',#571,#237);
#220=LINE('',#573,#238);
#221=LINE('',#575,#239);
#222=LINE('',#577,#240);
#223=LINE('',#579,#241);
#224=LINE('',#581,#242);
#225=LINE('',#583,#243);
#226=VECTOR('',#428,1000.);
#227=VECTOR('',#429,1000.);
#228=VECTOR('',#430,1000.);
#229=VECTOR('',#431,1000.);
#230=VECTOR('',#436,1000.);
#231=VECTOR('',#441,1000.);
#232=VECTOR('',#442,1000.);
#233=VECTOR('',#443,1000.);
#234=VECTOR('',#448,1000.);
#235=VECTOR('',#453,1000.);
#236=VECTOR('',#454,1000.);
#237=VECTOR('',#455,1000.);
#238=VECTOR('',#458,1000.);
#239=VECTOR('',#459,1000.);
#240=VECTOR('',#460,1000.);
#241=VECTOR('',#463,1000.);
#242=VECTOR('',#464,1000.);
#243=VECTOR('',#465,1000.);
#244=EDGE_LOOP('',(#56,#57,#58,#59));
#245=EDGE_LOOP('',(#60,#61,#62,#63));
#246=EDGE_LOOP('',(#64,#65,#66,#67));
#247=EDGE_LOOP('',(#68,#69,#70,#71));
#248=EDGE_LOOP('',(#72,#73,#74,#75));
#249=EDGE_LOOP('',(#76,#77,#78,#79));
#250=EDGE_LOOP('',(#80,#81,#82,#83));
#251=EDGE_LOOP('',(#84,#85,#86,#87));
#252=EDGE_LOOP('',(#88));
#253=EDGE_LOOP('',(#89,#90,#91,#92,#93,#94,#95,#96));
#254=EDGE_LOOP('',(#97));
#255=EDGE_LOOP('',(#98,#99,#100,#101,#102,#103,#104,#105));
#256=EDGE_LOOP('',(#106));
#257=EDGE_LOOP('',(#107));
#258=EDGE_LOOP('',(#108));
#259=EDGE_LOOP('',(#109));
#260=EDGE_LOOP('',(#110));
#261=EDGE_LOOP('',(#111));
#262=EDGE_LOOP('',(#112));
#263=EDGE_LOOP('',(#113));
#264=EDGE_LOOP('',(#114));
#265=EDGE_LOOP('',(#115));
#266=EDGE_LOOP('',(#116));
#267=EDGE_LOOP('',(#117));
#268=EDGE_LOOP('',(#118));
#269=EDGE_LOOP('',(#119));
#270=EDGE_LOOP('',(#120));
#271=EDGE_LOOP('',(#121));
#272=EDGE_LOOP('',(#122));
#273=EDGE_LOOP('',(#123));
#274=EDGE_LOOP('',(#124));
#275=EDGE_LOOP('',(#125));
#276=EDGE_LOOP('',(#126));
#277=EDGE_LOOP('',(#127));
#278=EDGE_LOOP('',(#128));
#279=EDGE_LOOP('',(#129));
#280=EDGE_LOOP('',(#130));
#281=EDGE_LOOP('',(#131));
#282=EDGE_LOOP('',(#132));
#283=EDGE_LOOP('',(#133));
#284=EDGE_LOOP('',(#134));
#285=EDGE_LOOP('',(#135));
#286=FACE_BOUND('',#244,.T.);
#287=FACE_BOUND('',#245,.T.);
#288=FACE_BOUND('',#246,.T.);
#289=FACE_BOUND('',#247,.T.);
#290=FACE_BOUND('',#248,.T.);
#291=FACE_BOUND('',#249,.T.);
#292=FACE_BOUND('',#250,.T.);
#293=FACE_BOUND('',#251,.T.);
#294=FACE_BOUND('',#252,.T.);
#295=FACE_BOUND('',#253,.T.);
#296=FACE_BOUND('',#254,.T.);
#297=FACE_BOUND('',#255,.T.);
#298=FACE_BOUND('',#256,.T.);
#299=FACE_BOUND('',#257,.T.);
#300=FACE_BOUND('',#258,.T.);
#301=FACE_BOUND('',#259,.T.);
#302=FACE_BOUND('',#260,.T.);
#303=FACE_BOUND('',#261,.T.);
#304=FACE_BOUND('',#262,.T.);
#305=FACE_BOUND('',#263,.T.);
#306=FACE_BOUND('',#264,.T.);
#307=FACE_BOUND('',#265,.T.);
#308=FACE_BOUND('',#266,.T.);
#309=FACE_BOUND('',#267,.T.);
#310=FACE_BOUND('',#268,.T.);
#311=FACE_BOUND('',#269,.T.);
#312=FACE_BOUND('',#270,.T.);
#313=FACE_BOUND('',#271,.T.);
#314=FACE_BOUND('',#272,.T.);
#315=FACE_BOUND('',#273,.T.);
#316=FACE_BOUND('',#274,.T.);
#317=FACE_BOUND('',#275,.T.);
#318=FACE_BOUND('',#276,.T.);
#319=FACE_BOUND('',#277,.T.);
#320=FACE_BOUND('',#278,.T.);
#321=FACE_BOUND('',#279,.T.);
#322=FACE_BOUND('',#280,.T.);
#323=FACE_BOUND('',#281,.T.);
#324=FACE_BOUND('',#282,.T.);
#325=FACE_BOUND('',#283,.T.);
#326=FACE_BOUND('',#284,.T.);
#327=FACE_BOUND('',#285,.T.);
#328=PLANE('',#377);
#329=PLANE('',#381);
#330=PLANE('',#385);
#331=PLANE('',#386);
#332=PLANE('',#387);
#333=PLANE('',#391);
#334=PLANE('',#393);
#335=PLANE('',#403);
#336=PLANE('',#410);
#337=PLANE('',#419);
#338=PLANE('',#423);
#339=ADVANCED_FACE('',(#286),#328,.F.);
#340=ADVANCED_FACE('',(#287),#50,.T.);
#341=ADVANCED_FACE('',(#288),#329,.F.);
#342=ADVANCED_FACE('',(#289),#51,.F.);
#343=ADVANCED_FACE('',(#290),#330,.F.);
#344=ADVANCED_FACE('',(#291),#331,.F.);
#345=ADVANCED_FACE('',(#292),#332,.F.);
#346=ADVANCED_FACE('',(#293),#52,.T.);
#347=ADVANCED_FACE('',(#294,#295),#333,.T.);
#348=ADVANCED_FACE('',(#296,#297),#334,.F.);
#349=ADVANCED_FACE('',(#298,#299),#22,.F.);
#350=ADVANCED_FACE('',(#300,#301),#23,.F.);
#351=ADVANCED_FACE('',(#302,#303),#53,.T.);
#352=ADVANCED_FACE('',(#304,#305),#24,.T.);
#353=ADVANCED_FACE('',(#306,#307),#335,.T.);
#354=ADVANCED_FACE('',(#308,#309),#25,.F.);
#355=ADVANCED_FACE('',(#310,#311),#26,.F.);
#356=ADVANCED_FACE('',(#312,#313),#336,.T.);
#357=ADVANCED_FACE('',(#314,#315),#27,.T.);
#358=ADVANCED_FACE('',(#316,#317),#54,.T.);
#359=ADVANCED_FACE('',(#318,#319),#20,.F.);
#360=ADVANCED_FACE('',(#320,#321),#21,.F.);
#361=ADVANCED_FACE('',(#322,#323),#337,.T.);
#362=ADVANCED_FACE('',(#324,#325),#55,.F.);
#363=ADVANCED_FACE('',(#326,#327),#338,.T.);
#364=CLOSED_SHELL('',(#339,#340,#341,#342,#343,#344,#345,#346,#347,#348,
#349,#350,#351,#352,#353,#354,#355,#356,#357,#358,#359,#360,#361,#362,#363));
#365=STYLED_ITEM('',(#366),#373);
#366=PRESENTATION_STYLE_ASSIGNMENT((#367));
#367=SURFACE_STYLE_USAGE(.BOTH.,#368);
#368=SURFACE_SIDE_STYLE('',(#369));
#369=SURFACE_STYLE_FILL_AREA(#370);
#370=FILL_AREA_STYLE('',(#371));
#371=FILL_AREA_STYLE_COLOUR('',#372);
#372=COLOUR_RGB('',0.689999997615814,0.689999997615814,0.689999997615814);
#373=MANIFOLD_SOLID_BREP('31753 LSNSG-125',#364);
#374=SHAPE_DEFINITION_REPRESENTATION(#642,#375);
#375=SHAPE_REPRESENTATION('31753 LSNSG-125',(#376),#637);
#376=AXIS2_PLACEMENT_3D('',#538,#424,#425);
#377=AXIS2_PLACEMENT_3D('',#539,#426,#427);
#378=AXIS2_PLACEMENT_3D('',#548,#432,#433);
#379=AXIS2_PLACEMENT_3D('',#549,#434,#435);
#380=AXIS2_PLACEMENT_3D('',#553,#437,#438);
#381=AXIS2_PLACEMENT_3D('',#554,#439,#440);
#382=AXIS2_PLACEMENT_3D('',#560,#444,#445);
#383=AXIS2_PLACEMENT_3D('',#561,#446,#447);
#384=AXIS2_PLACEMENT_3D('',#565,#449,#450);
#385=AXIS2_PLACEMENT_3D('',#566,#451,#452);
#386=AXIS2_PLACEMENT_3D('',#572,#456,#457);
#387=AXIS2_PLACEMENT_3D('',#578,#461,#462);
#388=AXIS2_PLACEMENT_3D('',#584,#466,#467);
#389=AXIS2_PLACEMENT_3D('',#585,#468,#469);
#390=AXIS2_PLACEMENT_3D('',#586,#470,#471);
#391=AXIS2_PLACEMENT_3D('',#587,#472,#473);
#392=AXIS2_PLACEMENT_3D('',#588,#474,#475);
#393=AXIS2_PLACEMENT_3D('',#590,#476,#477);
#394=AXIS2_PLACEMENT_3D('',#591,#478,#479);
#395=AXIS2_PLACEMENT_3D('',#593,#480,#481);
#396=AXIS2_PLACEMENT_3D('',#594,#482,#483);
#397=AXIS2_PLACEMENT_3D('',#596,#484,#485);
#398=AXIS2_PLACEMENT_3D('',#597,#486,#487);
#399=AXIS2_PLACEMENT_3D('',#599,#488,#489);
#400=AXIS2_PLACEMENT_3D('',#600,#490,#491);
#401=AXIS2_PLACEMENT_3D('',#602,#492,#493);
#402=AXIS2_PLACEMENT_3D('',#603,#494,#495);
#403=AXIS2_PLACEMENT_3D('',#605,#496,#497);
#404=AXIS2_PLACEMENT_3D('',#606,#498,#499);
#405=AXIS2_PLACEMENT_3D('',#608,#500,#501);
#406=AXIS2_PLACEMENT_3D('',#609,#502,#503);
#407=AXIS2_PLACEMENT_3D('',#611,#504,#505);
#408=AXIS2_PLACEMENT_3D('',#612,#506,#507);
#409=AXIS2_PLACEMENT_3D('',#614,#508,#509);
#410=AXIS2_PLACEMENT_3D('',#616,#510,#511);
#411=AXIS2_PLACEMENT_3D('',#617,#512,#513);
#412=AXIS2_PLACEMENT_3D('',#619,#514,#515);
#413=AXIS2_PLACEMENT_3D('',#620,#516,#517);
#414=AXIS2_PLACEMENT_3D('',#622,#518,#519);
#415=AXIS2_PLACEMENT_3D('',#623,#520,#521);
#416=AXIS2_PLACEMENT_3D('',#624,#522,#523);
#417=AXIS2_PLACEMENT_3D('',#626,#524,#525);
#418=AXIS2_PLACEMENT_3D('',#627,#526,#527);
#419=AXIS2_PLACEMENT_3D('',#629,#528,#529);
#420=AXIS2_PLACEMENT_3D('',#630,#530,#531);
#421=AXIS2_PLACEMENT_3D('',#632,#532,#533);
#422=AXIS2_PLACEMENT_3D('',#633,#534,#535);
#423=AXIS2_PLACEMENT_3D('',#635,#536,#537);
#424=DIRECTION('',(0.,0.,1.));
#425=DIRECTION('',(1.,0.,0.));
#426=DIRECTION('',(0.,-0.509349078536398,0.860560001507229));
#427=DIRECTION('',(0.,-0.860560001507229,-0.509349078536398));
#428=DIRECTION('',(0.,0.860560001507229,0.509349078536398));
#429=DIRECTION('',(-1.,0.,0.));
#430=DIRECTION('',(0.,0.860560001507229,0.509349078536398));
#431=DIRECTION('',(-1.,0.,0.));
#432=DIRECTION('',(-1.,0.,0.));
#433=DIRECTION('',(0.,0.,1.));
#434=DIRECTION('',(1.,0.,0.));
#435=DIRECTION('',(0.,0.,-1.));
#436=DIRECTION('',(-1.,0.,0.));
#437=DIRECTION('',(1.,0.,0.));
#438=DIRECTION('',(0.,0.,-1.));
#439=DIRECTION('',(0.,0.56676197457497,-0.823881583831003));
#440=DIRECTION('',(0.,0.823881583831003,0.56676197457497));
#441=DIRECTION('',(0.,-0.823881583831003,-0.56676197457497));
#442=DIRECTION('',(-1.,0.,0.));
#443=DIRECTION('',(0.,-0.823881583831003,-0.56676197457497));
#444=DIRECTION('',(-1.,0.,0.));
#445=DIRECTION('',(0.,0.,1.));
#446=DIRECTION('',(1.,0.,0.));
#447=DIRECTION('',(0.,0.,-1.));
#448=DIRECTION('',(-1.,0.,0.));
#449=DIRECTION('',(1.,0.,0.));
#450=DIRECTION('',(0.,0.,-1.));
#451=DIRECTION('',(0.,0.,-1.));
#452=DIRECTION('',(-1.,0.,0.));
#453=DIRECTION('',(0.,-1.,0.));
#454=DIRECTION('',(-1.,0.,0.));
#455=DIRECTION('',(0.,-1.,0.));
#456=DIRECTION('',(0.,1.,0.));
#457=DIRECTION('',(0.,0.,1.));
#458=DIRECTION('',(0.,0.,-1.));
#459=DIRECTION('',(-1.,0.,0.));
#460=DIRECTION('',(0.,0.,-1.));
#461=DIRECTION('',(0.,0.,1.));
#462=DIRECTION('',(1.,0.,0.));
#463=DIRECTION('',(0.,1.,0.));
#464=DIRECTION('',(-1.,0.,0.));
#465=DIRECTION('',(0.,1.,0.));
#466=DIRECTION('',(-1.,0.,0.));
#467=DIRECTION('',(0.,0.,1.));
#468=DIRECTION('',(1.,0.,0.));
#469=DIRECTION('',(0.,0.,-1.));
#470=DIRECTION('',(1.,0.,0.));
#471=DIRECTION('',(0.,0.,-1.));
#472=DIRECTION('',(1.,0.,0.));
#473=DIRECTION('',(0.,0.,-1.));
#474=DIRECTION('',(1.,0.,0.));
#475=DIRECTION('',(0.,0.,-1.));
#476=DIRECTION('',(1.,0.,0.));
#477=DIRECTION('',(0.,0.,-1.));
#478=DIRECTION('',(1.,0.,0.));
#479=DIRECTION('',(0.,0.,-1.));
#480=DIRECTION('',(-1.,0.,0.));
#481=DIRECTION('',(0.,0.,1.));
#482=DIRECTION('',(1.,0.,0.));
#483=DIRECTION('',(0.,0.,-1.));
#484=DIRECTION('',(1.,0.,0.));
#485=DIRECTION('',(0.,0.,-1.));
#486=DIRECTION('',(1.,0.,0.));
#487=DIRECTION('',(0.,0.,-1.));
#488=DIRECTION('',(1.,0.,0.));
#489=DIRECTION('',(0.,0.,-1.));
#490=DIRECTION('',(1.,0.,0.));
#491=DIRECTION('',(0.,0.,-1.));
#492=DIRECTION('',(1.,0.,0.));
#493=DIRECTION('',(0.,0.,-1.));
#494=DIRECTION('',(1.,0.,0.));
#495=DIRECTION('',(0.,0.,-1.));
#496=DIRECTION('',(-1.,0.,0.));
#497=DIRECTION('',(0.,0.,1.));
#498=DIRECTION('',(1.,0.,0.));
#499=DIRECTION('',(0.,0.,-1.));
#500=DIRECTION('',(-1.,0.,0.));
#501=DIRECTION('',(0.,0.,1.));
#502=DIRECTION('',(1.,0.,0.));
#503=DIRECTION('',(0.,0.,-1.));
#504=DIRECTION('',(1.,0.,0.));
#505=DIRECTION('',(0.,0.,-1.));
#506=DIRECTION('',(1.,0.,0.));
#507=DIRECTION('',(0.,0.,-1.));
#508=DIRECTION('',(-1.,0.,0.));
#509=DIRECTION('',(0.,0.,1.));
#510=DIRECTION('',(1.,0.,0.));
#511=DIRECTION('',(0.,0.,-1.));
#512=DIRECTION('',(1.,0.,0.));
#513=DIRECTION('',(0.,0.,-1.));
#514=DIRECTION('',(-1.,0.,0.));
#515=DIRECTION('',(0.,0.,1.));
#516=DIRECTION('',(1.,0.,0.));
#517=DIRECTION('',(0.,0.,-1.));
#518=DIRECTION('',(1.,0.,0.));
#519=DIRECTION('',(0.,0.,-1.));
#520=DIRECTION('',(1.,0.,0.));
#521=DIRECTION('',(0.,0.,-1.));
#522=DIRECTION('',(1.,0.,0.));
#523=DIRECTION('',(0.,0.,-1.));
#524=DIRECTION('',(1.,0.,0.));
#525=DIRECTION('',(0.,0.,-1.));
#526=DIRECTION('',(1.,0.,0.));
#527=DIRECTION('',(0.,0.,-1.));
#528=DIRECTION('',(-1.,0.,0.));
#529=DIRECTION('',(0.,0.,1.));
#530=DIRECTION('',(1.,0.,0.));
#531=DIRECTION('',(0.,0.,-1.));
#532=DIRECTION('',(1.,0.,0.));
#533=DIRECTION('',(0.,0.,-1.));
#534=DIRECTION('',(1.,0.,0.));
#535=DIRECTION('',(0.,0.,-1.));
#536=DIRECTION('',(1.,0.,0.));
#537=DIRECTION('',(0.,0.,-1.));
#538=CARTESIAN_POINT('',(0.,0.,0.));
#539=CARTESIAN_POINT('',(12.5,24.1755879108644,-43.6105600015072));
#540=CARTESIAN_POINT('',(-12.5,24.1755879108644,-43.6105600015072));
#541=CARTESIAN_POINT('',(-12.5,24.1755879108644,-43.6105600015072));
#542=CARTESIAN_POINT('',(-12.5,110.119288602188,7.25787994046445));
#543=CARTESIAN_POINT('',(12.5,110.119288602188,7.25787994046445));
#544=CARTESIAN_POINT('',(12.5,110.119288602188,7.25787994046445));
#545=CARTESIAN_POINT('',(12.5,24.1755879108644,-43.6105600015072));
#546=CARTESIAN_POINT('',(12.5,24.1755879108644,-43.6105600015072));
#547=CARTESIAN_POINT('',(12.5,24.1755879108644,-43.6105600015072));
#548=CARTESIAN_POINT('',(12.5,90.0000000000001,41.25));
#549=CARTESIAN_POINT('',(-12.5,90.0000000000001,41.25));
#550=CARTESIAN_POINT('',(-12.5,67.6129020042887,73.7933225613246));
#551=CARTESIAN_POINT('',(12.5,67.6129020042887,73.7933225613246));
#552=CARTESIAN_POINT('',(12.5,67.6129020042887,73.7933225613246));
#553=CARTESIAN_POINT('',(12.5,90.0000000000001,41.25));
#554=CARTESIAN_POINT('',(12.5,67.6129020042887,73.7933225613246));
#555=CARTESIAN_POINT('',(-12.5,67.6129020042887,73.7933225613246));
#556=CARTESIAN_POINT('',(-12.5,24.1960170338949,43.926118416169));
#557=CARTESIAN_POINT('',(12.5,24.1960170338949,43.926118416169));
#558=CARTESIAN_POINT('',(12.5,24.1960170338949,43.926118416169));
#559=CARTESIAN_POINT('',(12.5,67.6129020042887,73.7933225613246));
#560=CARTESIAN_POINT('',(12.5,23.62925505932,44.75));
#561=CARTESIAN_POINT('',(-12.5,23.62925505932,44.75));
#562=CARTESIAN_POINT('',(-12.5,23.62925505932,43.75));
#563=CARTESIAN_POINT('',(12.5,23.62925505932,43.75));
#564=CARTESIAN_POINT('',(12.5,23.62925505932,43.75));
#565=CARTESIAN_POINT('',(12.5,23.62925505932,44.75));
#566=CARTESIAN_POINT('',(12.5,23.62925505932,43.75));
#567=CARTESIAN_POINT('',(-12.5,23.62925505932,43.75));
#568=CARTESIAN_POINT('',(-12.5,0.,43.75));
#569=CARTESIAN_POINT('',(12.5,0.,43.75));
#570=CARTESIAN_POINT('',(12.5,0.,43.75));
#571=CARTESIAN_POINT('',(12.5,23.62925505932,43.75));
#572=CARTESIAN_POINT('',(12.5,0.,43.75));
#573=CARTESIAN_POINT('',(-12.5,0.,43.75));
#574=CARTESIAN_POINT('',(-12.5,0.,-43.75));
#575=CARTESIAN_POINT('',(12.5,0.,-43.75));
#576=CARTESIAN_POINT('',(12.5,0.,-43.75));
#577=CARTESIAN_POINT('',(12.5,0.,43.75));
#578=CARTESIAN_POINT('',(12.5,0.,-43.75));
#579=CARTESIAN_POINT('',(-12.5,0.,-43.75));
#580=CARTESIAN_POINT('',(-12.5,23.666238832328,-43.75));
#581=CARTESIAN_POINT('',(12.5,23.666238832328,-43.75));
#582=CARTESIAN_POINT('',(12.5,23.666238832328,-43.75));
#583=CARTESIAN_POINT('',(12.5,0.,-43.75));
#584=CARTESIAN_POINT('',(12.5,23.666238832328,-42.75));
#585=CARTESIAN_POINT('',(-12.5,23.666238832328,-42.75));
#586=CARTESIAN_POINT('',(12.5,23.666238832328,-42.75));
#587=CARTESIAN_POINT('',(12.5,90.0000000000001,41.25));
#588=CARTESIAN_POINT('',(12.5,90.,41.25));
#589=CARTESIAN_POINT('',(12.5,90.,10.35));
#590=CARTESIAN_POINT('',(-12.5,90.0000000000001,41.25));
#591=CARTESIAN_POINT('',(-12.5,90.,41.25));
#592=CARTESIAN_POINT('',(-12.5,90.,10.35));
#593=CARTESIAN_POINT('',(-13.5,90.,41.25));
#594=CARTESIAN_POINT('',(-11.9803847577293,90.,41.25));
#595=CARTESIAN_POINT('',(-11.9803847577293,90.,11.25));
#596=CARTESIAN_POINT('',(11.9803847577293,90.,41.25));
#597=CARTESIAN_POINT('',(11.9803847577293,90.,41.25));
#598=CARTESIAN_POINT('',(11.9803847577293,90.,11.25));
#599=CARTESIAN_POINT('',(12.5,90.,41.25));
#600=CARTESIAN_POINT('',(-12.,90.,41.25));
#601=CARTESIAN_POINT('',(-12.,90.,11.25));
#602=CARTESIAN_POINT('',(-12.,90.,41.25));
#603=CARTESIAN_POINT('',(-12.5,90.,41.25));
#604=CARTESIAN_POINT('',(-12.5,90.,11.5386751345948));
#605=CARTESIAN_POINT('',(-12.5,119.711324865405,41.25));
#606=CARTESIAN_POINT('',(-12.5,90.,41.25));
#607=CARTESIAN_POINT('',(-12.5,90.,19.1607919549394));
#608=CARTESIAN_POINT('',(-12.5,90.,41.25));
#609=CARTESIAN_POINT('',(-12.2118187902355,90.,41.25));
#610=CARTESIAN_POINT('',(-12.2118187902355,90.,19.3271734539723));
#611=CARTESIAN_POINT('',(12.,90.,41.25));
#612=CARTESIAN_POINT('',(12.5,90.,41.25));
#613=CARTESIAN_POINT('',(12.5,90.,19.1607919549394));
#614=CARTESIAN_POINT('',(12.2118187902355,90.,41.25));
#615=CARTESIAN_POINT('',(12.2118187902355,90.,63.1728265460277));
#616=CARTESIAN_POINT('',(12.5,112.089208045061,41.25));
#617=CARTESIAN_POINT('',(12.5,90.,41.25));
#618=CARTESIAN_POINT('',(12.5,90.,11.5386751345948));
#619=CARTESIAN_POINT('',(12.5,90.,41.25));
#620=CARTESIAN_POINT('',(12.,90.,41.25));
#621=CARTESIAN_POINT('',(12.,90.,11.25));
#622=CARTESIAN_POINT('',(12.5,90.,41.25));
#623=CARTESIAN_POINT('',(3.46944695195361E-15,90.,41.25));
#624=CARTESIAN_POINT('',(-18.5,90.,41.25));
#625=CARTESIAN_POINT('',(-18.5,90.,22.4));
#626=CARTESIAN_POINT('',(3.46944695195361E-15,90.,41.25));
#627=CARTESIAN_POINT('',(18.5,90.,41.25));
#628=CARTESIAN_POINT('',(18.5,90.,22.4));
#629=CARTESIAN_POINT('',(-18.5,108.85,41.25));
#630=CARTESIAN_POINT('',(-18.5,90.,41.25));
#631=CARTESIAN_POINT('',(-18.5,90.,26.25));
#632=CARTESIAN_POINT('',(18.5,90.,41.25));
#633=CARTESIAN_POINT('',(18.5,90.,41.25));
#634=CARTESIAN_POINT('',(18.5,90.,26.25));
#635=CARTESIAN_POINT('',(18.5,105.,41.25));
#636=MECHANICAL_DESIGN_GEOMETRIC_PRESENTATION_REPRESENTATION('',(#365),
#637);
#637=(
GEOMETRIC_REPRESENTATION_CONTEXT(3)
GLOBAL_UNCERTAINTY_ASSIGNED_CONTEXT((#638))
GLOBAL_UNIT_ASSIGNED_CONTEXT((#641,#640,#639))
REPRESENTATION_CONTEXT('31753 LSNSG-125','TOP_LEVEL_ASSEMBLY_PART')
);
#638=UNCERTAINTY_MEASURE_WITH_UNIT(LENGTH_MEASURE(0.005),#641,
'DISTANCE_ACCURACY_VALUE','Maximum Tolerance applied to model');
#639=(
NAMED_UNIT(*)
SI_UNIT($,.STERADIAN.)
SOLID_ANGLE_UNIT()
);
#640=(
NAMED_UNIT(*)
PLANE_ANGLE_UNIT()
SI_UNIT($,.RADIAN.)
);
#641=(
LENGTH_UNIT()
NAMED_UNIT(*)
SI_UNIT(.MILLI.,.METRE.)
);
#642=PRODUCT_DEFINITION_SHAPE('','',#643);
#643=PRODUCT_DEFINITION('','',#645,#644);
#644=PRODUCT_DEFINITION_CONTEXT('',#651,'design');
#645=PRODUCT_DEFINITION_FORMATION_WITH_SPECIFIED_SOURCE('','',#647,
 .NOT_KNOWN.);
#646=PRODUCT_RELATED_PRODUCT_CATEGORY('','',(#647));
#647=PRODUCT('31753 LSNSG-125','31753 LSNSG-125','31753 LSNSG-125',(#649));
#648=PRODUCT_CATEGORY('','');
#649=PRODUCT_CONTEXT('',#651,'mechanical');
#650=APPLICATION_PROTOCOL_DEFINITION('international standard',
'automotive_design',2010,#651);
#651=APPLICATION_CONTEXT(
'core data for automotive mechanical design processes');
ENDSEC;
END-ISO-10303-21;
