ISO-10303-21;
HEADER;
/* Generated by software containing ST-Developer
 * from STEP Tools, Inc. (www.steptools.com) 
 */
/* OPTION: using custom renumber hook */

FILE_DESCRIPTION(
/* description */ ('STEP AP214'),
/* implementation_level */ '2;1');

FILE_NAME(
/* name */ '337348_KDV6-PK-6',
/* time_stamp */ '2024-08-29T16:22:29+02:00',
/* author */ ('License CC BY-ND 4.0'),
/* organization */ ('CADENAS'),
/* preprocessor_version */ 'ST-DEVELOPER v19.3',
/* originating_system */ 'PARTsolutions',
/* authorisation */ '  ');

FILE_SCHEMA (('AUTOMOTIVE_DESIGN {1 0 10303 214 3 1 1}'));
ENDSEC;

DATA;
#10=PROPERTY_DEFINITION_REPRESENTATION(#14,#12);
#11=PROPERTY_DEFINITION_REPRESENTATION(#15,#13);
#12=REPRESENTATION('',(#16),#517);
#13=REPRESENTATION('',(#17),#517);
#14=PROPERTY_DEFINITION('pmi validation property','',#522);
#15=PROPERTY_DEFINITION('pmi validation property','',#522);
#16=VALUE_REPRESENTATION_ITEM('number of annotations',COUNT_MEASURE(0.));
#17=VALUE_REPRESENTATION_ITEM('number of views',COUNT_MEASURE(0.));
#18=SHAPE_REPRESENTATION_RELATIONSHIP('','',#295,#19);
#19=ADVANCED_BREP_SHAPE_REPRESENTATION('',(#293),#517);
#20=CONICAL_SURFACE('',#308,4.2,0.261799387799149);
#21=CONICAL_SURFACE('',#326,4.1,0.523598775598299);
#22=CONICAL_SURFACE('',#338,3.47587704831436,0.349065850398866);
#23=TOROIDAL_SURFACE('',#304,4.,0.200000000000006);
#24=TOROIDAL_SURFACE('',#312,4.8,0.200000000000002);
#25=TOROIDAL_SURFACE('',#316,4.80000000000001,0.199999999999994);
#26=TOROIDAL_SURFACE('',#328,4.20000000000001,1.00000000000001);
#27=TOROIDAL_SURFACE('',#336,3.09999999999998,0.400000000000024);
#28=TOROIDAL_SURFACE('',#340,3.45,0.400000000000001);
#29=TOROIDAL_SURFACE('',#344,2.8,0.25);
#30=CYLINDRICAL_SURFACE('',#300,2.65);
#31=CYLINDRICAL_SURFACE('',#306,4.2);
#32=CYLINDRICAL_SURFACE('',#314,5.);
#33=CYLINDRICAL_SURFACE('',#320,3.75);
#34=CYLINDRICAL_SURFACE('',#324,4.1);
#35=CYLINDRICAL_SURFACE('',#330,3.2);
#36=CYLINDRICAL_SURFACE('',#334,3.5);
#37=CYLINDRICAL_SURFACE('',#342,3.05);
#38=ORIENTED_EDGE('',*,*,#86,.T.);
#39=ORIENTED_EDGE('',*,*,#87,.F.);
#40=ORIENTED_EDGE('',*,*,#88,.T.);
#41=ORIENTED_EDGE('',*,*,#86,.F.);
#42=ORIENTED_EDGE('',*,*,#89,.T.);
#43=ORIENTED_EDGE('',*,*,#88,.F.);
#44=ORIENTED_EDGE('',*,*,#89,.F.);
#45=ORIENTED_EDGE('',*,*,#90,.T.);
#46=ORIENTED_EDGE('',*,*,#91,.T.);
#47=ORIENTED_EDGE('',*,*,#90,.F.);
#48=ORIENTED_EDGE('',*,*,#92,.T.);
#49=ORIENTED_EDGE('',*,*,#91,.F.);
#50=ORIENTED_EDGE('',*,*,#93,.T.);
#51=ORIENTED_EDGE('',*,*,#92,.F.);
#52=ORIENTED_EDGE('',*,*,#94,.T.);
#53=ORIENTED_EDGE('',*,*,#93,.F.);
#54=ORIENTED_EDGE('',*,*,#95,.T.);
#55=ORIENTED_EDGE('',*,*,#94,.F.);
#56=ORIENTED_EDGE('',*,*,#96,.T.);
#57=ORIENTED_EDGE('',*,*,#95,.F.);
#58=ORIENTED_EDGE('',*,*,#97,.T.);
#59=ORIENTED_EDGE('',*,*,#96,.F.);
#60=ORIENTED_EDGE('',*,*,#98,.T.);
#61=ORIENTED_EDGE('',*,*,#97,.F.);
#62=ORIENTED_EDGE('',*,*,#99,.T.);
#63=ORIENTED_EDGE('',*,*,#98,.F.);
#64=ORIENTED_EDGE('',*,*,#100,.T.);
#65=ORIENTED_EDGE('',*,*,#99,.F.);
#66=ORIENTED_EDGE('',*,*,#101,.T.);
#67=ORIENTED_EDGE('',*,*,#100,.F.);
#68=ORIENTED_EDGE('',*,*,#101,.F.);
#69=ORIENTED_EDGE('',*,*,#102,.T.);
#70=ORIENTED_EDGE('',*,*,#103,.T.);
#71=ORIENTED_EDGE('',*,*,#102,.F.);
#72=ORIENTED_EDGE('',*,*,#104,.T.);
#73=ORIENTED_EDGE('',*,*,#103,.F.);
#74=ORIENTED_EDGE('',*,*,#105,.T.);
#75=ORIENTED_EDGE('',*,*,#104,.F.);
#76=ORIENTED_EDGE('',*,*,#106,.T.);
#77=ORIENTED_EDGE('',*,*,#105,.F.);
#78=ORIENTED_EDGE('',*,*,#107,.T.);
#79=ORIENTED_EDGE('',*,*,#106,.F.);
#80=ORIENTED_EDGE('',*,*,#107,.F.);
#81=ORIENTED_EDGE('',*,*,#108,.T.);
#82=ORIENTED_EDGE('',*,*,#109,.T.);
#83=ORIENTED_EDGE('',*,*,#108,.F.);
#84=ORIENTED_EDGE('',*,*,#87,.T.);
#85=ORIENTED_EDGE('',*,*,#109,.F.);
#86=EDGE_CURVE('',#110,#110,#134,.T.);
#87=EDGE_CURVE('',#111,#111,#135,.T.);
#88=EDGE_CURVE('',#112,#112,#136,.T.);
#89=EDGE_CURVE('',#113,#113,#137,.T.);
#90=EDGE_CURVE('',#114,#114,#138,.T.);
#91=EDGE_CURVE('',#115,#115,#139,.T.);
#92=EDGE_CURVE('',#116,#116,#140,.T.);
#93=EDGE_CURVE('',#117,#117,#141,.T.);
#94=EDGE_CURVE('',#118,#118,#142,.T.);
#95=EDGE_CURVE('',#119,#119,#143,.T.);
#96=EDGE_CURVE('',#120,#120,#144,.T.);
#97=EDGE_CURVE('',#121,#121,#145,.T.);
#98=EDGE_CURVE('',#122,#122,#146,.T.);
#99=EDGE_CURVE('',#123,#123,#147,.T.);
#100=EDGE_CURVE('',#124,#124,#148,.T.);
#101=EDGE_CURVE('',#125,#125,#149,.T.);
#102=EDGE_CURVE('',#126,#126,#150,.T.);
#103=EDGE_CURVE('',#127,#127,#151,.T.);
#104=EDGE_CURVE('',#128,#128,#152,.T.);
#105=EDGE_CURVE('',#129,#129,#153,.T.);
#106=EDGE_CURVE('',#130,#130,#154,.T.);
#107=EDGE_CURVE('',#131,#131,#155,.T.);
#108=EDGE_CURVE('',#132,#132,#156,.T.);
#109=EDGE_CURVE('',#133,#133,#157,.T.);
#110=VERTEX_POINT('',#446);
#111=VERTEX_POINT('',#448);
#112=VERTEX_POINT('',#451);
#113=VERTEX_POINT('',#454);
#114=VERTEX_POINT('',#457);
#115=VERTEX_POINT('',#460);
#116=VERTEX_POINT('',#463);
#117=VERTEX_POINT('',#466);
#118=VERTEX_POINT('',#469);
#119=VERTEX_POINT('',#472);
#120=VERTEX_POINT('',#475);
#121=VERTEX_POINT('',#478);
#122=VERTEX_POINT('',#481);
#123=VERTEX_POINT('',#484);
#124=VERTEX_POINT('',#487);
#125=VERTEX_POINT('',#490);
#126=VERTEX_POINT('',#493);
#127=VERTEX_POINT('',#496);
#128=VERTEX_POINT('',#499);
#129=VERTEX_POINT('',#502);
#130=VERTEX_POINT('',#505);
#131=VERTEX_POINT('',#508);
#132=VERTEX_POINT('',#511);
#133=VERTEX_POINT('',#514);
#134=CIRCLE('',#298,2.65);
#135=CIRCLE('',#299,2.8);
#136=CIRCLE('',#301,2.65);
#137=CIRCLE('',#303,4.);
#138=CIRCLE('',#305,4.2);
#139=CIRCLE('',#307,4.2);
#140=CIRCLE('',#309,4.46794919243112);
#141=CIRCLE('',#311,4.8);
#142=CIRCLE('',#313,5.);
#143=CIRCLE('',#315,5.);
#144=CIRCLE('',#317,4.8);
#145=CIRCLE('',#319,3.75);
#146=CIRCLE('',#321,3.75);
#147=CIRCLE('',#323,4.1);
#148=CIRCLE('',#325,4.1);
#149=CIRCLE('',#327,3.33397459621556);
#150=CIRCLE('',#329,3.2);
#151=CIRCLE('',#331,3.2);
#152=CIRCLE('',#333,3.5);
#153=CIRCLE('',#335,3.5);
#154=CIRCLE('',#337,3.47587704831436);
#155=CIRCLE('',#339,3.07412295168564);
#156=CIRCLE('',#341,3.05);
#157=CIRCLE('',#343,3.05);
#158=EDGE_LOOP('',(#38));
#159=EDGE_LOOP('',(#39));
#160=EDGE_LOOP('',(#40));
#161=EDGE_LOOP('',(#41));
#162=EDGE_LOOP('',(#42));
#163=EDGE_LOOP('',(#43));
#164=EDGE_LOOP('',(#44));
#165=EDGE_LOOP('',(#45));
#166=EDGE_LOOP('',(#46));
#167=EDGE_LOOP('',(#47));
#168=EDGE_LOOP('',(#48));
#169=EDGE_LOOP('',(#49));
#170=EDGE_LOOP('',(#50));
#171=EDGE_LOOP('',(#51));
#172=EDGE_LOOP('',(#52));
#173=EDGE_LOOP('',(#53));
#174=EDGE_LOOP('',(#54));
#175=EDGE_LOOP('',(#55));
#176=EDGE_LOOP('',(#56));
#177=EDGE_LOOP('',(#57));
#178=EDGE_LOOP('',(#58));
#179=EDGE_LOOP('',(#59));
#180=EDGE_LOOP('',(#60));
#181=EDGE_LOOP('',(#61));
#182=EDGE_LOOP('',(#62));
#183=EDGE_LOOP('',(#63));
#184=EDGE_LOOP('',(#64));
#185=EDGE_LOOP('',(#65));
#186=EDGE_LOOP('',(#66));
#187=EDGE_LOOP('',(#67));
#188=EDGE_LOOP('',(#68));
#189=EDGE_LOOP('',(#69));
#190=EDGE_LOOP('',(#70));
#191=EDGE_LOOP('',(#71));
#192=EDGE_LOOP('',(#72));
#193=EDGE_LOOP('',(#73));
#194=EDGE_LOOP('',(#74));
#195=EDGE_LOOP('',(#75));
#196=EDGE_LOOP('',(#76));
#197=EDGE_LOOP('',(#77));
#198=EDGE_LOOP('',(#78));
#199=EDGE_LOOP('',(#79));
#200=EDGE_LOOP('',(#80));
#201=EDGE_LOOP('',(#81));
#202=EDGE_LOOP('',(#82));
#203=EDGE_LOOP('',(#83));
#204=EDGE_LOOP('',(#84));
#205=EDGE_LOOP('',(#85));
#206=FACE_BOUND('',#158,.T.);
#207=FACE_BOUND('',#159,.T.);
#208=FACE_BOUND('',#160,.T.);
#209=FACE_BOUND('',#161,.T.);
#210=FACE_BOUND('',#162,.T.);
#211=FACE_BOUND('',#163,.T.);
#212=FACE_BOUND('',#164,.T.);
#213=FACE_BOUND('',#165,.T.);
#214=FACE_BOUND('',#166,.T.);
#215=FACE_BOUND('',#167,.T.);
#216=FACE_BOUND('',#168,.T.);
#217=FACE_BOUND('',#169,.T.);
#218=FACE_BOUND('',#170,.T.);
#219=FACE_BOUND('',#171,.T.);
#220=FACE_BOUND('',#172,.T.);
#221=FACE_BOUND('',#173,.T.);
#222=FACE_BOUND('',#174,.T.);
#223=FACE_BOUND('',#175,.T.);
#224=FACE_BOUND('',#176,.T.);
#225=FACE_BOUND('',#177,.T.);
#226=FACE_BOUND('',#178,.T.);
#227=FACE_BOUND('',#179,.T.);
#228=FACE_BOUND('',#180,.T.);
#229=FACE_BOUND('',#181,.T.);
#230=FACE_BOUND('',#182,.T.);
#231=FACE_BOUND('',#183,.T.);
#232=FACE_BOUND('',#184,.T.);
#233=FACE_BOUND('',#185,.T.);
#234=FACE_BOUND('',#186,.T.);
#235=FACE_BOUND('',#187,.T.);
#236=FACE_BOUND('',#188,.T.);
#237=FACE_BOUND('',#189,.T.);
#238=FACE_BOUND('',#190,.T.);
#239=FACE_BOUND('',#191,.T.);
#240=FACE_BOUND('',#192,.T.);
#241=FACE_BOUND('',#193,.T.);
#242=FACE_BOUND('',#194,.T.);
#243=FACE_BOUND('',#195,.T.);
#244=FACE_BOUND('',#196,.T.);
#245=FACE_BOUND('',#197,.T.);
#246=FACE_BOUND('',#198,.T.);
#247=FACE_BOUND('',#199,.T.);
#248=FACE_BOUND('',#200,.T.);
#249=FACE_BOUND('',#201,.T.);
#250=FACE_BOUND('',#202,.T.);
#251=FACE_BOUND('',#203,.T.);
#252=FACE_BOUND('',#204,.T.);
#253=FACE_BOUND('',#205,.T.);
#254=PLANE('',#297);
#255=PLANE('',#302);
#256=PLANE('',#310);
#257=PLANE('',#318);
#258=PLANE('',#322);
#259=PLANE('',#332);
#260=ADVANCED_FACE('',(#206,#207),#254,.T.);
#261=ADVANCED_FACE('',(#208,#209),#30,.F.);
#262=ADVANCED_FACE('',(#210,#211),#255,.T.);
#263=ADVANCED_FACE('',(#212,#213),#23,.F.);
#264=ADVANCED_FACE('',(#214,#215),#31,.F.);
#265=ADVANCED_FACE('',(#216,#217),#20,.F.);
#266=ADVANCED_FACE('',(#218,#219),#256,.T.);
#267=ADVANCED_FACE('',(#220,#221),#24,.T.);
#268=ADVANCED_FACE('',(#222,#223),#32,.T.);
#269=ADVANCED_FACE('',(#224,#225),#25,.T.);
#270=ADVANCED_FACE('',(#226,#227),#257,.T.);
#271=ADVANCED_FACE('',(#228,#229),#33,.T.);
#272=ADVANCED_FACE('',(#230,#231),#258,.T.);
#273=ADVANCED_FACE('',(#232,#233),#34,.T.);
#274=ADVANCED_FACE('',(#234,#235),#21,.T.);
#275=ADVANCED_FACE('',(#236,#237),#26,.F.);
#276=ADVANCED_FACE('',(#238,#239),#35,.T.);
#277=ADVANCED_FACE('',(#240,#241),#259,.T.);
#278=ADVANCED_FACE('',(#242,#243),#36,.T.);
#279=ADVANCED_FACE('',(#244,#245),#27,.T.);
#280=ADVANCED_FACE('',(#246,#247),#22,.T.);
#281=ADVANCED_FACE('',(#248,#249),#28,.F.);
#282=ADVANCED_FACE('',(#250,#251),#37,.T.);
#283=ADVANCED_FACE('',(#252,#253),#29,.T.);
#284=CLOSED_SHELL('',(#260,#261,#262,#263,#264,#265,#266,#267,#268,#269,
#270,#271,#272,#273,#274,#275,#276,#277,#278,#279,#280,#281,#282,#283));
#285=STYLED_ITEM('',(#286),#293);
#286=PRESENTATION_STYLE_ASSIGNMENT((#287));
#287=SURFACE_STYLE_USAGE(.BOTH.,#288);
#288=SURFACE_SIDE_STYLE('',(#289));
#289=SURFACE_STYLE_FILL_AREA(#290);
#290=FILL_AREA_STYLE('',(#291));
#291=FILL_AREA_STYLE_COLOUR('',#292);
#292=COLOUR_RGB('',0.689999997615814,0.689999997615814,0.689999997615814);
#293=MANIFOLD_SOLID_BREP('337348 KDV6-PK-6',#284);
#294=SHAPE_DEFINITION_REPRESENTATION(#522,#295);
#295=SHAPE_REPRESENTATION('337348 KDV6-PK-6',(#296),#517);
#296=AXIS2_PLACEMENT_3D('',#443,#345,#346);
#297=AXIS2_PLACEMENT_3D('',#444,#347,#348);
#298=AXIS2_PLACEMENT_3D('',#445,#349,#350);
#299=AXIS2_PLACEMENT_3D('',#447,#351,#352);
#300=AXIS2_PLACEMENT_3D('',#449,#353,#354);
#301=AXIS2_PLACEMENT_3D('',#450,#355,#356);
#302=AXIS2_PLACEMENT_3D('',#452,#357,#358);
#303=AXIS2_PLACEMENT_3D('',#453,#359,#360);
#304=AXIS2_PLACEMENT_3D('',#455,#361,#362);
#305=AXIS2_PLACEMENT_3D('',#456,#363,#364);
#306=AXIS2_PLACEMENT_3D('',#458,#365,#366);
#307=AXIS2_PLACEMENT_3D('',#459,#367,#368);
#308=AXIS2_PLACEMENT_3D('',#461,#369,#370);
#309=AXIS2_PLACEMENT_3D('',#462,#371,#372);
#310=AXIS2_PLACEMENT_3D('',#464,#373,#374);
#311=AXIS2_PLACEMENT_3D('',#465,#375,#376);
#312=AXIS2_PLACEMENT_3D('',#467,#377,#378);
#313=AXIS2_PLACEMENT_3D('',#468,#379,#380);
#314=AXIS2_PLACEMENT_3D('',#470,#381,#382);
#315=AXIS2_PLACEMENT_3D('',#471,#383,#384);
#316=AXIS2_PLACEMENT_3D('',#473,#385,#386);
#317=AXIS2_PLACEMENT_3D('',#474,#387,#388);
#318=AXIS2_PLACEMENT_3D('',#476,#389,#390);
#319=AXIS2_PLACEMENT_3D('',#477,#391,#392);
#320=AXIS2_PLACEMENT_3D('',#479,#393,#394);
#321=AXIS2_PLACEMENT_3D('',#480,#395,#396);
#322=AXIS2_PLACEMENT_3D('',#482,#397,#398);
#323=AXIS2_PLACEMENT_3D('',#483,#399,#400);
#324=AXIS2_PLACEMENT_3D('',#485,#401,#402);
#325=AXIS2_PLACEMENT_3D('',#486,#403,#404);
#326=AXIS2_PLACEMENT_3D('',#488,#405,#406);
#327=AXIS2_PLACEMENT_3D('',#489,#407,#408);
#328=AXIS2_PLACEMENT_3D('',#491,#409,#410);
#329=AXIS2_PLACEMENT_3D('',#492,#411,#412);
#330=AXIS2_PLACEMENT_3D('',#494,#413,#414);
#331=AXIS2_PLACEMENT_3D('',#495,#415,#416);
#332=AXIS2_PLACEMENT_3D('',#497,#417,#418);
#333=AXIS2_PLACEMENT_3D('',#498,#419,#420);
#334=AXIS2_PLACEMENT_3D('',#500,#421,#422);
#335=AXIS2_PLACEMENT_3D('',#501,#423,#424);
#336=AXIS2_PLACEMENT_3D('',#503,#425,#426);
#337=AXIS2_PLACEMENT_3D('',#504,#427,#428);
#338=AXIS2_PLACEMENT_3D('',#506,#429,#430);
#339=AXIS2_PLACEMENT_3D('',#507,#431,#432);
#340=AXIS2_PLACEMENT_3D('',#509,#433,#434);
#341=AXIS2_PLACEMENT_3D('',#510,#435,#436);
#342=AXIS2_PLACEMENT_3D('',#512,#437,#438);
#343=AXIS2_PLACEMENT_3D('',#513,#439,#440);
#344=AXIS2_PLACEMENT_3D('',#515,#441,#442);
#345=DIRECTION('',(0.,0.,1.));
#346=DIRECTION('',(1.,0.,0.));
#347=DIRECTION('',(0.,0.,1.));
#348=DIRECTION('',(1.,0.,0.));
#349=DIRECTION('',(0.,0.,-1.));
#350=DIRECTION('',(-1.,0.,0.));
#351=DIRECTION('',(0.,0.,-1.));
#352=DIRECTION('',(-1.,0.,0.));
#353=DIRECTION('',(0.,0.,-1.));
#354=DIRECTION('',(-1.,0.,0.));
#355=DIRECTION('',(0.,0.,-1.));
#356=DIRECTION('',(-1.,0.,0.));
#357=DIRECTION('',(0.,0.,-1.));
#358=DIRECTION('',(-1.,0.,0.));
#359=DIRECTION('',(0.,0.,-1.));
#360=DIRECTION('',(-1.,0.,0.));
#361=DIRECTION('',(0.,0.,-1.));
#362=DIRECTION('',(-1.,0.,0.));
#363=DIRECTION('',(0.,0.,-1.));
#364=DIRECTION('',(-1.,0.,0.));
#365=DIRECTION('',(0.,0.,-1.));
#366=DIRECTION('',(-1.,0.,0.));
#367=DIRECTION('',(0.,0.,-1.));
#368=DIRECTION('',(-1.,0.,0.));
#369=DIRECTION('',(0.,0.,-1.));
#370=DIRECTION('',(-1.,0.,0.));
#371=DIRECTION('',(0.,0.,-1.));
#372=DIRECTION('',(-1.,0.,0.));
#373=DIRECTION('',(0.,0.,-1.));
#374=DIRECTION('',(-1.,0.,0.));
#375=DIRECTION('',(0.,0.,-1.));
#376=DIRECTION('',(-1.,0.,0.));
#377=DIRECTION('',(0.,0.,-1.));
#378=DIRECTION('',(-1.,0.,0.));
#379=DIRECTION('',(0.,0.,-1.));
#380=DIRECTION('',(-1.,0.,0.));
#381=DIRECTION('',(0.,0.,-1.));
#382=DIRECTION('',(-1.,0.,0.));
#383=DIRECTION('',(0.,0.,-1.));
#384=DIRECTION('',(-1.,0.,0.));
#385=DIRECTION('',(0.,0.,-1.));
#386=DIRECTION('',(-1.,0.,0.));
#387=DIRECTION('',(0.,0.,-1.));
#388=DIRECTION('',(-1.,0.,0.));
#389=DIRECTION('',(0.,0.,1.));
#390=DIRECTION('',(1.,0.,0.));
#391=DIRECTION('',(0.,0.,-1.));
#392=DIRECTION('',(-1.,0.,0.));
#393=DIRECTION('',(0.,0.,-1.));
#394=DIRECTION('',(-1.,0.,0.));
#395=DIRECTION('',(0.,0.,-1.));
#396=DIRECTION('',(-1.,0.,0.));
#397=DIRECTION('',(0.,0.,-1.));
#398=DIRECTION('',(-1.,0.,0.));
#399=DIRECTION('',(0.,0.,-1.));
#400=DIRECTION('',(-1.,0.,0.));
#401=DIRECTION('',(0.,0.,-1.));
#402=DIRECTION('',(-1.,0.,0.));
#403=DIRECTION('',(0.,0.,-1.));
#404=DIRECTION('',(-1.,0.,0.));
#405=DIRECTION('',(0.,0.,-1.));
#406=DIRECTION('',(-1.,0.,0.));
#407=DIRECTION('',(0.,0.,-1.));
#408=DIRECTION('',(-1.,0.,0.));
#409=DIRECTION('',(0.,0.,-1.));
#410=DIRECTION('',(-1.,0.,0.));
#411=DIRECTION('',(0.,0.,-1.));
#412=DIRECTION('',(-1.,0.,0.));
#413=DIRECTION('',(0.,0.,-1.));
#414=DIRECTION('',(-1.,0.,0.));
#415=DIRECTION('',(0.,0.,-1.));
#416=DIRECTION('',(-1.,0.,0.));
#417=DIRECTION('',(0.,0.,-1.));
#418=DIRECTION('',(-1.,0.,0.));
#419=DIRECTION('',(0.,0.,-1.));
#420=DIRECTION('',(-1.,0.,0.));
#421=DIRECTION('',(0.,0.,-1.));
#422=DIRECTION('',(-1.,0.,0.));
#423=DIRECTION('',(0.,0.,-1.));
#424=DIRECTION('',(-1.,0.,0.));
#425=DIRECTION('',(0.,0.,-1.));
#426=DIRECTION('',(-1.,0.,0.));
#427=DIRECTION('',(0.,0.,-1.));
#428=DIRECTION('',(-1.,0.,0.));
#429=DIRECTION('',(0.,0.,-1.));
#430=DIRECTION('',(-1.,0.,0.));
#431=DIRECTION('',(0.,0.,-1.));
#432=DIRECTION('',(-1.,0.,0.));
#433=DIRECTION('',(0.,0.,-1.));
#434=DIRECTION('',(-1.,0.,0.));
#435=DIRECTION('',(0.,0.,-1.));
#436=DIRECTION('',(-1.,0.,0.));
#437=DIRECTION('',(0.,0.,-1.));
#438=DIRECTION('',(-1.,0.,0.));
#439=DIRECTION('',(0.,0.,-1.));
#440=DIRECTION('',(-1.,0.,0.));
#441=DIRECTION('',(0.,0.,-1.));
#442=DIRECTION('',(-1.,0.,0.));
#443=CARTESIAN_POINT('',(0.,0.,0.));
#444=CARTESIAN_POINT('',(0.,2.8,-8.13151629364128E-17));
#445=CARTESIAN_POINT('',(0.,0.,0.));
#446=CARTESIAN_POINT('',(-2.65,0.,0.));
#447=CARTESIAN_POINT('',(0.,0.,0.));
#448=CARTESIAN_POINT('',(-2.8,0.,0.));
#449=CARTESIAN_POINT('',(0.,0.,-25.6));
#450=CARTESIAN_POINT('',(0.,0.,-19.9));
#451=CARTESIAN_POINT('',(-2.65,0.,-19.9));
#452=CARTESIAN_POINT('',(0.,2.65,-19.9));
#453=CARTESIAN_POINT('',(0.,0.,-19.9));
#454=CARTESIAN_POINT('',(-4.,0.,-19.9));
#455=CARTESIAN_POINT('',(0.,0.,-20.1));
#456=CARTESIAN_POINT('',(0.,0.,-20.1));
#457=CARTESIAN_POINT('',(-4.2,0.,-20.1));
#458=CARTESIAN_POINT('',(0.,0.,-25.6));
#459=CARTESIAN_POINT('',(0.,0.,-24.6));
#460=CARTESIAN_POINT('',(-4.2,0.,-24.6));
#461=CARTESIAN_POINT('',(0.,0.,-24.6));
#462=CARTESIAN_POINT('',(0.,0.,-25.6));
#463=CARTESIAN_POINT('',(-4.46794919243112,0.,-25.6));
#464=CARTESIAN_POINT('',(0.,4.46794919243112,-25.6));
#465=CARTESIAN_POINT('',(0.,0.,-25.6));
#466=CARTESIAN_POINT('',(-4.8,0.,-25.6));
#467=CARTESIAN_POINT('',(0.,0.,-25.4));
#468=CARTESIAN_POINT('',(0.,0.,-25.4));
#469=CARTESIAN_POINT('',(-5.,0.,-25.4));
#470=CARTESIAN_POINT('',(0.,0.,-25.6));
#471=CARTESIAN_POINT('',(0.,0.,-19.5));
#472=CARTESIAN_POINT('',(-5.,0.,-19.5));
#473=CARTESIAN_POINT('',(0.,0.,-19.5));
#474=CARTESIAN_POINT('',(0.,0.,-19.3));
#475=CARTESIAN_POINT('',(-4.8,0.,-19.3));
#476=CARTESIAN_POINT('',(0.,4.8,-19.3));
#477=CARTESIAN_POINT('',(0.,0.,-19.3));
#478=CARTESIAN_POINT('',(-3.75,0.,-19.3));
#479=CARTESIAN_POINT('',(0.,0.,-25.6));
#480=CARTESIAN_POINT('',(0.,0.,-16.6));
#481=CARTESIAN_POINT('',(-3.75,0.,-16.6));
#482=CARTESIAN_POINT('',(0.,3.75,-16.6));
#483=CARTESIAN_POINT('',(0.,0.,-16.6));
#484=CARTESIAN_POINT('',(-4.1,0.,-16.6));
#485=CARTESIAN_POINT('',(0.,0.,-25.6));
#486=CARTESIAN_POINT('',(0.,0.,-15.558845726812));
#487=CARTESIAN_POINT('',(-4.1,0.,-15.558845726812));
#488=CARTESIAN_POINT('',(0.,0.,-15.558845726812));
#489=CARTESIAN_POINT('',(0.,0.,-14.2320508075689));
#490=CARTESIAN_POINT('',(-3.33397459621556,0.,-14.2320508075689));
#491=CARTESIAN_POINT('',(0.,0.,-13.7320508075689));
#492=CARTESIAN_POINT('',(0.,0.,-13.7320508075689));
#493=CARTESIAN_POINT('',(-3.2,0.,-13.7320508075689));
#494=CARTESIAN_POINT('',(0.,0.,-25.6));
#495=CARTESIAN_POINT('',(0.,0.,-2.8));
#496=CARTESIAN_POINT('',(-3.2,0.,-2.8));
#497=CARTESIAN_POINT('',(0.,3.2,-2.8));
#498=CARTESIAN_POINT('',(0.,0.,-2.8));
#499=CARTESIAN_POINT('',(-3.5,0.,-2.8));
#500=CARTESIAN_POINT('',(0.,0.,-25.6));
#501=CARTESIAN_POINT('',(0.,0.,-2.67053079228338));
#502=CARTESIAN_POINT('',(-3.5,0.,-2.67053079228338));
#503=CARTESIAN_POINT('',(0.,0.,-2.67053079228339));
#504=CARTESIAN_POINT('',(0.,0.,-2.53372273495311));
#505=CARTESIAN_POINT('',(-3.47587704831436,0.,-2.53372273495311));
#506=CARTESIAN_POINT('',(0.,0.,-2.53372273495311));
#507=CARTESIAN_POINT('',(0.,0.,-1.4299124262923));
#508=CARTESIAN_POINT('',(-3.07412295168564,0.,-1.4299124262923));
#509=CARTESIAN_POINT('',(0.,0.,-1.29310436896203));
#510=CARTESIAN_POINT('',(0.,0.,-1.29310436896203));
#511=CARTESIAN_POINT('',(-3.05,0.,-1.29310436896203));
#512=CARTESIAN_POINT('',(0.,0.,-25.6));
#513=CARTESIAN_POINT('',(0.,0.,-0.25));
#514=CARTESIAN_POINT('',(-3.05,0.,-0.25));
#515=CARTESIAN_POINT('',(0.,0.,-0.25));
#516=MECHANICAL_DESIGN_GEOMETRIC_PRESENTATION_REPRESENTATION('',(#285),
#517);
#517=(
GEOMETRIC_REPRESENTATION_CONTEXT(3)
GLOBAL_UNCERTAINTY_ASSIGNED_CONTEXT((#518))
GLOBAL_UNIT_ASSIGNED_CONTEXT((#521,#520,#519))
REPRESENTATION_CONTEXT('337348 KDV6-PK-6','TOP_LEVEL_ASSEMBLY_PART')
);
#518=UNCERTAINTY_MEASURE_WITH_UNIT(LENGTH_MEASURE(0.005),#521,
'DISTANCE_ACCURACY_VALUE','Maximum Tolerance applied to model');
#519=(
NAMED_UNIT(*)
SI_UNIT($,.STERADIAN.)
SOLID_ANGLE_UNIT()
);
#520=(
NAMED_UNIT(*)
PLANE_ANGLE_UNIT()
SI_UNIT($,.RADIAN.)
);
#521=(
LENGTH_UNIT()
NAMED_UNIT(*)
SI_UNIT(.MILLI.,.METRE.)
);
#522=PRODUCT_DEFINITION_SHAPE('','',#523);
#523=PRODUCT_DEFINITION('','',#525,#524);
#524=PRODUCT_DEFINITION_CONTEXT('',#531,'design');
#525=PRODUCT_DEFINITION_FORMATION_WITH_SPECIFIED_SOURCE('','',#527,
 .NOT_KNOWN.);
#526=PRODUCT_RELATED_PRODUCT_CATEGORY('','',(#527));
#527=PRODUCT('337348 KDV6-PK-6','337348 KDV6-PK-6','337348 KDV6-PK-6',(#529));
#528=PRODUCT_CATEGORY('','');
#529=PRODUCT_CONTEXT('',#531,'mechanical');
#530=APPLICATION_PROTOCOL_DEFINITION('international standard',
'automotive_design',2010,#531);
#531=APPLICATION_CONTEXT(
'core data for automotive mechanical design processes');
ENDSEC;
END-ISO-10303-21;
