ISO-10303-21;
HEADER;
/* Generated by software containing ST-Developer
 * from STEP Tools, Inc. (www.steptools.com) 
 */
/* OPTION: using custom renumber hook */

FILE_DESCRIPTION(
/* description */ ('STEP AP214'),
/* implementation_level */ '2;1');

FILE_NAME(
/* name */ '3427_OS-1_2',
/* time_stamp */ '2024-09-12T11:59:15+02:00',
/* author */ ('License CC BY-ND 4.0'),
/* organization */ ('CADENAS'),
/* preprocessor_version */ 'ST-DEVELOPER v19.3',
/* originating_system */ 'PARTsolutions',
/* authorisation */ '  ');

FILE_SCHEMA (('AUTOMOTIVE_DESIGN {1 0 10303 214 3 1 1}'));
ENDSEC;

DATA;
#10=PROPERTY_DEFINITION_REPRESENTATION(#14,#12);
#11=PROPERTY_DEFINITION_REPRESENTATION(#15,#13);
#12=REPRESENTATION('',(#16),#433);
#13=REPRESENTATION('',(#17),#433);
#14=PROPERTY_DEFINITION('pmi validation property','',#438);
#15=PROPERTY_DEFINITION('pmi validation property','',#438);
#16=VALUE_REPRESENTATION_ITEM('number of annotations',COUNT_MEASURE(0.));
#17=VALUE_REPRESENTATION_ITEM('number of views',COUNT_MEASURE(0.));
#18=SHAPE_REPRESENTATION_RELATIONSHIP('','',#262,#19);
#19=ADVANCED_BREP_SHAPE_REPRESENTATION('',(#260),#433);
#20=CONICAL_SURFACE('',#279,10.4775,0.785398163397443);
#21=CONICAL_SURFACE('',#288,9.3155,0.785398163397448);
#22=CONICAL_SURFACE('',#293,9.3155,0.785398163397445);
#23=CYLINDRICAL_SURFACE('',#277,4.25);
#24=CYLINDRICAL_SURFACE('',#278,4.25);
#25=CYLINDRICAL_SURFACE('',#281,9.3155);
#26=CYLINDRICAL_SURFACE('',#286,9.3155);
#27=CYLINDRICAL_SURFACE('',#291,9.3155);
#28=LINE('',#374,#40);
#29=LINE('',#377,#41);
#30=LINE('',#379,#42);
#31=LINE('',#381,#43);
#32=LINE('',#385,#44);
#33=LINE('',#387,#45);
#34=LINE('',#389,#46);
#35=LINE('',#395,#47);
#36=LINE('',#397,#48);
#37=LINE('',#399,#49);
#38=LINE('',#401,#50);
#39=LINE('',#402,#51);
#40=VECTOR('',#302,1000.);
#41=VECTOR('',#303,1000.);
#42=VECTOR('',#304,1000.);
#43=VECTOR('',#305,1000.);
#44=VECTOR('',#310,1000.);
#45=VECTOR('',#311,1000.);
#46=VECTOR('',#312,1000.);
#47=VECTOR('',#319,1000.);
#48=VECTOR('',#320,1000.);
#49=VECTOR('',#321,1000.);
#50=VECTOR('',#324,1000.);
#51=VECTOR('',#325,1000.);
#52=ORIENTED_EDGE('',*,*,#102,.T.);
#53=ORIENTED_EDGE('',*,*,#103,.T.);
#54=ORIENTED_EDGE('',*,*,#104,.T.);
#55=ORIENTED_EDGE('',*,*,#105,.F.);
#56=ORIENTED_EDGE('',*,*,#106,.F.);
#57=ORIENTED_EDGE('',*,*,#107,.T.);
#58=ORIENTED_EDGE('',*,*,#108,.F.);
#59=ORIENTED_EDGE('',*,*,#109,.T.);
#60=ORIENTED_EDGE('',*,*,#110,.F.);
#61=ORIENTED_EDGE('',*,*,#111,.F.);
#62=ORIENTED_EDGE('',*,*,#105,.T.);
#63=ORIENTED_EDGE('',*,*,#112,.F.);
#64=ORIENTED_EDGE('',*,*,#113,.F.);
#65=ORIENTED_EDGE('',*,*,#114,.T.);
#66=ORIENTED_EDGE('',*,*,#115,.F.);
#67=ORIENTED_EDGE('',*,*,#116,.F.);
#68=ORIENTED_EDGE('',*,*,#110,.T.);
#69=ORIENTED_EDGE('',*,*,#117,.T.);
#70=ORIENTED_EDGE('',*,*,#107,.F.);
#71=ORIENTED_EDGE('',*,*,#118,.F.);
#72=ORIENTED_EDGE('',*,*,#115,.T.);
#73=ORIENTED_EDGE('',*,*,#119,.T.);
#74=ORIENTED_EDGE('',*,*,#106,.T.);
#75=ORIENTED_EDGE('',*,*,#111,.T.);
#76=ORIENTED_EDGE('',*,*,#116,.T.);
#77=ORIENTED_EDGE('',*,*,#118,.T.);
#78=ORIENTED_EDGE('',*,*,#120,.F.);
#79=ORIENTED_EDGE('',*,*,#104,.F.);
#80=ORIENTED_EDGE('',*,*,#117,.F.);
#81=ORIENTED_EDGE('',*,*,#114,.F.);
#82=ORIENTED_EDGE('',*,*,#109,.F.);
#83=ORIENTED_EDGE('',*,*,#113,.T.);
#84=ORIENTED_EDGE('',*,*,#103,.F.);
#85=ORIENTED_EDGE('',*,*,#112,.T.);
#86=ORIENTED_EDGE('',*,*,#102,.F.);
#87=ORIENTED_EDGE('',*,*,#121,.T.);
#88=ORIENTED_EDGE('',*,*,#119,.F.);
#89=ORIENTED_EDGE('',*,*,#122,.T.);
#90=ORIENTED_EDGE('',*,*,#121,.F.);
#91=ORIENTED_EDGE('',*,*,#122,.F.);
#92=ORIENTED_EDGE('',*,*,#123,.T.);
#93=ORIENTED_EDGE('',*,*,#124,.T.);
#94=ORIENTED_EDGE('',*,*,#123,.F.);
#95=ORIENTED_EDGE('',*,*,#120,.T.);
#96=ORIENTED_EDGE('',*,*,#124,.F.);
#97=ORIENTED_EDGE('',*,*,#125,.T.);
#98=ORIENTED_EDGE('',*,*,#126,.T.);
#99=ORIENTED_EDGE('',*,*,#125,.F.);
#100=ORIENTED_EDGE('',*,*,#108,.T.);
#101=ORIENTED_EDGE('',*,*,#126,.F.);
#102=EDGE_CURVE('',#127,#127,#148,.T.);
#103=EDGE_CURVE('',#128,#128,#149,.T.);
#104=EDGE_CURVE('',#129,#130,#28,.T.);
#105=EDGE_CURVE('',#131,#130,#29,.T.);
#106=EDGE_CURVE('',#132,#131,#30,.T.);
#107=EDGE_CURVE('',#132,#129,#31,.T.);
#108=EDGE_CURVE('',#133,#133,#150,.T.);
#109=EDGE_CURVE('',#130,#134,#32,.T.);
#110=EDGE_CURVE('',#135,#134,#33,.T.);
#111=EDGE_CURVE('',#131,#135,#34,.T.);
#112=EDGE_CURVE('',#136,#136,#151,.T.);
#113=EDGE_CURVE('',#137,#137,#152,.T.);
#114=EDGE_CURVE('',#134,#138,#35,.T.);
#115=EDGE_CURVE('',#139,#138,#36,.T.);
#116=EDGE_CURVE('',#135,#139,#37,.T.);
#117=EDGE_CURVE('',#138,#129,#38,.T.);
#118=EDGE_CURVE('',#139,#132,#39,.T.);
#119=EDGE_CURVE('',#140,#140,#153,.T.);
#120=EDGE_CURVE('',#141,#141,#154,.T.);
#121=EDGE_CURVE('',#142,#142,#155,.T.);
#122=EDGE_CURVE('',#143,#143,#156,.T.);
#123=EDGE_CURVE('',#144,#144,#157,.T.);
#124=EDGE_CURVE('',#145,#145,#158,.T.);
#125=EDGE_CURVE('',#146,#146,#159,.T.);
#126=EDGE_CURVE('',#147,#147,#160,.T.);
#127=VERTEX_POINT('',#371);
#128=VERTEX_POINT('',#373);
#129=VERTEX_POINT('',#375);
#130=VERTEX_POINT('',#376);
#131=VERTEX_POINT('',#378);
#132=VERTEX_POINT('',#380);
#133=VERTEX_POINT('',#384);
#134=VERTEX_POINT('',#386);
#135=VERTEX_POINT('',#388);
#136=VERTEX_POINT('',#392);
#137=VERTEX_POINT('',#394);
#138=VERTEX_POINT('',#396);
#139=VERTEX_POINT('',#398);
#140=VERTEX_POINT('',#405);
#141=VERTEX_POINT('',#408);
#142=VERTEX_POINT('',#413);
#143=VERTEX_POINT('',#416);
#144=VERTEX_POINT('',#420);
#145=VERTEX_POINT('',#423);
#146=VERTEX_POINT('',#427);
#147=VERTEX_POINT('',#430);
#148=CIRCLE('',#265,4.25);
#149=CIRCLE('',#266,4.25);
#150=CIRCLE('',#268,10.4775);
#151=CIRCLE('',#270,4.25);
#152=CIRCLE('',#271,4.25);
#153=CIRCLE('',#274,10.4775);
#154=CIRCLE('',#276,10.4775);
#155=CIRCLE('',#280,9.3155);
#156=CIRCLE('',#282,9.3155);
#157=CIRCLE('',#285,9.3155);
#158=CIRCLE('',#287,9.3155);
#159=CIRCLE('',#290,9.3155);
#160=CIRCLE('',#292,9.3155);
#161=EDGE_LOOP('',(#52));
#162=EDGE_LOOP('',(#53));
#163=EDGE_LOOP('',(#54,#55,#56,#57));
#164=EDGE_LOOP('',(#58));
#165=EDGE_LOOP('',(#59,#60,#61,#62));
#166=EDGE_LOOP('',(#63));
#167=EDGE_LOOP('',(#64));
#168=EDGE_LOOP('',(#65,#66,#67,#68));
#169=EDGE_LOOP('',(#69,#70,#71,#72));
#170=EDGE_LOOP('',(#73));
#171=EDGE_LOOP('',(#74,#75,#76,#77));
#172=EDGE_LOOP('',(#78));
#173=EDGE_LOOP('',(#79,#80,#81,#82));
#174=EDGE_LOOP('',(#83));
#175=EDGE_LOOP('',(#84));
#176=EDGE_LOOP('',(#85));
#177=EDGE_LOOP('',(#86));
#178=EDGE_LOOP('',(#87));
#179=EDGE_LOOP('',(#88));
#180=EDGE_LOOP('',(#89));
#181=EDGE_LOOP('',(#90));
#182=EDGE_LOOP('',(#91));
#183=EDGE_LOOP('',(#92));
#184=EDGE_LOOP('',(#93));
#185=EDGE_LOOP('',(#94));
#186=EDGE_LOOP('',(#95));
#187=EDGE_LOOP('',(#96));
#188=EDGE_LOOP('',(#97));
#189=EDGE_LOOP('',(#98));
#190=EDGE_LOOP('',(#99));
#191=EDGE_LOOP('',(#100));
#192=EDGE_LOOP('',(#101));
#193=FACE_BOUND('',#161,.T.);
#194=FACE_BOUND('',#162,.T.);
#195=FACE_BOUND('',#163,.T.);
#196=FACE_BOUND('',#164,.T.);
#197=FACE_BOUND('',#165,.T.);
#198=FACE_BOUND('',#166,.T.);
#199=FACE_BOUND('',#167,.T.);
#200=FACE_BOUND('',#168,.T.);
#201=FACE_BOUND('',#169,.T.);
#202=FACE_BOUND('',#170,.T.);
#203=FACE_BOUND('',#171,.T.);
#204=FACE_BOUND('',#172,.T.);
#205=FACE_BOUND('',#173,.T.);
#206=FACE_BOUND('',#174,.T.);
#207=FACE_BOUND('',#175,.T.);
#208=FACE_BOUND('',#176,.T.);
#209=FACE_BOUND('',#177,.T.);
#210=FACE_BOUND('',#178,.T.);
#211=FACE_BOUND('',#179,.T.);
#212=FACE_BOUND('',#180,.T.);
#213=FACE_BOUND('',#181,.T.);
#214=FACE_BOUND('',#182,.T.);
#215=FACE_BOUND('',#183,.T.);
#216=FACE_BOUND('',#184,.T.);
#217=FACE_BOUND('',#185,.T.);
#218=FACE_BOUND('',#186,.T.);
#219=FACE_BOUND('',#187,.T.);
#220=FACE_BOUND('',#188,.T.);
#221=FACE_BOUND('',#189,.T.);
#222=FACE_BOUND('',#190,.T.);
#223=FACE_BOUND('',#191,.T.);
#224=FACE_BOUND('',#192,.T.);
#225=PLANE('',#264);
#226=PLANE('',#267);
#227=PLANE('',#269);
#228=PLANE('',#272);
#229=PLANE('',#273);
#230=PLANE('',#275);
#231=PLANE('',#283);
#232=PLANE('',#284);
#233=PLANE('',#289);
#234=ADVANCED_FACE('',(#193,#194,#195),#225,.F.);
#235=ADVANCED_FACE('',(#196,#197),#226,.F.);
#236=ADVANCED_FACE('',(#198,#199,#200),#227,.F.);
#237=ADVANCED_FACE('',(#201),#228,.F.);
#238=ADVANCED_FACE('',(#202,#203),#229,.T.);
#239=ADVANCED_FACE('',(#204,#205),#230,.F.);
#240=ADVANCED_FACE('',(#206,#207),#23,.F.);
#241=ADVANCED_FACE('',(#208,#209),#24,.F.);
#242=ADVANCED_FACE('',(#210,#211),#20,.F.);
#243=ADVANCED_FACE('',(#212,#213),#25,.F.);
#244=ADVANCED_FACE('',(#214),#231,.T.);
#245=ADVANCED_FACE('',(#215),#232,.T.);
#246=ADVANCED_FACE('',(#216,#217),#26,.F.);
#247=ADVANCED_FACE('',(#218,#219),#21,.F.);
#248=ADVANCED_FACE('',(#220),#233,.T.);
#249=ADVANCED_FACE('',(#221,#222),#27,.F.);
#250=ADVANCED_FACE('',(#223,#224),#22,.F.);
#251=CLOSED_SHELL('',(#234,#235,#236,#237,#238,#239,#240,#241,#242,#243,
#244,#245,#246,#247,#248,#249,#250));
#252=STYLED_ITEM('',(#253),#260);
#253=PRESENTATION_STYLE_ASSIGNMENT((#254));
#254=SURFACE_STYLE_USAGE(.BOTH.,#255);
#255=SURFACE_SIDE_STYLE('',(#256));
#256=SURFACE_STYLE_FILL_AREA(#257);
#257=FILL_AREA_STYLE('',(#258));
#258=FILL_AREA_STYLE_COLOUR('',#259);
#259=COLOUR_RGB('',0.75,0.75,0.75);
#260=MANIFOLD_SOLID_BREP('3427 OS-1/2',#251);
#261=SHAPE_DEFINITION_REPRESENTATION(#438,#262);
#262=SHAPE_REPRESENTATION('3427 OS-1/2',(#263),#433);
#263=AXIS2_PLACEMENT_3D('',#368,#294,#295);
#264=AXIS2_PLACEMENT_3D('',#369,#296,#297);
#265=AXIS2_PLACEMENT_3D('',#370,#298,#299);
#266=AXIS2_PLACEMENT_3D('',#372,#300,#301);
#267=AXIS2_PLACEMENT_3D('',#382,#306,#307);
#268=AXIS2_PLACEMENT_3D('',#383,#308,#309);
#269=AXIS2_PLACEMENT_3D('',#390,#313,#314);
#270=AXIS2_PLACEMENT_3D('',#391,#315,#316);
#271=AXIS2_PLACEMENT_3D('',#393,#317,#318);
#272=AXIS2_PLACEMENT_3D('',#400,#322,#323);
#273=AXIS2_PLACEMENT_3D('',#403,#326,#327);
#274=AXIS2_PLACEMENT_3D('',#404,#328,#329);
#275=AXIS2_PLACEMENT_3D('',#406,#330,#331);
#276=AXIS2_PLACEMENT_3D('',#407,#332,#333);
#277=AXIS2_PLACEMENT_3D('',#409,#334,#335);
#278=AXIS2_PLACEMENT_3D('',#410,#336,#337);
#279=AXIS2_PLACEMENT_3D('',#411,#338,#339);
#280=AXIS2_PLACEMENT_3D('',#412,#340,#341);
#281=AXIS2_PLACEMENT_3D('',#414,#342,#343);
#282=AXIS2_PLACEMENT_3D('',#415,#344,#345);
#283=AXIS2_PLACEMENT_3D('',#417,#346,#347);
#284=AXIS2_PLACEMENT_3D('',#418,#348,#349);
#285=AXIS2_PLACEMENT_3D('',#419,#350,#351);
#286=AXIS2_PLACEMENT_3D('',#421,#352,#353);
#287=AXIS2_PLACEMENT_3D('',#422,#354,#355);
#288=AXIS2_PLACEMENT_3D('',#424,#356,#357);
#289=AXIS2_PLACEMENT_3D('',#425,#358,#359);
#290=AXIS2_PLACEMENT_3D('',#426,#360,#361);
#291=AXIS2_PLACEMENT_3D('',#428,#362,#363);
#292=AXIS2_PLACEMENT_3D('',#429,#364,#365);
#293=AXIS2_PLACEMENT_3D('',#431,#366,#367);
#294=DIRECTION('',(0.,0.,1.));
#295=DIRECTION('',(1.,0.,0.));
#296=DIRECTION('',(0.,0.,1.));
#297=DIRECTION('',(1.,0.,0.));
#298=DIRECTION('',(0.,0.,1.));
#299=DIRECTION('',(1.,0.,0.));
#300=DIRECTION('',(0.,0.,1.));
#301=DIRECTION('',(1.,0.,0.));
#302=DIRECTION('',(-1.,0.,0.));
#303=DIRECTION('',(0.,-1.,0.));
#304=DIRECTION('',(-1.,0.,0.));
#305=DIRECTION('',(0.,-1.,0.));
#306=DIRECTION('',(1.,0.,0.));
#307=DIRECTION('',(0.,0.,-1.));
#308=DIRECTION('',(-1.,0.,0.));
#309=DIRECTION('',(0.,0.,1.));
#310=DIRECTION('',(0.,0.,1.));
#311=DIRECTION('',(0.,-1.,0.));
#312=DIRECTION('',(0.,0.,1.));
#313=DIRECTION('',(0.,0.,-1.));
#314=DIRECTION('',(-1.,0.,0.));
#315=DIRECTION('',(0.,0.,1.));
#316=DIRECTION('',(1.,0.,0.));
#317=DIRECTION('',(0.,0.,1.));
#318=DIRECTION('',(1.,0.,0.));
#319=DIRECTION('',(1.,0.,0.));
#320=DIRECTION('',(0.,-1.,0.));
#321=DIRECTION('',(1.,0.,0.));
#322=DIRECTION('',(-1.,0.,0.));
#323=DIRECTION('',(0.,0.,1.));
#324=DIRECTION('',(0.,0.,-1.));
#325=DIRECTION('',(0.,0.,-1.));
#326=DIRECTION('',(0.,1.,0.));
#327=DIRECTION('',(0.,0.,1.));
#328=DIRECTION('',(0.,-1.,0.));
#329=DIRECTION('',(0.,0.,-1.));
#330=DIRECTION('',(0.,1.,0.));
#331=DIRECTION('',(0.,0.,1.));
#332=DIRECTION('',(0.,-1.,0.));
#333=DIRECTION('',(0.,0.,-1.));
#334=DIRECTION('',(0.,0.,1.));
#335=DIRECTION('',(1.,0.,0.));
#336=DIRECTION('',(0.,0.,1.));
#337=DIRECTION('',(1.,0.,0.));
#338=DIRECTION('',(0.,1.,0.));
#339=DIRECTION('',(0.,0.,1.));
#340=DIRECTION('',(0.,-1.,0.));
#341=DIRECTION('',(0.,0.,-1.));
#342=DIRECTION('',(0.,-1.,0.));
#343=DIRECTION('',(0.,0.,-1.));
#344=DIRECTION('',(0.,-1.,0.));
#345=DIRECTION('',(0.,0.,-1.));
#346=DIRECTION('',(0.,1.,0.));
#347=DIRECTION('',(0.,0.,1.));
#348=DIRECTION('',(0.,-1.,0.));
#349=DIRECTION('',(0.,0.,-1.));
#350=DIRECTION('',(0.,-1.,0.));
#351=DIRECTION('',(0.,0.,-1.));
#352=DIRECTION('',(0.,-1.,0.));
#353=DIRECTION('',(0.,0.,-1.));
#354=DIRECTION('',(0.,-1.,0.));
#355=DIRECTION('',(0.,0.,-1.));
#356=DIRECTION('',(0.,-1.,0.));
#357=DIRECTION('',(0.,0.,-1.));
#358=DIRECTION('',(-1.,0.,0.));
#359=DIRECTION('',(0.,0.,1.));
#360=DIRECTION('',(-1.,0.,0.));
#361=DIRECTION('',(0.,0.,1.));
#362=DIRECTION('',(-1.,0.,0.));
#363=DIRECTION('',(0.,0.,1.));
#364=DIRECTION('',(-1.,0.,0.));
#365=DIRECTION('',(0.,0.,1.));
#366=DIRECTION('',(-1.,0.,0.));
#367=DIRECTION('',(0.,0.,1.));
#368=CARTESIAN_POINT('',(0.,0.,0.));
#369=CARTESIAN_POINT('',(40.,70.,-30.));
#370=CARTESIAN_POINT('',(-20.,9.,-30.));
#371=CARTESIAN_POINT('',(-15.75,9.,-30.));
#372=CARTESIAN_POINT('',(20.,9.,-30.));
#373=CARTESIAN_POINT('',(24.25,9.,-30.));
#374=CARTESIAN_POINT('',(40.,0.,-30.));
#375=CARTESIAN_POINT('',(40.,0.,-30.));
#376=CARTESIAN_POINT('',(-40.,0.,-30.));
#377=CARTESIAN_POINT('',(-40.,70.,-30.));
#378=CARTESIAN_POINT('',(-40.,70.,-30.));
#379=CARTESIAN_POINT('',(40.,70.,-30.));
#380=CARTESIAN_POINT('',(40.,70.,-30.));
#381=CARTESIAN_POINT('',(40.,70.,-30.));
#382=CARTESIAN_POINT('',(-40.,70.,-30.));
#383=CARTESIAN_POINT('',(-40.,49.5,0.));
#384=CARTESIAN_POINT('',(-40.,49.5,10.4775));
#385=CARTESIAN_POINT('',(-40.,0.,-30.));
#386=CARTESIAN_POINT('',(-40.,0.,30.));
#387=CARTESIAN_POINT('',(-40.,70.,30.));
#388=CARTESIAN_POINT('',(-40.,70.,30.));
#389=CARTESIAN_POINT('',(-40.,70.,-30.));
#390=CARTESIAN_POINT('',(-40.,70.,30.));
#391=CARTESIAN_POINT('',(-20.,9.,30.));
#392=CARTESIAN_POINT('',(-15.75,9.,30.));
#393=CARTESIAN_POINT('',(20.,9.,30.));
#394=CARTESIAN_POINT('',(24.25,9.,30.));
#395=CARTESIAN_POINT('',(-40.,0.,30.));
#396=CARTESIAN_POINT('',(40.,0.,30.));
#397=CARTESIAN_POINT('',(40.,70.,30.));
#398=CARTESIAN_POINT('',(40.,70.,30.));
#399=CARTESIAN_POINT('',(-40.,70.,30.));
#400=CARTESIAN_POINT('',(40.,70.,30.));
#401=CARTESIAN_POINT('',(40.,0.,30.));
#402=CARTESIAN_POINT('',(40.,70.,30.));
#403=CARTESIAN_POINT('',(0.,70.,0.));
#404=CARTESIAN_POINT('',(0.,70.,0.));
#405=CARTESIAN_POINT('',(0.,70.,-10.4775));
#406=CARTESIAN_POINT('',(0.,0.,0.));
#407=CARTESIAN_POINT('',(0.,0.,0.));
#408=CARTESIAN_POINT('',(0.,0.,-10.4775));
#409=CARTESIAN_POINT('',(20.,9.,30.));
#410=CARTESIAN_POINT('',(-20.,9.,30.));
#411=CARTESIAN_POINT('',(0.,70.,0.));
#412=CARTESIAN_POINT('',(0.,68.838,0.));
#413=CARTESIAN_POINT('',(0.,68.838,-9.3155));
#414=CARTESIAN_POINT('',(0.,52.,0.));
#415=CARTESIAN_POINT('',(0.,52.,0.));
#416=CARTESIAN_POINT('',(0.,52.,-9.3155));
#417=CARTESIAN_POINT('',(9.3155,52.,0.));
#418=CARTESIAN_POINT('',(0.,18.,0.));
#419=CARTESIAN_POINT('',(0.,18.,0.));
#420=CARTESIAN_POINT('',(0.,18.,-9.3155));
#421=CARTESIAN_POINT('',(0.,0.,0.));
#422=CARTESIAN_POINT('',(0.,1.162,0.));
#423=CARTESIAN_POINT('',(0.,1.162,-9.3155));
#424=CARTESIAN_POINT('',(0.,1.162,0.));
#425=CARTESIAN_POINT('',(-22.,49.5,0.));
#426=CARTESIAN_POINT('',(-22.,49.5,0.));
#427=CARTESIAN_POINT('',(-22.,49.5,9.3155));
#428=CARTESIAN_POINT('',(-40.,49.5,0.));
#429=CARTESIAN_POINT('',(-38.838,49.5,0.));
#430=CARTESIAN_POINT('',(-38.838,49.5,9.3155));
#431=CARTESIAN_POINT('',(-38.838,49.5,0.));
#432=MECHANICAL_DESIGN_GEOMETRIC_PRESENTATION_REPRESENTATION('',(#252),
#433);
#433=(
GEOMETRIC_REPRESENTATION_CONTEXT(3)
GLOBAL_UNCERTAINTY_ASSIGNED_CONTEXT((#434))
GLOBAL_UNIT_ASSIGNED_CONTEXT((#437,#436,#435))
REPRESENTATION_CONTEXT('3427 OS-1/2','TOP_LEVEL_ASSEMBLY_PART')
);
#434=UNCERTAINTY_MEASURE_WITH_UNIT(LENGTH_MEASURE(0.005),#437,
'DISTANCE_ACCURACY_VALUE','Maximum Tolerance applied to model');
#435=(
NAMED_UNIT(*)
SI_UNIT($,.STERADIAN.)
SOLID_ANGLE_UNIT()
);
#436=(
NAMED_UNIT(*)
PLANE_ANGLE_UNIT()
SI_UNIT($,.RADIAN.)
);
#437=(
LENGTH_UNIT()
NAMED_UNIT(*)
SI_UNIT(.MILLI.,.METRE.)
);
#438=PRODUCT_DEFINITION_SHAPE('','',#439);
#439=PRODUCT_DEFINITION('','',#441,#440);
#440=PRODUCT_DEFINITION_CONTEXT('',#447,'design');
#441=PRODUCT_DEFINITION_FORMATION_WITH_SPECIFIED_SOURCE('','',#443,
 .NOT_KNOWN.);
#442=PRODUCT_RELATED_PRODUCT_CATEGORY('','',(#443));
#443=PRODUCT('3427 OS-1/2','3427 OS-1/2','3427 OS-1/2',(#445));
#444=PRODUCT_CATEGORY('','');
#445=PRODUCT_CONTEXT('',#447,'mechanical');
#446=APPLICATION_PROTOCOL_DEFINITION('international standard',
'automotive_design',2010,#447);
#447=APPLICATION_CONTEXT(
'core data for automotive mechanical design processes');
ENDSEC;
END-ISO-10303-21;
