ISO-10303-21;
HEADER;
/* Generated by software containing ST-Developer
 * from STEP Tools, Inc. (www.steptools.com) 
 */
/* OPTION: using custom renumber hook */

FILE_DESCRIPTION(
/* description */ ('STEP AP214'),
/* implementation_level */ '2;1');

FILE_NAME(
/* name */ '34575_YSRF-8-C',
/* time_stamp */ '2024-09-18T13:44:44+02:00',
/* author */ ('License CC BY-ND 4.0'),
/* organization */ ('CADENAS'),
/* preprocessor_version */ 'ST-DEVELOPER v19.3',
/* originating_system */ 'PARTsolutions',
/* authorisation */ '  ');

FILE_SCHEMA (('AUTOMOTIVE_DESIGN {1 0 10303 214 3 1 1}'));
ENDSEC;

DATA;
#10=PROPERTY_DEFINITION_REPRESENTATION(#14,#12);
#11=PROPERTY_DEFINITION_REPRESENTATION(#15,#13);
#12=REPRESENTATION('',(#16),#547);
#13=REPRESENTATION('',(#17),#547);
#14=PROPERTY_DEFINITION('pmi validation property','',#552);
#15=PROPERTY_DEFINITION('pmi validation property','',#552);
#16=VALUE_REPRESENTATION_ITEM('number of annotations',COUNT_MEASURE(0.));
#17=VALUE_REPRESENTATION_ITEM('number of views',COUNT_MEASURE(0.));
#18=SHAPE_REPRESENTATION_RELATIONSHIP('','',#327,#19);
#19=ADVANCED_BREP_SHAPE_REPRESENTATION('',(#325),#547);
#20=LINE('',#492,#32);
#21=LINE('',#495,#33);
#22=LINE('',#497,#34);
#23=LINE('',#499,#35);
#24=LINE('',#501,#36);
#25=LINE('',#503,#37);
#26=LINE('',#505,#38);
#27=LINE('',#507,#39);
#28=LINE('',#509,#40);
#29=LINE('',#511,#41);
#30=LINE('',#518,#42);
#31=LINE('',#519,#43);
#32=VECTOR('',#406,1000.);
#33=VECTOR('',#407,1000.);
#34=VECTOR('',#408,1000.);
#35=VECTOR('',#409,1000.);
#36=VECTOR('',#412,1000.);
#37=VECTOR('',#413,1000.);
#38=VECTOR('',#414,1000.);
#39=VECTOR('',#417,1000.);
#40=VECTOR('',#418,1000.);
#41=VECTOR('',#419,1000.);
#42=VECTOR('',#428,1000.);
#43=VECTOR('',#429,1000.);
#44=PLANE('',#345);
#45=PLANE('',#346);
#46=PLANE('',#347);
#47=PLANE('',#351);
#48=PLANE('',#352);
#49=PLANE('',#355);
#50=PLANE('',#360);
#51=PLANE('',#366);
#52=ELLIPSE('',#331,3.88908729652601,2.75);
#53=ELLIPSE('',#332,3.88908729652601,2.75);
#54=ELLIPSE('',#335,3.88908729652601,2.75);
#55=ELLIPSE('',#336,3.88908729652601,2.75);
#56=ELLIPSE('',#339,3.88908729652601,2.75);
#57=ELLIPSE('',#340,3.88908729652601,2.75);
#58=ELLIPSE('',#343,3.88908729652601,2.75);
#59=ELLIPSE('',#344,3.88908729652601,2.75);
#60=ORIENTED_EDGE('',*,*,#128,.F.);
#61=ORIENTED_EDGE('',*,*,#129,.T.);
#62=ORIENTED_EDGE('',*,*,#130,.T.);
#63=ORIENTED_EDGE('',*,*,#131,.T.);
#64=ORIENTED_EDGE('',*,*,#132,.T.);
#65=ORIENTED_EDGE('',*,*,#133,.T.);
#66=ORIENTED_EDGE('',*,*,#134,.F.);
#67=ORIENTED_EDGE('',*,*,#135,.T.);
#68=ORIENTED_EDGE('',*,*,#136,.T.);
#69=ORIENTED_EDGE('',*,*,#137,.T.);
#70=ORIENTED_EDGE('',*,*,#138,.T.);
#71=ORIENTED_EDGE('',*,*,#139,.T.);
#72=ORIENTED_EDGE('',*,*,#131,.F.);
#73=ORIENTED_EDGE('',*,*,#137,.F.);
#74=ORIENTED_EDGE('',*,*,#140,.T.);
#75=ORIENTED_EDGE('',*,*,#141,.F.);
#76=ORIENTED_EDGE('',*,*,#142,.F.);
#77=ORIENTED_EDGE('',*,*,#143,.T.);
#78=ORIENTED_EDGE('',*,*,#144,.T.);
#79=ORIENTED_EDGE('',*,*,#145,.F.);
#80=ORIENTED_EDGE('',*,*,#146,.F.);
#81=ORIENTED_EDGE('',*,*,#141,.T.);
#82=ORIENTED_EDGE('',*,*,#128,.T.);
#83=ORIENTED_EDGE('',*,*,#134,.T.);
#84=ORIENTED_EDGE('',*,*,#147,.T.);
#85=ORIENTED_EDGE('',*,*,#148,.F.);
#86=ORIENTED_EDGE('',*,*,#149,.F.);
#87=ORIENTED_EDGE('',*,*,#145,.T.);
#88=ORIENTED_EDGE('',*,*,#150,.T.);
#89=ORIENTED_EDGE('',*,*,#151,.F.);
#90=ORIENTED_EDGE('',*,*,#152,.T.);
#91=ORIENTED_EDGE('',*,*,#143,.F.);
#92=ORIENTED_EDGE('',*,*,#153,.F.);
#93=ORIENTED_EDGE('',*,*,#148,.T.);
#94=ORIENTED_EDGE('',*,*,#154,.T.);
#95=ORIENTED_EDGE('',*,*,#155,.T.);
#96=ORIENTED_EDGE('',*,*,#150,.F.);
#97=ORIENTED_EDGE('',*,*,#142,.T.);
#98=ORIENTED_EDGE('',*,*,#146,.T.);
#99=ORIENTED_EDGE('',*,*,#149,.T.);
#100=ORIENTED_EDGE('',*,*,#153,.T.);
#101=ORIENTED_EDGE('',*,*,#156,.F.);
#102=ORIENTED_EDGE('',*,*,#157,.F.);
#103=ORIENTED_EDGE('',*,*,#151,.T.);
#104=ORIENTED_EDGE('',*,*,#140,.F.);
#105=ORIENTED_EDGE('',*,*,#152,.F.);
#106=ORIENTED_EDGE('',*,*,#147,.F.);
#107=ORIENTED_EDGE('',*,*,#144,.F.);
#108=ORIENTED_EDGE('',*,*,#157,.T.);
#109=ORIENTED_EDGE('',*,*,#158,.F.);
#110=ORIENTED_EDGE('',*,*,#158,.T.);
#111=ORIENTED_EDGE('',*,*,#159,.F.);
#112=ORIENTED_EDGE('',*,*,#159,.T.);
#113=ORIENTED_EDGE('',*,*,#139,.F.);
#114=ORIENTED_EDGE('',*,*,#135,.F.);
#115=ORIENTED_EDGE('',*,*,#136,.F.);
#116=ORIENTED_EDGE('',*,*,#138,.F.);
#117=ORIENTED_EDGE('',*,*,#155,.F.);
#118=ORIENTED_EDGE('',*,*,#156,.T.);
#119=ORIENTED_EDGE('',*,*,#160,.F.);
#120=ORIENTED_EDGE('',*,*,#160,.T.);
#121=ORIENTED_EDGE('',*,*,#161,.F.);
#122=ORIENTED_EDGE('',*,*,#161,.T.);
#123=ORIENTED_EDGE('',*,*,#133,.F.);
#124=ORIENTED_EDGE('',*,*,#129,.F.);
#125=ORIENTED_EDGE('',*,*,#130,.F.);
#126=ORIENTED_EDGE('',*,*,#132,.F.);
#127=ORIENTED_EDGE('',*,*,#154,.F.);
#128=EDGE_CURVE('',#162,#162,#188,.T.);
#129=EDGE_CURVE('',#163,#164,#52,.F.);
#130=EDGE_CURVE('',#164,#163,#53,.F.);
#131=EDGE_CURVE('',#165,#165,#189,.T.);
#132=EDGE_CURVE('',#163,#164,#54,.T.);
#133=EDGE_CURVE('',#164,#163,#55,.T.);
#134=EDGE_CURVE('',#166,#166,#190,.T.);
#135=EDGE_CURVE('',#167,#168,#56,.F.);
#136=EDGE_CURVE('',#168,#167,#57,.F.);
#137=EDGE_CURVE('',#169,#169,#191,.T.);
#138=EDGE_CURVE('',#167,#168,#58,.T.);
#139=EDGE_CURVE('',#168,#167,#59,.T.);
#140=EDGE_CURVE('',#170,#171,#20,.T.);
#141=EDGE_CURVE('',#172,#171,#21,.T.);
#142=EDGE_CURVE('',#173,#172,#22,.T.);
#143=EDGE_CURVE('',#173,#170,#23,.T.);
#144=EDGE_CURVE('',#171,#174,#24,.T.);
#145=EDGE_CURVE('',#175,#174,#25,.T.);
#146=EDGE_CURVE('',#172,#175,#26,.T.);
#147=EDGE_CURVE('',#174,#176,#27,.T.);
#148=EDGE_CURVE('',#177,#176,#28,.T.);
#149=EDGE_CURVE('',#175,#177,#29,.T.);
#150=EDGE_CURVE('',#178,#178,#192,.T.);
#151=EDGE_CURVE('',#179,#179,#193,.T.);
#152=EDGE_CURVE('',#176,#170,#30,.T.);
#153=EDGE_CURVE('',#177,#173,#31,.T.);
#154=EDGE_CURVE('',#180,#180,#194,.T.);
#155=EDGE_CURVE('',#181,#181,#195,.T.);
#156=EDGE_CURVE('',#182,#182,#196,.T.);
#157=EDGE_CURVE('',#183,#183,#197,.T.);
#158=EDGE_CURVE('',#184,#184,#198,.T.);
#159=EDGE_CURVE('',#185,#185,#199,.T.);
#160=EDGE_CURVE('',#186,#186,#200,.T.);
#161=EDGE_CURVE('',#187,#187,#201,.T.);
#162=VERTEX_POINT('',#469);
#163=VERTEX_POINT('',#471);
#164=VERTEX_POINT('',#472);
#165=VERTEX_POINT('',#476);
#166=VERTEX_POINT('',#481);
#167=VERTEX_POINT('',#483);
#168=VERTEX_POINT('',#484);
#169=VERTEX_POINT('',#488);
#170=VERTEX_POINT('',#493);
#171=VERTEX_POINT('',#494);
#172=VERTEX_POINT('',#496);
#173=VERTEX_POINT('',#498);
#174=VERTEX_POINT('',#502);
#175=VERTEX_POINT('',#504);
#176=VERTEX_POINT('',#508);
#177=VERTEX_POINT('',#510);
#178=VERTEX_POINT('',#514);
#179=VERTEX_POINT('',#516);
#180=VERTEX_POINT('',#522);
#181=VERTEX_POINT('',#524);
#182=VERTEX_POINT('',#527);
#183=VERTEX_POINT('',#529);
#184=VERTEX_POINT('',#532);
#185=VERTEX_POINT('',#535);
#186=VERTEX_POINT('',#540);
#187=VERTEX_POINT('',#543);
#188=CIRCLE('',#330,2.75);
#189=CIRCLE('',#334,2.75);
#190=CIRCLE('',#338,2.75);
#191=CIRCLE('',#342,2.75);
#192=CIRCLE('',#349,6.1);
#193=CIRCLE('',#350,6.1);
#194=CIRCLE('',#353,2.75);
#195=CIRCLE('',#354,2.75);
#196=CIRCLE('',#356,5.);
#197=CIRCLE('',#357,5.);
#198=CIRCLE('',#359,5.);
#199=CIRCLE('',#361,2.75);
#200=CIRCLE('',#365,5.);
#201=CIRCLE('',#367,2.75);
#202=EDGE_LOOP('',(#60));
#203=EDGE_LOOP('',(#61,#62));
#204=EDGE_LOOP('',(#63));
#205=EDGE_LOOP('',(#64,#65));
#206=EDGE_LOOP('',(#66));
#207=EDGE_LOOP('',(#67,#68));
#208=EDGE_LOOP('',(#69));
#209=EDGE_LOOP('',(#70,#71));
#210=EDGE_LOOP('',(#72));
#211=EDGE_LOOP('',(#73));
#212=EDGE_LOOP('',(#74,#75,#76,#77));
#213=EDGE_LOOP('',(#78,#79,#80,#81));
#214=EDGE_LOOP('',(#82));
#215=EDGE_LOOP('',(#83));
#216=EDGE_LOOP('',(#84,#85,#86,#87));
#217=EDGE_LOOP('',(#88));
#218=EDGE_LOOP('',(#89));
#219=EDGE_LOOP('',(#90,#91,#92,#93));
#220=EDGE_LOOP('',(#94));
#221=EDGE_LOOP('',(#95));
#222=EDGE_LOOP('',(#96));
#223=EDGE_LOOP('',(#97,#98,#99,#100));
#224=EDGE_LOOP('',(#101));
#225=EDGE_LOOP('',(#102));
#226=EDGE_LOOP('',(#103));
#227=EDGE_LOOP('',(#104,#105,#106,#107));
#228=EDGE_LOOP('',(#108));
#229=EDGE_LOOP('',(#109));
#230=EDGE_LOOP('',(#110));
#231=EDGE_LOOP('',(#111));
#232=EDGE_LOOP('',(#112));
#233=EDGE_LOOP('',(#113,#114));
#234=EDGE_LOOP('',(#115,#116));
#235=EDGE_LOOP('',(#117));
#236=EDGE_LOOP('',(#118));
#237=EDGE_LOOP('',(#119));
#238=EDGE_LOOP('',(#120));
#239=EDGE_LOOP('',(#121));
#240=EDGE_LOOP('',(#122));
#241=EDGE_LOOP('',(#123,#124));
#242=EDGE_LOOP('',(#125,#126));
#243=EDGE_LOOP('',(#127));
#244=FACE_BOUND('',#202,.T.);
#245=FACE_BOUND('',#203,.T.);
#246=FACE_BOUND('',#204,.T.);
#247=FACE_BOUND('',#205,.T.);
#248=FACE_BOUND('',#206,.T.);
#249=FACE_BOUND('',#207,.T.);
#250=FACE_BOUND('',#208,.T.);
#251=FACE_BOUND('',#209,.T.);
#252=FACE_BOUND('',#210,.T.);
#253=FACE_BOUND('',#211,.T.);
#254=FACE_BOUND('',#212,.T.);
#255=FACE_BOUND('',#213,.T.);
#256=FACE_BOUND('',#214,.T.);
#257=FACE_BOUND('',#215,.T.);
#258=FACE_BOUND('',#216,.T.);
#259=FACE_BOUND('',#217,.T.);
#260=FACE_BOUND('',#218,.T.);
#261=FACE_BOUND('',#219,.T.);
#262=FACE_BOUND('',#220,.T.);
#263=FACE_BOUND('',#221,.T.);
#264=FACE_BOUND('',#222,.T.);
#265=FACE_BOUND('',#223,.T.);
#266=FACE_BOUND('',#224,.T.);
#267=FACE_BOUND('',#225,.T.);
#268=FACE_BOUND('',#226,.T.);
#269=FACE_BOUND('',#227,.T.);
#270=FACE_BOUND('',#228,.T.);
#271=FACE_BOUND('',#229,.T.);
#272=FACE_BOUND('',#230,.T.);
#273=FACE_BOUND('',#231,.T.);
#274=FACE_BOUND('',#232,.T.);
#275=FACE_BOUND('',#233,.T.);
#276=FACE_BOUND('',#234,.T.);
#277=FACE_BOUND('',#235,.T.);
#278=FACE_BOUND('',#236,.T.);
#279=FACE_BOUND('',#237,.T.);
#280=FACE_BOUND('',#238,.T.);
#281=FACE_BOUND('',#239,.T.);
#282=FACE_BOUND('',#240,.T.);
#283=FACE_BOUND('',#241,.T.);
#284=FACE_BOUND('',#242,.T.);
#285=FACE_BOUND('',#243,.T.);
#286=CYLINDRICAL_SURFACE('',#329,2.75);
#287=CYLINDRICAL_SURFACE('',#333,2.75);
#288=CYLINDRICAL_SURFACE('',#337,2.75);
#289=CYLINDRICAL_SURFACE('',#341,2.75);
#290=CYLINDRICAL_SURFACE('',#348,6.1);
#291=CYLINDRICAL_SURFACE('',#358,5.);
#292=CYLINDRICAL_SURFACE('',#362,2.75);
#293=CYLINDRICAL_SURFACE('',#363,2.75);
#294=CYLINDRICAL_SURFACE('',#364,5.);
#295=CYLINDRICAL_SURFACE('',#368,2.75);
#296=CYLINDRICAL_SURFACE('',#369,2.75);
#297=ADVANCED_FACE('',(#244,#245),#286,.F.);
#298=ADVANCED_FACE('',(#246,#247),#287,.F.);
#299=ADVANCED_FACE('',(#248,#249),#288,.F.);
#300=ADVANCED_FACE('',(#250,#251),#289,.F.);
#301=ADVANCED_FACE('',(#252,#253,#254),#44,.F.);
#302=ADVANCED_FACE('',(#255),#45,.F.);
#303=ADVANCED_FACE('',(#256,#257,#258),#46,.F.);
#304=ADVANCED_FACE('',(#259,#260),#290,.F.);
#305=ADVANCED_FACE('',(#261),#47,.F.);
#306=ADVANCED_FACE('',(#262,#263,#264,#265),#48,.T.);
#307=ADVANCED_FACE('',(#266,#267,#268,#269),#49,.F.);
#308=ADVANCED_FACE('',(#270,#271),#291,.F.);
#309=ADVANCED_FACE('',(#272,#273),#50,.T.);
#310=ADVANCED_FACE('',(#274,#275),#292,.F.);
#311=ADVANCED_FACE('',(#276,#277),#293,.F.);
#312=ADVANCED_FACE('',(#278,#279),#294,.F.);
#313=ADVANCED_FACE('',(#280,#281),#51,.T.);
#314=ADVANCED_FACE('',(#282,#283),#295,.F.);
#315=ADVANCED_FACE('',(#284,#285),#296,.F.);
#316=CLOSED_SHELL('',(#297,#298,#299,#300,#301,#302,#303,#304,#305,#306,
#307,#308,#309,#310,#311,#312,#313,#314,#315));
#317=STYLED_ITEM('',(#318),#325);
#318=PRESENTATION_STYLE_ASSIGNMENT((#319));
#319=SURFACE_STYLE_USAGE(.BOTH.,#320);
#320=SURFACE_SIDE_STYLE('',(#321));
#321=SURFACE_STYLE_FILL_AREA(#322);
#322=FILL_AREA_STYLE('',(#323));
#323=FILL_AREA_STYLE_COLOUR('',#324);
#324=COLOUR_RGB('',0.689999997615814,0.689999997615814,0.689999997615814);
#325=MANIFOLD_SOLID_BREP('34575 YSRF-8-C',#316);
#326=SHAPE_DEFINITION_REPRESENTATION(#552,#327);
#327=SHAPE_REPRESENTATION('34575 YSRF-8-C',(#328),#547);
#328=AXIS2_PLACEMENT_3D('',#466,#370,#371);
#329=AXIS2_PLACEMENT_3D('',#467,#372,#373);
#330=AXIS2_PLACEMENT_3D('',#468,#374,#375);
#331=AXIS2_PLACEMENT_3D('',#470,#376,#377);
#332=AXIS2_PLACEMENT_3D('',#473,#378,#379);
#333=AXIS2_PLACEMENT_3D('',#474,#380,#381);
#334=AXIS2_PLACEMENT_3D('',#475,#382,#383);
#335=AXIS2_PLACEMENT_3D('',#477,#384,#385);
#336=AXIS2_PLACEMENT_3D('',#478,#386,#387);
#337=AXIS2_PLACEMENT_3D('',#479,#388,#389);
#338=AXIS2_PLACEMENT_3D('',#480,#390,#391);
#339=AXIS2_PLACEMENT_3D('',#482,#392,#393);
#340=AXIS2_PLACEMENT_3D('',#485,#394,#395);
#341=AXIS2_PLACEMENT_3D('',#486,#396,#397);
#342=AXIS2_PLACEMENT_3D('',#487,#398,#399);
#343=AXIS2_PLACEMENT_3D('',#489,#400,#401);
#344=AXIS2_PLACEMENT_3D('',#490,#402,#403);
#345=AXIS2_PLACEMENT_3D('',#491,#404,#405);
#346=AXIS2_PLACEMENT_3D('',#500,#410,#411);
#347=AXIS2_PLACEMENT_3D('',#506,#415,#416);
#348=AXIS2_PLACEMENT_3D('',#512,#420,#421);
#349=AXIS2_PLACEMENT_3D('',#513,#422,#423);
#350=AXIS2_PLACEMENT_3D('',#515,#424,#425);
#351=AXIS2_PLACEMENT_3D('',#517,#426,#427);
#352=AXIS2_PLACEMENT_3D('',#520,#430,#431);
#353=AXIS2_PLACEMENT_3D('',#521,#432,#433);
#354=AXIS2_PLACEMENT_3D('',#523,#434,#435);
#355=AXIS2_PLACEMENT_3D('',#525,#436,#437);
#356=AXIS2_PLACEMENT_3D('',#526,#438,#439);
#357=AXIS2_PLACEMENT_3D('',#528,#440,#441);
#358=AXIS2_PLACEMENT_3D('',#530,#442,#443);
#359=AXIS2_PLACEMENT_3D('',#531,#444,#445);
#360=AXIS2_PLACEMENT_3D('',#533,#446,#447);
#361=AXIS2_PLACEMENT_3D('',#534,#448,#449);
#362=AXIS2_PLACEMENT_3D('',#536,#450,#451);
#363=AXIS2_PLACEMENT_3D('',#537,#452,#453);
#364=AXIS2_PLACEMENT_3D('',#538,#454,#455);
#365=AXIS2_PLACEMENT_3D('',#539,#456,#457);
#366=AXIS2_PLACEMENT_3D('',#541,#458,#459);
#367=AXIS2_PLACEMENT_3D('',#542,#460,#461);
#368=AXIS2_PLACEMENT_3D('',#544,#462,#463);
#369=AXIS2_PLACEMENT_3D('',#545,#464,#465);
#370=DIRECTION('',(0.,0.,1.));
#371=DIRECTION('',(1.,0.,0.));
#372=DIRECTION('',(0.,-1.,0.));
#373=DIRECTION('',(0.,0.,-1.));
#374=DIRECTION('',(0.,1.,0.));
#375=DIRECTION('',(1.,0.,0.));
#376=DIRECTION('',(0.,-0.707106781186547,0.707106781186547));
#377=DIRECTION('',(0.,-0.707106781186547,-0.707106781186547));
#378=DIRECTION('',(0.,-0.707106781186547,-0.707106781186547));
#379=DIRECTION('',(0.,-0.707106781186547,0.707106781186547));
#380=DIRECTION('',(0.,-1.,0.));
#381=DIRECTION('',(0.,0.,-1.));
#382=DIRECTION('',(0.,1.,0.));
#383=DIRECTION('',(1.,0.,0.));
#384=DIRECTION('',(0.,-0.707106781186547,0.707106781186547));
#385=DIRECTION('',(0.,-0.707106781186547,-0.707106781186547));
#386=DIRECTION('',(0.,-0.707106781186547,-0.707106781186547));
#387=DIRECTION('',(0.,-0.707106781186547,0.707106781186547));
#388=DIRECTION('',(0.,-1.,0.));
#389=DIRECTION('',(0.,0.,-1.));
#390=DIRECTION('',(0.,1.,0.));
#391=DIRECTION('',(1.,0.,0.));
#392=DIRECTION('',(0.,-0.707106781186547,0.707106781186547));
#393=DIRECTION('',(0.,-0.707106781186547,-0.707106781186547));
#394=DIRECTION('',(0.,-0.707106781186547,-0.707106781186547));
#395=DIRECTION('',(0.,-0.707106781186547,0.707106781186547));
#396=DIRECTION('',(0.,-1.,0.));
#397=DIRECTION('',(0.,0.,-1.));
#398=DIRECTION('',(0.,1.,0.));
#399=DIRECTION('',(1.,0.,0.));
#400=DIRECTION('',(0.,-0.707106781186547,0.707106781186547));
#401=DIRECTION('',(0.,-0.707106781186547,-0.707106781186547));
#402=DIRECTION('',(0.,-0.707106781186547,-0.707106781186547));
#403=DIRECTION('',(0.,-0.707106781186547,0.707106781186547));
#404=DIRECTION('',(0.,-1.,0.));
#405=DIRECTION('',(0.,0.,-1.));
#406=DIRECTION('',(-1.,0.,0.));
#407=DIRECTION('',(0.,0.,-1.));
#408=DIRECTION('',(-1.,0.,0.));
#409=DIRECTION('',(0.,0.,-1.));
#410=DIRECTION('',(1.,0.,0.));
#411=DIRECTION('',(0.,0.,-1.));
#412=DIRECTION('',(0.,-1.,0.));
#413=DIRECTION('',(0.,0.,-1.));
#414=DIRECTION('',(0.,-1.,0.));
#415=DIRECTION('',(0.,1.,0.));
#416=DIRECTION('',(0.,0.,1.));
#417=DIRECTION('',(1.,0.,0.));
#418=DIRECTION('',(0.,0.,-1.));
#419=DIRECTION('',(1.,0.,0.));
#420=DIRECTION('',(0.,0.,-1.));
#421=DIRECTION('',(-1.,0.,0.));
#422=DIRECTION('',(0.,0.,1.));
#423=DIRECTION('',(1.,0.,0.));
#424=DIRECTION('',(0.,0.,1.));
#425=DIRECTION('',(1.,0.,0.));
#426=DIRECTION('',(-1.,0.,0.));
#427=DIRECTION('',(0.,0.,1.));
#428=DIRECTION('',(0.,1.,0.));
#429=DIRECTION('',(0.,1.,0.));
#430=DIRECTION('',(0.,0.,1.));
#431=DIRECTION('',(1.,0.,0.));
#432=DIRECTION('',(0.,0.,-1.));
#433=DIRECTION('',(-1.,0.,0.));
#434=DIRECTION('',(0.,0.,-1.));
#435=DIRECTION('',(-1.,0.,0.));
#436=DIRECTION('',(0.,0.,1.));
#437=DIRECTION('',(1.,0.,0.));
#438=DIRECTION('',(0.,0.,-1.));
#439=DIRECTION('',(-1.,0.,0.));
#440=DIRECTION('',(0.,0.,-1.));
#441=DIRECTION('',(-1.,0.,0.));
#442=DIRECTION('',(0.,0.,-1.));
#443=DIRECTION('',(-1.,0.,0.));
#444=DIRECTION('',(0.,0.,-1.));
#445=DIRECTION('',(-1.,0.,0.));
#446=DIRECTION('',(0.,0.,-1.));
#447=DIRECTION('',(-1.,0.,0.));
#448=DIRECTION('',(0.,0.,-1.));
#449=DIRECTION('',(-1.,0.,0.));
#450=DIRECTION('',(0.,0.,-1.));
#451=DIRECTION('',(-1.,0.,0.));
#452=DIRECTION('',(0.,0.,-1.));
#453=DIRECTION('',(-1.,0.,0.));
#454=DIRECTION('',(0.,0.,-1.));
#455=DIRECTION('',(-1.,0.,0.));
#456=DIRECTION('',(0.,0.,-1.));
#457=DIRECTION('',(-1.,0.,0.));
#458=DIRECTION('',(0.,0.,-1.));
#459=DIRECTION('',(-1.,0.,0.));
#460=DIRECTION('',(0.,0.,-1.));
#461=DIRECTION('',(-1.,0.,0.));
#462=DIRECTION('',(0.,0.,-1.));
#463=DIRECTION('',(-1.,0.,0.));
#464=DIRECTION('',(0.,0.,-1.));
#465=DIRECTION('',(-1.,0.,0.));
#466=CARTESIAN_POINT('',(0.,0.,0.));
#467=CARTESIAN_POINT('',(14.,10.,10.));
#468=CARTESIAN_POINT('',(14.,-10.,10.));
#469=CARTESIAN_POINT('',(16.75,-10.,10.));
#470=CARTESIAN_POINT('',(14.,0.,10.));
#471=CARTESIAN_POINT('',(16.75,0.,10.));
#472=CARTESIAN_POINT('',(11.25,0.,10.));
#473=CARTESIAN_POINT('',(14.,0.,10.));
#474=CARTESIAN_POINT('',(14.,10.,10.));
#475=CARTESIAN_POINT('',(14.,10.,10.));
#476=CARTESIAN_POINT('',(16.75,10.,10.));
#477=CARTESIAN_POINT('',(14.,0.,10.));
#478=CARTESIAN_POINT('',(14.,0.,10.));
#479=CARTESIAN_POINT('',(-14.,10.,10.));
#480=CARTESIAN_POINT('',(-14.,-10.,10.));
#481=CARTESIAN_POINT('',(-11.25,-10.,10.));
#482=CARTESIAN_POINT('',(-14.,0.,10.));
#483=CARTESIAN_POINT('',(-11.25,0.,10.));
#484=CARTESIAN_POINT('',(-16.75,0.,10.));
#485=CARTESIAN_POINT('',(-14.,0.,10.));
#486=CARTESIAN_POINT('',(-14.,10.,10.));
#487=CARTESIAN_POINT('',(-14.,10.,10.));
#488=CARTESIAN_POINT('',(-11.25,10.,10.));
#489=CARTESIAN_POINT('',(-14.,0.,10.));
#490=CARTESIAN_POINT('',(-14.,0.,10.));
#491=CARTESIAN_POINT('',(20.5,10.,20.));
#492=CARTESIAN_POINT('',(20.5,10.,0.));
#493=CARTESIAN_POINT('',(20.5,10.,0.));
#494=CARTESIAN_POINT('',(-20.5,10.,0.));
#495=CARTESIAN_POINT('',(-20.5,10.,20.));
#496=CARTESIAN_POINT('',(-20.5,10.,20.));
#497=CARTESIAN_POINT('',(20.5,10.,20.));
#498=CARTESIAN_POINT('',(20.5,10.,20.));
#499=CARTESIAN_POINT('',(20.5,10.,20.));
#500=CARTESIAN_POINT('',(-20.5,10.,20.));
#501=CARTESIAN_POINT('',(-20.5,10.,0.));
#502=CARTESIAN_POINT('',(-20.5,-10.,0.));
#503=CARTESIAN_POINT('',(-20.5,-10.,20.));
#504=CARTESIAN_POINT('',(-20.5,-10.,20.));
#505=CARTESIAN_POINT('',(-20.5,10.,20.));
#506=CARTESIAN_POINT('',(-20.5,-10.,20.));
#507=CARTESIAN_POINT('',(-20.5,-10.,0.));
#508=CARTESIAN_POINT('',(20.5,-10.,0.));
#509=CARTESIAN_POINT('',(20.5,-10.,20.));
#510=CARTESIAN_POINT('',(20.5,-10.,20.));
#511=CARTESIAN_POINT('',(-20.5,-10.,20.));
#512=CARTESIAN_POINT('',(0.,0.,20.));
#513=CARTESIAN_POINT('',(0.,0.,20.));
#514=CARTESIAN_POINT('',(6.1,0.,20.));
#515=CARTESIAN_POINT('',(0.,0.,0.));
#516=CARTESIAN_POINT('',(6.1,0.,0.));
#517=CARTESIAN_POINT('',(20.5,-10.,20.));
#518=CARTESIAN_POINT('',(20.5,-10.,0.));
#519=CARTESIAN_POINT('',(20.5,-10.,20.));
#520=CARTESIAN_POINT('',(0.,0.,20.));
#521=CARTESIAN_POINT('',(14.,0.,20.));
#522=CARTESIAN_POINT('',(11.25,0.,20.));
#523=CARTESIAN_POINT('',(-14.,0.,20.));
#524=CARTESIAN_POINT('',(-16.75,0.,20.));
#525=CARTESIAN_POINT('',(0.,0.,0.));
#526=CARTESIAN_POINT('',(14.,0.,0.));
#527=CARTESIAN_POINT('',(9.,0.,0.));
#528=CARTESIAN_POINT('',(-14.,0.,0.));
#529=CARTESIAN_POINT('',(-19.,0.,0.));
#530=CARTESIAN_POINT('',(-14.,0.,0.));
#531=CARTESIAN_POINT('',(-14.,0.,5.5));
#532=CARTESIAN_POINT('',(-19.,0.,5.5));
#533=CARTESIAN_POINT('',(-16.75,0.,5.5));
#534=CARTESIAN_POINT('',(-14.,0.,5.5));
#535=CARTESIAN_POINT('',(-16.75,0.,5.5));
#536=CARTESIAN_POINT('',(-14.,0.,0.));
#537=CARTESIAN_POINT('',(-14.,0.,0.));
#538=CARTESIAN_POINT('',(14.,0.,0.));
#539=CARTESIAN_POINT('',(14.,0.,5.5));
#540=CARTESIAN_POINT('',(9.,0.,5.5));
#541=CARTESIAN_POINT('',(11.25,0.,5.5));
#542=CARTESIAN_POINT('',(14.,0.,5.5));
#543=CARTESIAN_POINT('',(11.25,0.,5.5));
#544=CARTESIAN_POINT('',(14.,0.,0.));
#545=CARTESIAN_POINT('',(14.,0.,0.));
#546=MECHANICAL_DESIGN_GEOMETRIC_PRESENTATION_REPRESENTATION('',(#317),
#547);
#547=(
GEOMETRIC_REPRESENTATION_CONTEXT(3)
GLOBAL_UNCERTAINTY_ASSIGNED_CONTEXT((#548))
GLOBAL_UNIT_ASSIGNED_CONTEXT((#551,#550,#549))
REPRESENTATION_CONTEXT('34575 YSRF-8-C','TOP_LEVEL_ASSEMBLY_PART')
);
#548=UNCERTAINTY_MEASURE_WITH_UNIT(LENGTH_MEASURE(0.005),#551,
'DISTANCE_ACCURACY_VALUE','Maximum Tolerance applied to model');
#549=(
NAMED_UNIT(*)
SI_UNIT($,.STERADIAN.)
SOLID_ANGLE_UNIT()
);
#550=(
NAMED_UNIT(*)
PLANE_ANGLE_UNIT()
SI_UNIT($,.RADIAN.)
);
#551=(
LENGTH_UNIT()
NAMED_UNIT(*)
SI_UNIT(.MILLI.,.METRE.)
);
#552=PRODUCT_DEFINITION_SHAPE('','',#553);
#553=PRODUCT_DEFINITION('','',#555,#554);
#554=PRODUCT_DEFINITION_CONTEXT('',#561,'design');
#555=PRODUCT_DEFINITION_FORMATION_WITH_SPECIFIED_SOURCE('','',#557,
 .NOT_KNOWN.);
#556=PRODUCT_RELATED_PRODUCT_CATEGORY('','',(#557));
#557=PRODUCT('34575 YSRF-8-C','34575 YSRF-8-C','34575 YSRF-8-C',(#559));
#558=PRODUCT_CATEGORY('','');
#559=PRODUCT_CONTEXT('',#561,'mechanical');
#560=APPLICATION_PROTOCOL_DEFINITION('international standard',
'automotive_design',2010,#561);
#561=APPLICATION_CONTEXT(
'core data for automotive mechanical design processes');
ENDSEC;
END-ISO-10303-21;
