ISO-10303-21;
HEADER;
/* Generated by software containing ST-Developer
 * from STEP Tools, Inc. (www.steptools.com) 
 */
/* OPTION: using custom renumber hook */

FILE_DESCRIPTION(
/* description */ ('STEP AP214'),
/* implementation_level */ '2;1');

FILE_NAME(
/* name */ '3570_B-3_8',
/* time_stamp */ '2024-07-24T03:25:25+02:00',
/* author */ ('License CC BY-ND 4.0'),
/* organization */ ('CADENAS'),
/* preprocessor_version */ 'ST-DEVELOPER v19.3',
/* originating_system */ 'PARTsolutions',
/* authorisation */ '  ');

FILE_SCHEMA (('AUTOMOTIVE_DESIGN {1 0 10303 214 3 1 1}'));
ENDSEC;

DATA;
#10=PROPERTY_DEFINITION_REPRESENTATION(#14,#12);
#11=PROPERTY_DEFINITION_REPRESENTATION(#15,#13);
#12=REPRESENTATION('',(#16),#503);
#13=REPRESENTATION('',(#17),#503);
#14=PROPERTY_DEFINITION('pmi validation property','',#508);
#15=PROPERTY_DEFINITION('pmi validation property','',#508);
#16=VALUE_REPRESENTATION_ITEM('number of annotations',COUNT_MEASURE(0.));
#17=VALUE_REPRESENTATION_ITEM('number of views',COUNT_MEASURE(0.));
#18=SHAPE_REPRESENTATION_RELATIONSHIP('','',#291,#19);
#19=ADVANCED_BREP_SHAPE_REPRESENTATION('',(#289),#503);
#20=LINE('',#478,#32);
#21=LINE('',#480,#33);
#22=LINE('',#482,#34);
#23=LINE('',#484,#35);
#24=LINE('',#486,#36);
#25=LINE('',#488,#37);
#26=LINE('',#490,#38);
#27=LINE('',#492,#39);
#28=LINE('',#494,#40);
#29=LINE('',#496,#41);
#30=LINE('',#498,#42);
#31=LINE('',#500,#43);
#32=VECTOR('',#379,1000.);
#33=VECTOR('',#380,1000.);
#34=VECTOR('',#381,1000.);
#35=VECTOR('',#384,1000.);
#36=VECTOR('',#385,1000.);
#37=VECTOR('',#388,1000.);
#38=VECTOR('',#389,1000.);
#39=VECTOR('',#392,1000.);
#40=VECTOR('',#393,1000.);
#41=VECTOR('',#396,1000.);
#42=VECTOR('',#397,1000.);
#43=VECTOR('',#400,1000.);
#44=CYLINDRICAL_SURFACE('',#299,11.);
#45=CYLINDRICAL_SURFACE('',#303,9.9);
#46=CYLINDRICAL_SURFACE('',#307,11.);
#47=CYLINDRICAL_SURFACE('',#313,8.331);
#48=TOROIDAL_SURFACE('',#297,10.8,0.200000000000001);
#49=PLANE('',#295);
#50=PLANE('',#301);
#51=PLANE('',#305);
#52=PLANE('',#309);
#53=PLANE('',#317);
#54=PLANE('',#318);
#55=PLANE('',#319);
#56=PLANE('',#320);
#57=PLANE('',#321);
#58=PLANE('',#322);
#59=PLANE('',#323);
#60=PLANE('',#324);
#61=B_SPLINE_CURVE_WITH_KNOTS('',3,(#407,#408,#409,#410,#411),
 .UNSPECIFIED.,.F.,.F.,(4,1,4),(2.38073758162007E-7,0.00233260784677475,
0.00466497761979134),.UNSPECIFIED.);
#62=B_SPLINE_CURVE_WITH_KNOTS('',3,(#414,#415,#416,#417,#418),
 .UNSPECIFIED.,.F.,.F.,(4,1,4),(0.00587806176282518,0.00822978153308307,
0.010581501303341),.UNSPECIFIED.);
#63=B_SPLINE_CURVE_WITH_KNOTS('',3,(#420,#421,#422,#423,#424),
 .UNSPECIFIED.,.F.,.F.,(4,1,4),(2.38073758161877E-7,0.00233260784677475,
0.00466497761979134),.UNSPECIFIED.);
#64=B_SPLINE_CURVE_WITH_KNOTS('',3,(#426,#427,#428,#429,#430),
 .UNSPECIFIED.,.F.,.F.,(4,1,4),(2.38073758162232E-7,0.00233260784677475,
0.00466497761979134),.UNSPECIFIED.);
#65=B_SPLINE_CURVE_WITH_KNOTS('',3,(#432,#433,#434,#435,#436),
 .UNSPECIFIED.,.F.,.F.,(4,1,4),(0.00587806176282518,0.00822978153308307,
0.010581501303341),.UNSPECIFIED.);
#66=B_SPLINE_CURVE_WITH_KNOTS('',3,(#438,#439,#440,#441,#442),
 .UNSPECIFIED.,.F.,.F.,(4,1,4),(2.38073758161877E-7,0.00233260784677475,
0.00466497761979134),.UNSPECIFIED.);
#67=ORIENTED_EDGE('',*,*,#127,.F.);
#68=ORIENTED_EDGE('',*,*,#128,.T.);
#69=ORIENTED_EDGE('',*,*,#129,.T.);
#70=ORIENTED_EDGE('',*,*,#130,.T.);
#71=ORIENTED_EDGE('',*,*,#131,.T.);
#72=ORIENTED_EDGE('',*,*,#132,.T.);
#73=ORIENTED_EDGE('',*,*,#133,.T.);
#74=ORIENTED_EDGE('',*,*,#134,.F.);
#75=ORIENTED_EDGE('',*,*,#127,.T.);
#76=ORIENTED_EDGE('',*,*,#134,.T.);
#77=ORIENTED_EDGE('',*,*,#135,.F.);
#78=ORIENTED_EDGE('',*,*,#136,.F.);
#79=ORIENTED_EDGE('',*,*,#135,.T.);
#80=ORIENTED_EDGE('',*,*,#137,.F.);
#81=ORIENTED_EDGE('',*,*,#136,.T.);
#82=ORIENTED_EDGE('',*,*,#138,.F.);
#83=ORIENTED_EDGE('',*,*,#137,.T.);
#84=ORIENTED_EDGE('',*,*,#139,.F.);
#85=ORIENTED_EDGE('',*,*,#138,.T.);
#86=ORIENTED_EDGE('',*,*,#140,.F.);
#87=ORIENTED_EDGE('',*,*,#139,.T.);
#88=ORIENTED_EDGE('',*,*,#141,.F.);
#89=ORIENTED_EDGE('',*,*,#140,.T.);
#90=ORIENTED_EDGE('',*,*,#142,.F.);
#91=ORIENTED_EDGE('',*,*,#141,.T.);
#92=ORIENTED_EDGE('',*,*,#143,.F.);
#93=ORIENTED_EDGE('',*,*,#142,.T.);
#94=ORIENTED_EDGE('',*,*,#144,.F.);
#95=ORIENTED_EDGE('',*,*,#143,.T.);
#96=ORIENTED_EDGE('',*,*,#144,.T.);
#97=ORIENTED_EDGE('',*,*,#145,.F.);
#98=ORIENTED_EDGE('',*,*,#146,.F.);
#99=ORIENTED_EDGE('',*,*,#147,.T.);
#100=ORIENTED_EDGE('',*,*,#129,.F.);
#101=ORIENTED_EDGE('',*,*,#148,.F.);
#102=ORIENTED_EDGE('',*,*,#149,.F.);
#103=ORIENTED_EDGE('',*,*,#145,.T.);
#104=ORIENTED_EDGE('',*,*,#128,.F.);
#105=ORIENTED_EDGE('',*,*,#150,.F.);
#106=ORIENTED_EDGE('',*,*,#151,.F.);
#107=ORIENTED_EDGE('',*,*,#148,.T.);
#108=ORIENTED_EDGE('',*,*,#133,.F.);
#109=ORIENTED_EDGE('',*,*,#152,.F.);
#110=ORIENTED_EDGE('',*,*,#153,.F.);
#111=ORIENTED_EDGE('',*,*,#150,.T.);
#112=ORIENTED_EDGE('',*,*,#132,.F.);
#113=ORIENTED_EDGE('',*,*,#154,.F.);
#114=ORIENTED_EDGE('',*,*,#155,.F.);
#115=ORIENTED_EDGE('',*,*,#152,.T.);
#116=ORIENTED_EDGE('',*,*,#131,.F.);
#117=ORIENTED_EDGE('',*,*,#147,.F.);
#118=ORIENTED_EDGE('',*,*,#156,.F.);
#119=ORIENTED_EDGE('',*,*,#154,.T.);
#120=ORIENTED_EDGE('',*,*,#130,.F.);
#121=ORIENTED_EDGE('',*,*,#146,.T.);
#122=ORIENTED_EDGE('',*,*,#149,.T.);
#123=ORIENTED_EDGE('',*,*,#151,.T.);
#124=ORIENTED_EDGE('',*,*,#153,.T.);
#125=ORIENTED_EDGE('',*,*,#155,.T.);
#126=ORIENTED_EDGE('',*,*,#156,.T.);
#127=EDGE_CURVE('',#157,#157,#181,.T.);
#128=EDGE_CURVE('',#158,#159,#61,.T.);
#129=EDGE_CURVE('',#159,#160,#62,.T.);
#130=EDGE_CURVE('',#160,#161,#63,.T.);
#131=EDGE_CURVE('',#161,#162,#64,.T.);
#132=EDGE_CURVE('',#162,#163,#65,.T.);
#133=EDGE_CURVE('',#163,#158,#66,.T.);
#134=EDGE_CURVE('',#164,#164,#182,.T.);
#135=EDGE_CURVE('',#165,#165,#183,.T.);
#136=EDGE_CURVE('',#166,#166,#184,.T.);
#137=EDGE_CURVE('',#167,#167,#185,.T.);
#138=EDGE_CURVE('',#168,#168,#186,.T.);
#139=EDGE_CURVE('',#169,#169,#187,.T.);
#140=EDGE_CURVE('',#170,#170,#188,.T.);
#141=EDGE_CURVE('',#171,#171,#189,.T.);
#142=EDGE_CURVE('',#172,#172,#190,.T.);
#143=EDGE_CURVE('',#173,#173,#191,.T.);
#144=EDGE_CURVE('',#174,#174,#192,.T.);
#145=EDGE_CURVE('',#175,#159,#20,.T.);
#146=EDGE_CURVE('',#176,#175,#21,.T.);
#147=EDGE_CURVE('',#176,#160,#22,.T.);
#148=EDGE_CURVE('',#177,#158,#23,.T.);
#149=EDGE_CURVE('',#175,#177,#24,.T.);
#150=EDGE_CURVE('',#178,#163,#25,.T.);
#151=EDGE_CURVE('',#177,#178,#26,.T.);
#152=EDGE_CURVE('',#179,#162,#27,.T.);
#153=EDGE_CURVE('',#178,#179,#28,.T.);
#154=EDGE_CURVE('',#180,#161,#29,.T.);
#155=EDGE_CURVE('',#179,#180,#30,.T.);
#156=EDGE_CURVE('',#180,#176,#31,.T.);
#157=VERTEX_POINT('',#406);
#158=VERTEX_POINT('',#412);
#159=VERTEX_POINT('',#413);
#160=VERTEX_POINT('',#419);
#161=VERTEX_POINT('',#425);
#162=VERTEX_POINT('',#431);
#163=VERTEX_POINT('',#437);
#164=VERTEX_POINT('',#445);
#165=VERTEX_POINT('',#448);
#166=VERTEX_POINT('',#451);
#167=VERTEX_POINT('',#454);
#168=VERTEX_POINT('',#457);
#169=VERTEX_POINT('',#460);
#170=VERTEX_POINT('',#463);
#171=VERTEX_POINT('',#466);
#172=VERTEX_POINT('',#469);
#173=VERTEX_POINT('',#472);
#174=VERTEX_POINT('',#475);
#175=VERTEX_POINT('',#479);
#176=VERTEX_POINT('',#481);
#177=VERTEX_POINT('',#485);
#178=VERTEX_POINT('',#489);
#179=VERTEX_POINT('',#493);
#180=VERTEX_POINT('',#497);
#181=CIRCLE('',#294,4.8);
#182=CIRCLE('',#296,10.8);
#183=CIRCLE('',#298,11.);
#184=CIRCLE('',#300,11.);
#185=CIRCLE('',#302,9.9);
#186=CIRCLE('',#304,9.9);
#187=CIRCLE('',#306,11.);
#188=CIRCLE('',#308,11.);
#189=CIRCLE('',#310,7.475);
#190=CIRCLE('',#312,8.331);
#191=CIRCLE('',#314,8.331);
#192=CIRCLE('',#316,7.475);
#193=EDGE_LOOP('',(#67));
#194=EDGE_LOOP('',(#68,#69,#70,#71,#72,#73));
#195=EDGE_LOOP('',(#74));
#196=EDGE_LOOP('',(#75));
#197=EDGE_LOOP('',(#76));
#198=EDGE_LOOP('',(#77));
#199=EDGE_LOOP('',(#78));
#200=EDGE_LOOP('',(#79));
#201=EDGE_LOOP('',(#80));
#202=EDGE_LOOP('',(#81));
#203=EDGE_LOOP('',(#82));
#204=EDGE_LOOP('',(#83));
#205=EDGE_LOOP('',(#84));
#206=EDGE_LOOP('',(#85));
#207=EDGE_LOOP('',(#86));
#208=EDGE_LOOP('',(#87));
#209=EDGE_LOOP('',(#88));
#210=EDGE_LOOP('',(#89));
#211=EDGE_LOOP('',(#90));
#212=EDGE_LOOP('',(#91));
#213=EDGE_LOOP('',(#92));
#214=EDGE_LOOP('',(#93));
#215=EDGE_LOOP('',(#94));
#216=EDGE_LOOP('',(#95));
#217=EDGE_LOOP('',(#96));
#218=EDGE_LOOP('',(#97,#98,#99,#100));
#219=EDGE_LOOP('',(#101,#102,#103,#104));
#220=EDGE_LOOP('',(#105,#106,#107,#108));
#221=EDGE_LOOP('',(#109,#110,#111,#112));
#222=EDGE_LOOP('',(#113,#114,#115,#116));
#223=EDGE_LOOP('',(#117,#118,#119,#120));
#224=EDGE_LOOP('',(#121,#122,#123,#124,#125,#126));
#225=FACE_BOUND('',#193,.T.);
#226=FACE_BOUND('',#194,.T.);
#227=FACE_BOUND('',#195,.T.);
#228=FACE_BOUND('',#196,.T.);
#229=FACE_BOUND('',#197,.T.);
#230=FACE_BOUND('',#198,.T.);
#231=FACE_BOUND('',#199,.T.);
#232=FACE_BOUND('',#200,.T.);
#233=FACE_BOUND('',#201,.T.);
#234=FACE_BOUND('',#202,.T.);
#235=FACE_BOUND('',#203,.T.);
#236=FACE_BOUND('',#204,.T.);
#237=FACE_BOUND('',#205,.T.);
#238=FACE_BOUND('',#206,.T.);
#239=FACE_BOUND('',#207,.T.);
#240=FACE_BOUND('',#208,.T.);
#241=FACE_BOUND('',#209,.T.);
#242=FACE_BOUND('',#210,.T.);
#243=FACE_BOUND('',#211,.T.);
#244=FACE_BOUND('',#212,.T.);
#245=FACE_BOUND('',#213,.T.);
#246=FACE_BOUND('',#214,.T.);
#247=FACE_BOUND('',#215,.T.);
#248=FACE_BOUND('',#216,.T.);
#249=FACE_BOUND('',#217,.T.);
#250=FACE_BOUND('',#218,.T.);
#251=FACE_BOUND('',#219,.T.);
#252=FACE_BOUND('',#220,.T.);
#253=FACE_BOUND('',#221,.T.);
#254=FACE_BOUND('',#222,.T.);
#255=FACE_BOUND('',#223,.T.);
#256=FACE_BOUND('',#224,.T.);
#257=CONICAL_SURFACE('',#293,8.67361737988404E-16,1.0471975511966);
#258=CONICAL_SURFACE('',#311,7.475,0.785398163397448);
#259=CONICAL_SURFACE('',#315,8.331,0.785398163397448);
#260=ADVANCED_FACE('',(#225,#226),#257,.F.);
#261=ADVANCED_FACE('',(#227,#228),#49,.F.);
#262=ADVANCED_FACE('',(#229,#230),#48,.T.);
#263=ADVANCED_FACE('',(#231,#232),#44,.T.);
#264=ADVANCED_FACE('',(#233,#234),#50,.F.);
#265=ADVANCED_FACE('',(#235,#236),#45,.T.);
#266=ADVANCED_FACE('',(#237,#238),#51,.F.);
#267=ADVANCED_FACE('',(#239,#240),#46,.T.);
#268=ADVANCED_FACE('',(#241,#242),#52,.F.);
#269=ADVANCED_FACE('',(#243,#244),#258,.T.);
#270=ADVANCED_FACE('',(#245,#246),#47,.T.);
#271=ADVANCED_FACE('',(#247,#248),#259,.T.);
#272=ADVANCED_FACE('',(#249),#53,.F.);
#273=ADVANCED_FACE('',(#250),#54,.F.);
#274=ADVANCED_FACE('',(#251),#55,.F.);
#275=ADVANCED_FACE('',(#252),#56,.F.);
#276=ADVANCED_FACE('',(#253),#57,.F.);
#277=ADVANCED_FACE('',(#254),#58,.F.);
#278=ADVANCED_FACE('',(#255),#59,.F.);
#279=ADVANCED_FACE('',(#256),#60,.T.);
#280=CLOSED_SHELL('',(#260,#261,#262,#263,#264,#265,#266,#267,#268,#269,
#270,#271,#272,#273,#274,#275,#276,#277,#278,#279));
#281=STYLED_ITEM('',(#282),#289);
#282=PRESENTATION_STYLE_ASSIGNMENT((#283));
#283=SURFACE_STYLE_USAGE(.BOTH.,#284);
#284=SURFACE_SIDE_STYLE('',(#285));
#285=SURFACE_STYLE_FILL_AREA(#286);
#286=FILL_AREA_STYLE('',(#287));
#287=FILL_AREA_STYLE_COLOUR('',#288);
#288=COLOUR_RGB('',0.689999997615814,0.689999997615814,0.689999997615814);
#289=MANIFOLD_SOLID_BREP('3570 B-3/8',#280);
#290=SHAPE_DEFINITION_REPRESENTATION(#508,#291);
#291=SHAPE_REPRESENTATION('3570 B-3/8',(#292),#503);
#292=AXIS2_PLACEMENT_3D('',#403,#325,#326);
#293=AXIS2_PLACEMENT_3D('',#404,#327,#328);
#294=AXIS2_PLACEMENT_3D('',#405,#329,#330);
#295=AXIS2_PLACEMENT_3D('',#443,#331,#332);
#296=AXIS2_PLACEMENT_3D('',#444,#333,#334);
#297=AXIS2_PLACEMENT_3D('',#446,#335,#336);
#298=AXIS2_PLACEMENT_3D('',#447,#337,#338);
#299=AXIS2_PLACEMENT_3D('',#449,#339,#340);
#300=AXIS2_PLACEMENT_3D('',#450,#341,#342);
#301=AXIS2_PLACEMENT_3D('',#452,#343,#344);
#302=AXIS2_PLACEMENT_3D('',#453,#345,#346);
#303=AXIS2_PLACEMENT_3D('',#455,#347,#348);
#304=AXIS2_PLACEMENT_3D('',#456,#349,#350);
#305=AXIS2_PLACEMENT_3D('',#458,#351,#352);
#306=AXIS2_PLACEMENT_3D('',#459,#353,#354);
#307=AXIS2_PLACEMENT_3D('',#461,#355,#356);
#308=AXIS2_PLACEMENT_3D('',#462,#357,#358);
#309=AXIS2_PLACEMENT_3D('',#464,#359,#360);
#310=AXIS2_PLACEMENT_3D('',#465,#361,#362);
#311=AXIS2_PLACEMENT_3D('',#467,#363,#364);
#312=AXIS2_PLACEMENT_3D('',#468,#365,#366);
#313=AXIS2_PLACEMENT_3D('',#470,#367,#368);
#314=AXIS2_PLACEMENT_3D('',#471,#369,#370);
#315=AXIS2_PLACEMENT_3D('',#473,#371,#372);
#316=AXIS2_PLACEMENT_3D('',#474,#373,#374);
#317=AXIS2_PLACEMENT_3D('',#476,#375,#376);
#318=AXIS2_PLACEMENT_3D('',#477,#377,#378);
#319=AXIS2_PLACEMENT_3D('',#483,#382,#383);
#320=AXIS2_PLACEMENT_3D('',#487,#386,#387);
#321=AXIS2_PLACEMENT_3D('',#491,#390,#391);
#322=AXIS2_PLACEMENT_3D('',#495,#394,#395);
#323=AXIS2_PLACEMENT_3D('',#499,#398,#399);
#324=AXIS2_PLACEMENT_3D('',#501,#401,#402);
#325=DIRECTION('',(0.,0.,1.));
#326=DIRECTION('',(1.,0.,0.));
#327=DIRECTION('',(0.,0.,1.));
#328=DIRECTION('',(1.,0.,0.));
#329=DIRECTION('',(0.,0.,-1.));
#330=DIRECTION('',(-1.,0.,0.));
#331=DIRECTION('',(0.,0.,-1.));
#332=DIRECTION('',(-1.,0.,0.));
#333=DIRECTION('',(0.,0.,-1.));
#334=DIRECTION('',(-1.,0.,0.));
#335=DIRECTION('',(0.,0.,-1.));
#336=DIRECTION('',(-1.,0.,0.));
#337=DIRECTION('',(0.,0.,-1.));
#338=DIRECTION('',(-1.,0.,0.));
#339=DIRECTION('',(0.,0.,-1.));
#340=DIRECTION('',(-1.,0.,0.));
#341=DIRECTION('',(0.,0.,-1.));
#342=DIRECTION('',(-1.,0.,0.));
#343=DIRECTION('',(0.,0.,1.));
#344=DIRECTION('',(1.,0.,0.));
#345=DIRECTION('',(0.,0.,-1.));
#346=DIRECTION('',(-1.,0.,0.));
#347=DIRECTION('',(0.,0.,-1.));
#348=DIRECTION('',(-1.,0.,0.));
#349=DIRECTION('',(0.,0.,-1.));
#350=DIRECTION('',(-1.,0.,0.));
#351=DIRECTION('',(0.,0.,-1.));
#352=DIRECTION('',(-1.,0.,0.));
#353=DIRECTION('',(0.,0.,-1.));
#354=DIRECTION('',(-1.,0.,0.));
#355=DIRECTION('',(0.,0.,-1.));
#356=DIRECTION('',(-1.,0.,0.));
#357=DIRECTION('',(0.,0.,-1.));
#358=DIRECTION('',(-1.,0.,0.));
#359=DIRECTION('',(0.,0.,1.));
#360=DIRECTION('',(1.,0.,0.));
#361=DIRECTION('',(0.,0.,-1.));
#362=DIRECTION('',(-1.,0.,0.));
#363=DIRECTION('',(0.,0.,-1.));
#364=DIRECTION('',(-1.,0.,0.));
#365=DIRECTION('',(0.,0.,-1.));
#366=DIRECTION('',(-1.,0.,0.));
#367=DIRECTION('',(0.,0.,-1.));
#368=DIRECTION('',(-1.,0.,0.));
#369=DIRECTION('',(0.,0.,-1.));
#370=DIRECTION('',(-1.,0.,0.));
#371=DIRECTION('',(0.,0.,1.));
#372=DIRECTION('',(1.,0.,0.));
#373=DIRECTION('',(0.,0.,-1.));
#374=DIRECTION('',(-1.,0.,0.));
#375=DIRECTION('',(0.,0.,1.));
#376=DIRECTION('',(1.,0.,0.));
#377=DIRECTION('',(-1.,0.,0.));
#378=DIRECTION('',(0.,0.,1.));
#379=DIRECTION('',(0.,0.,1.));
#380=DIRECTION('',(0.,-1.,0.));
#381=DIRECTION('',(0.,0.,1.));
#382=DIRECTION('',(-0.5,-0.866025403784439,0.));
#383=DIRECTION('',(0.866025403784439,-0.5,0.));
#384=DIRECTION('',(0.,0.,1.));
#385=DIRECTION('',(0.866025403784439,-0.5,0.));
#386=DIRECTION('',(0.5,-0.866025403784439,0.));
#387=DIRECTION('',(0.866025403784439,0.5,0.));
#388=DIRECTION('',(0.,0.,1.));
#389=DIRECTION('',(0.866025403784439,0.5,0.));
#390=DIRECTION('',(1.,0.,0.));
#391=DIRECTION('',(0.,0.,-1.));
#392=DIRECTION('',(0.,0.,1.));
#393=DIRECTION('',(0.,1.,0.));
#394=DIRECTION('',(0.5,0.866025403784439,0.));
#395=DIRECTION('',(-0.866025403784439,0.5,0.));
#396=DIRECTION('',(0.,0.,1.));
#397=DIRECTION('',(-0.866025403784439,0.5,0.));
#398=DIRECTION('',(-0.5,0.866025403784439,0.));
#399=DIRECTION('',(-0.866025403784439,-0.5,0.));
#400=DIRECTION('',(-0.866025403784439,-0.5,0.));
#401=DIRECTION('',(0.,0.,1.));
#402=DIRECTION('',(1.,0.,0.));
#403=CARTESIAN_POINT('',(0.,0.,0.));
#404=CARTESIAN_POINT('',(0.,0.,2.4287187078898));
#405=CARTESIAN_POINT('',(0.,0.,5.2));
#406=CARTESIAN_POINT('',(-4.8,0.,5.2));
#407=CARTESIAN_POINT('',(1.07964380346849E-13,-4.61880215351707,5.09538537455559));
#408=CARTESIAN_POINT('',(-0.653123433623318,-4.24172116330053,4.87767756334778));
#409=CARTESIAN_POINT('',(-1.99276700574432,-3.46827758631832,4.59870046868775));
#410=CARTESIAN_POINT('',(-3.3460626396019,-2.6869519878175,4.87740625442329));
#411=CARTESIAN_POINT('',(-4.00000000000006,-2.30940107675847,5.09538537455602));
#412=CARTESIAN_POINT('',(0.,-4.61880215351701,5.09538537455646));
#413=CARTESIAN_POINT('',(-4.,-2.3094010767585,5.09538537455646));
#414=CARTESIAN_POINT('',(-4.,-2.3094010767585,5.09538537455646));
#415=CARTESIAN_POINT('',(-4.,-1.55828886664677,4.87855795620665));
#416=CARTESIAN_POINT('',(-4.,0.0119812515008412,4.59787395653426));
#417=CARTESIAN_POINT('',(-4.,1.55698837006698,4.87818253518142));
#418=CARTESIAN_POINT('',(-4.,2.3094010767585,5.09538537455644));
#419=CARTESIAN_POINT('',(-4.,2.3094010767585,5.09538537455646));
#420=CARTESIAN_POINT('',(-4.00000000000011,2.30940107675844,5.09538537455559));
#421=CARTESIAN_POINT('',(-3.34687656637668,2.68648206697498,4.87767756334778));
#422=CARTESIAN_POINT('',(-2.00723299425568,3.4599256439572,4.59870046868776));
#423=CARTESIAN_POINT('',(-0.6539373603981,4.24125124245801,4.87740625442329));
#424=CARTESIAN_POINT('',(6.40483119342114E-14,4.61880215351704,5.09538537455602));
#425=CARTESIAN_POINT('',(0.,4.61880215351701,5.09538537455646));
#426=CARTESIAN_POINT('',(-1.07817555788121E-13,4.61880215351707,5.09538537455559));
#427=CARTESIAN_POINT('',(0.653123433623318,4.24172116330053,4.87767756334778));
#428=CARTESIAN_POINT('',(1.99276700574432,3.46827758631832,4.59870046868776));
#429=CARTESIAN_POINT('',(3.3460626396019,2.6869519878175,4.87740625442329));
#430=CARTESIAN_POINT('',(4.00000000000006,2.30940107675847,5.09538537455602));
#431=CARTESIAN_POINT('',(4.,2.3094010767585,5.09538537455646));
#432=CARTESIAN_POINT('',(4.,2.3094010767585,5.09538537455646));
#433=CARTESIAN_POINT('',(4.,1.55828886664677,4.87855795620665));
#434=CARTESIAN_POINT('',(4.,-0.0119812515008412,4.59787395653426));
#435=CARTESIAN_POINT('',(4.,-1.55698837006698,4.87818253518142));
#436=CARTESIAN_POINT('',(4.,-2.3094010767585,5.09538537455644));
#437=CARTESIAN_POINT('',(4.,-2.3094010767585,5.09538537455646));
#438=CARTESIAN_POINT('',(4.00000000000011,-2.30940107675844,5.09538537455559));
#439=CARTESIAN_POINT('',(3.34687656637668,-2.68648206697498,4.87767756334778));
#440=CARTESIAN_POINT('',(2.00723299425568,-3.45992564395719,4.59870046868776));
#441=CARTESIAN_POINT('',(0.6539373603981,-4.24125124245801,4.87740625442329));
#442=CARTESIAN_POINT('',(-6.40483119342114E-14,-4.61880215351704,5.09538537455602));
#443=CARTESIAN_POINT('',(0.,4.8,5.2));
#444=CARTESIAN_POINT('',(0.,0.,5.2));
#445=CARTESIAN_POINT('',(-10.8,0.,5.2));
#446=CARTESIAN_POINT('',(0.,0.,5.));
#447=CARTESIAN_POINT('',(0.,0.,5.));
#448=CARTESIAN_POINT('',(-11.,0.,5.));
#449=CARTESIAN_POINT('',(0.,0.,-9.8));
#450=CARTESIAN_POINT('',(0.,0.,1.73333333333333));
#451=CARTESIAN_POINT('',(-11.,0.,1.73333333333333));
#452=CARTESIAN_POINT('',(0.,11.,1.73333333333333));
#453=CARTESIAN_POINT('',(0.,0.,1.73333333333333));
#454=CARTESIAN_POINT('',(-9.9,0.,1.73333333333333));
#455=CARTESIAN_POINT('',(0.,0.,-9.8));
#456=CARTESIAN_POINT('',(0.,0.,1.58333333333333));
#457=CARTESIAN_POINT('',(-9.9,0.,1.58333333333333));
#458=CARTESIAN_POINT('',(0.,9.9,1.58333333333333));
#459=CARTESIAN_POINT('',(0.,0.,1.58333333333333));
#460=CARTESIAN_POINT('',(-11.,0.,1.58333333333333));
#461=CARTESIAN_POINT('',(0.,0.,-9.8));
#462=CARTESIAN_POINT('',(0.,0.,0.));
#463=CARTESIAN_POINT('',(-11.,0.,0.));
#464=CARTESIAN_POINT('',(0.,11.,1.0842021724855E-16));
#465=CARTESIAN_POINT('',(0.,0.,0.));
#466=CARTESIAN_POINT('',(-7.475,0.,0.));
#467=CARTESIAN_POINT('',(0.,0.,0.));
#468=CARTESIAN_POINT('',(0.,0.,-0.856000000000001));
#469=CARTESIAN_POINT('',(-8.331,0.,-0.856000000000001));
#470=CARTESIAN_POINT('',(0.,0.,-9.8));
#471=CARTESIAN_POINT('',(0.,0.,-8.944));
#472=CARTESIAN_POINT('',(-8.331,0.,-8.944));
#473=CARTESIAN_POINT('',(0.,0.,-8.944));
#474=CARTESIAN_POINT('',(0.,0.,-9.8));
#475=CARTESIAN_POINT('',(-7.475,0.,-9.8));
#476=CARTESIAN_POINT('',(0.,7.475,-9.8));
#477=CARTESIAN_POINT('',(-4.,2.3094010767585,0.));
#478=CARTESIAN_POINT('',(-4.,-2.3094010767585,0.));
#479=CARTESIAN_POINT('',(-4.,-2.3094010767585,0.));
#480=CARTESIAN_POINT('',(-4.,2.3094010767585,0.));
#481=CARTESIAN_POINT('',(-4.,2.3094010767585,0.));
#482=CARTESIAN_POINT('',(-4.,2.3094010767585,0.));
#483=CARTESIAN_POINT('',(-4.,-2.3094010767585,0.));
#484=CARTESIAN_POINT('',(0.,-4.61880215351701,0.));
#485=CARTESIAN_POINT('',(0.,-4.61880215351701,0.));
#486=CARTESIAN_POINT('',(-4.,-2.3094010767585,0.));
#487=CARTESIAN_POINT('',(0.,-4.61880215351701,0.));
#488=CARTESIAN_POINT('',(4.,-2.3094010767585,0.));
#489=CARTESIAN_POINT('',(4.,-2.3094010767585,0.));
#490=CARTESIAN_POINT('',(0.,-4.61880215351701,0.));
#491=CARTESIAN_POINT('',(4.,-2.3094010767585,0.));
#492=CARTESIAN_POINT('',(4.,2.3094010767585,0.));
#493=CARTESIAN_POINT('',(4.,2.3094010767585,0.));
#494=CARTESIAN_POINT('',(4.,-2.3094010767585,0.));
#495=CARTESIAN_POINT('',(4.,2.3094010767585,0.));
#496=CARTESIAN_POINT('',(0.,4.61880215351701,0.));
#497=CARTESIAN_POINT('',(0.,4.61880215351701,0.));
#498=CARTESIAN_POINT('',(4.,2.3094010767585,0.));
#499=CARTESIAN_POINT('',(0.,4.61880215351701,0.));
#500=CARTESIAN_POINT('',(0.,4.61880215351701,0.));
#501=CARTESIAN_POINT('',(0.,0.,0.));
#502=MECHANICAL_DESIGN_GEOMETRIC_PRESENTATION_REPRESENTATION('',(#281),
#503);
#503=(
GEOMETRIC_REPRESENTATION_CONTEXT(3)
GLOBAL_UNCERTAINTY_ASSIGNED_CONTEXT((#504))
GLOBAL_UNIT_ASSIGNED_CONTEXT((#507,#506,#505))
REPRESENTATION_CONTEXT('3570 B-3/8','TOP_LEVEL_ASSEMBLY_PART')
);
#504=UNCERTAINTY_MEASURE_WITH_UNIT(LENGTH_MEASURE(0.005),#507,
'DISTANCE_ACCURACY_VALUE','Maximum Tolerance applied to model');
#505=(
NAMED_UNIT(*)
SI_UNIT($,.STERADIAN.)
SOLID_ANGLE_UNIT()
);
#506=(
NAMED_UNIT(*)
PLANE_ANGLE_UNIT()
SI_UNIT($,.RADIAN.)
);
#507=(
LENGTH_UNIT()
NAMED_UNIT(*)
SI_UNIT(.MILLI.,.METRE.)
);
#508=PRODUCT_DEFINITION_SHAPE('','',#509);
#509=PRODUCT_DEFINITION('','',#511,#510);
#510=PRODUCT_DEFINITION_CONTEXT('',#517,'design');
#511=PRODUCT_DEFINITION_FORMATION_WITH_SPECIFIED_SOURCE('','',#513,
 .NOT_KNOWN.);
#512=PRODUCT_RELATED_PRODUCT_CATEGORY('','',(#513));
#513=PRODUCT('3570 B-3/8','3570 B-3/8','3570 B-3/8',(#515));
#514=PRODUCT_CATEGORY('','');
#515=PRODUCT_CONTEXT('',#517,'mechanical');
#516=APPLICATION_PROTOCOL_DEFINITION('international standard',
'automotive_design',2010,#517);
#517=APPLICATION_CONTEXT(
'core data for automotive mechanical design processes');
ENDSEC;
END-ISO-10303-21;
