ISO-10303-21;
HEADER;
/* Generated by software containing ST-Developer
 * from STEP Tools, Inc. (www.steptools.com) 
 */
/* OPTION: using custom renumber hook */

FILE_DESCRIPTION(
/* description */ ('STEP AP214'),
/* implementation_level */ '2;1');

FILE_NAME(
/* name */ '3572_B-3_4',
/* time_stamp */ '2024-07-24T03:06:53+02:00',
/* author */ ('License CC BY-ND 4.0'),
/* organization */ ('CADENAS'),
/* preprocessor_version */ 'ST-DEVELOPER v19.3',
/* originating_system */ 'PARTsolutions',
/* authorisation */ '  ');

FILE_SCHEMA (('AUTOMOTIVE_DESIGN {1 0 10303 214 3 1 1}'));
ENDSEC;

DATA;
#10=PROPERTY_DEFINITION_REPRESENTATION(#14,#12);
#11=PROPERTY_DEFINITION_REPRESENTATION(#15,#13);
#12=REPRESENTATION('',(#16),#505);
#13=REPRESENTATION('',(#17),#505);
#14=PROPERTY_DEFINITION('pmi validation property','',#510);
#15=PROPERTY_DEFINITION('pmi validation property','',#510);
#16=VALUE_REPRESENTATION_ITEM('number of annotations',COUNT_MEASURE(0.));
#17=VALUE_REPRESENTATION_ITEM('number of views',COUNT_MEASURE(0.));
#18=SHAPE_REPRESENTATION_RELATIONSHIP('','',#291,#19);
#19=ADVANCED_BREP_SHAPE_REPRESENTATION('',(#289),#505);
#20=LINE('',#480,#32);
#21=LINE('',#482,#33);
#22=LINE('',#484,#34);
#23=LINE('',#486,#35);
#24=LINE('',#488,#36);
#25=LINE('',#490,#37);
#26=LINE('',#492,#38);
#27=LINE('',#494,#39);
#28=LINE('',#496,#40);
#29=LINE('',#498,#41);
#30=LINE('',#500,#42);
#31=LINE('',#502,#43);
#32=VECTOR('',#379,1000.);
#33=VECTOR('',#380,1000.);
#34=VECTOR('',#381,1000.);
#35=VECTOR('',#384,1000.);
#36=VECTOR('',#385,1000.);
#37=VECTOR('',#388,1000.);
#38=VECTOR('',#389,1000.);
#39=VECTOR('',#392,1000.);
#40=VECTOR('',#393,1000.);
#41=VECTOR('',#396,1000.);
#42=VECTOR('',#397,1000.);
#43=VECTOR('',#400,1000.);
#44=CYLINDRICAL_SURFACE('',#299,16.);
#45=CYLINDRICAL_SURFACE('',#303,14.4);
#46=CYLINDRICAL_SURFACE('',#307,16.);
#47=CYLINDRICAL_SURFACE('',#313,13.2205);
#48=TOROIDAL_SURFACE('',#297,15.8,0.200000000000001);
#49=PLANE('',#295);
#50=PLANE('',#301);
#51=PLANE('',#305);
#52=PLANE('',#309);
#53=PLANE('',#317);
#54=PLANE('',#318);
#55=PLANE('',#319);
#56=PLANE('',#320);
#57=PLANE('',#321);
#58=PLANE('',#322);
#59=PLANE('',#323);
#60=PLANE('',#324);
#61=B_SPLINE_CURVE_WITH_KNOTS('',3,(#407,#408,#409,#410,#411),
 .UNSPECIFIED.,.F.,.F.,(4,1,4),(2.38073361361048E-7,0.00349879058850599,
0.00699734310365061),.UNSPECIFIED.);
#62=B_SPLINE_CURVE_WITH_KNOTS('',3,(#414,#415,#416,#417,#418,#419),
 .UNSPECIFIED.,.F.,.F.,(4,1,1,4),(0.00881698006656016,0.0105807696982999,
0.0123445593300397,0.0158721385935193),.UNSPECIFIED.);
#63=B_SPLINE_CURVE_WITH_KNOTS('',3,(#421,#422,#423,#424,#425),
 .UNSPECIFIED.,.F.,.F.,(4,1,4),(2.38073361361106E-7,0.00349879058850599,
0.00699734310365061),.UNSPECIFIED.);
#64=B_SPLINE_CURVE_WITH_KNOTS('',3,(#427,#428,#429,#430,#431),
 .UNSPECIFIED.,.F.,.F.,(4,1,4),(2.38073361360642E-7,0.00349879058850599,
0.00699734310365061),.UNSPECIFIED.);
#65=B_SPLINE_CURVE_WITH_KNOTS('',3,(#433,#434,#435,#436,#437,#438),
 .UNSPECIFIED.,.F.,.F.,(4,1,1,4),(0.00881698006656016,0.0105807696982999,
0.0123445593300397,0.0158721385935193),.UNSPECIFIED.);
#66=B_SPLINE_CURVE_WITH_KNOTS('',3,(#440,#441,#442,#443,#444),
 .UNSPECIFIED.,.F.,.F.,(4,1,4),(2.38073361361106E-7,0.00349879058850599,
0.00699734310365061),.UNSPECIFIED.);
#67=ORIENTED_EDGE('',*,*,#127,.F.);
#68=ORIENTED_EDGE('',*,*,#128,.T.);
#69=ORIENTED_EDGE('',*,*,#129,.T.);
#70=ORIENTED_EDGE('',*,*,#130,.T.);
#71=ORIENTED_EDGE('',*,*,#131,.T.);
#72=ORIENTED_EDGE('',*,*,#132,.T.);
#73=ORIENTED_EDGE('',*,*,#133,.T.);
#74=ORIENTED_EDGE('',*,*,#134,.F.);
#75=ORIENTED_EDGE('',*,*,#127,.T.);
#76=ORIENTED_EDGE('',*,*,#134,.T.);
#77=ORIENTED_EDGE('',*,*,#135,.F.);
#78=ORIENTED_EDGE('',*,*,#136,.F.);
#79=ORIENTED_EDGE('',*,*,#135,.T.);
#80=ORIENTED_EDGE('',*,*,#137,.F.);
#81=ORIENTED_EDGE('',*,*,#136,.T.);
#82=ORIENTED_EDGE('',*,*,#138,.F.);
#83=ORIENTED_EDGE('',*,*,#137,.T.);
#84=ORIENTED_EDGE('',*,*,#139,.F.);
#85=ORIENTED_EDGE('',*,*,#138,.T.);
#86=ORIENTED_EDGE('',*,*,#140,.F.);
#87=ORIENTED_EDGE('',*,*,#139,.T.);
#88=ORIENTED_EDGE('',*,*,#141,.F.);
#89=ORIENTED_EDGE('',*,*,#140,.T.);
#90=ORIENTED_EDGE('',*,*,#142,.F.);
#91=ORIENTED_EDGE('',*,*,#141,.T.);
#92=ORIENTED_EDGE('',*,*,#143,.F.);
#93=ORIENTED_EDGE('',*,*,#142,.T.);
#94=ORIENTED_EDGE('',*,*,#144,.F.);
#95=ORIENTED_EDGE('',*,*,#143,.T.);
#96=ORIENTED_EDGE('',*,*,#144,.T.);
#97=ORIENTED_EDGE('',*,*,#145,.F.);
#98=ORIENTED_EDGE('',*,*,#146,.F.);
#99=ORIENTED_EDGE('',*,*,#147,.T.);
#100=ORIENTED_EDGE('',*,*,#129,.F.);
#101=ORIENTED_EDGE('',*,*,#148,.F.);
#102=ORIENTED_EDGE('',*,*,#149,.F.);
#103=ORIENTED_EDGE('',*,*,#145,.T.);
#104=ORIENTED_EDGE('',*,*,#128,.F.);
#105=ORIENTED_EDGE('',*,*,#150,.F.);
#106=ORIENTED_EDGE('',*,*,#151,.F.);
#107=ORIENTED_EDGE('',*,*,#148,.T.);
#108=ORIENTED_EDGE('',*,*,#133,.F.);
#109=ORIENTED_EDGE('',*,*,#152,.F.);
#110=ORIENTED_EDGE('',*,*,#153,.F.);
#111=ORIENTED_EDGE('',*,*,#150,.T.);
#112=ORIENTED_EDGE('',*,*,#132,.F.);
#113=ORIENTED_EDGE('',*,*,#154,.F.);
#114=ORIENTED_EDGE('',*,*,#155,.F.);
#115=ORIENTED_EDGE('',*,*,#152,.T.);
#116=ORIENTED_EDGE('',*,*,#131,.F.);
#117=ORIENTED_EDGE('',*,*,#147,.F.);
#118=ORIENTED_EDGE('',*,*,#156,.F.);
#119=ORIENTED_EDGE('',*,*,#154,.T.);
#120=ORIENTED_EDGE('',*,*,#130,.F.);
#121=ORIENTED_EDGE('',*,*,#146,.T.);
#122=ORIENTED_EDGE('',*,*,#149,.T.);
#123=ORIENTED_EDGE('',*,*,#151,.T.);
#124=ORIENTED_EDGE('',*,*,#153,.T.);
#125=ORIENTED_EDGE('',*,*,#155,.T.);
#126=ORIENTED_EDGE('',*,*,#156,.T.);
#127=EDGE_CURVE('',#157,#157,#181,.T.);
#128=EDGE_CURVE('',#158,#159,#61,.T.);
#129=EDGE_CURVE('',#159,#160,#62,.T.);
#130=EDGE_CURVE('',#160,#161,#63,.T.);
#131=EDGE_CURVE('',#161,#162,#64,.T.);
#132=EDGE_CURVE('',#162,#163,#65,.T.);
#133=EDGE_CURVE('',#163,#158,#66,.T.);
#134=EDGE_CURVE('',#164,#164,#182,.T.);
#135=EDGE_CURVE('',#165,#165,#183,.T.);
#136=EDGE_CURVE('',#166,#166,#184,.T.);
#137=EDGE_CURVE('',#167,#167,#185,.T.);
#138=EDGE_CURVE('',#168,#168,#186,.T.);
#139=EDGE_CURVE('',#169,#169,#187,.T.);
#140=EDGE_CURVE('',#170,#170,#188,.T.);
#141=EDGE_CURVE('',#171,#171,#189,.T.);
#142=EDGE_CURVE('',#172,#172,#190,.T.);
#143=EDGE_CURVE('',#173,#173,#191,.T.);
#144=EDGE_CURVE('',#174,#174,#192,.T.);
#145=EDGE_CURVE('',#175,#159,#20,.T.);
#146=EDGE_CURVE('',#176,#175,#21,.T.);
#147=EDGE_CURVE('',#176,#160,#22,.T.);
#148=EDGE_CURVE('',#177,#158,#23,.T.);
#149=EDGE_CURVE('',#175,#177,#24,.T.);
#150=EDGE_CURVE('',#178,#163,#25,.T.);
#151=EDGE_CURVE('',#177,#178,#26,.T.);
#152=EDGE_CURVE('',#179,#162,#27,.T.);
#153=EDGE_CURVE('',#178,#179,#28,.T.);
#154=EDGE_CURVE('',#180,#161,#29,.T.);
#155=EDGE_CURVE('',#179,#180,#30,.T.);
#156=EDGE_CURVE('',#180,#176,#31,.T.);
#157=VERTEX_POINT('',#406);
#158=VERTEX_POINT('',#412);
#159=VERTEX_POINT('',#413);
#160=VERTEX_POINT('',#420);
#161=VERTEX_POINT('',#426);
#162=VERTEX_POINT('',#432);
#163=VERTEX_POINT('',#439);
#164=VERTEX_POINT('',#447);
#165=VERTEX_POINT('',#450);
#166=VERTEX_POINT('',#453);
#167=VERTEX_POINT('',#456);
#168=VERTEX_POINT('',#459);
#169=VERTEX_POINT('',#462);
#170=VERTEX_POINT('',#465);
#171=VERTEX_POINT('',#468);
#172=VERTEX_POINT('',#471);
#173=VERTEX_POINT('',#474);
#174=VERTEX_POINT('',#477);
#175=VERTEX_POINT('',#481);
#176=VERTEX_POINT('',#483);
#177=VERTEX_POINT('',#487);
#178=VERTEX_POINT('',#491);
#179=VERTEX_POINT('',#495);
#180=VERTEX_POINT('',#499);
#181=CIRCLE('',#294,7.2);
#182=CIRCLE('',#296,15.8);
#183=CIRCLE('',#298,16.);
#184=CIRCLE('',#300,16.);
#185=CIRCLE('',#302,14.4);
#186=CIRCLE('',#304,14.4);
#187=CIRCLE('',#306,16.);
#188=CIRCLE('',#308,16.);
#189=CIRCLE('',#310,12.0585);
#190=CIRCLE('',#312,13.2205);
#191=CIRCLE('',#314,13.2205);
#192=CIRCLE('',#316,12.0585);
#193=EDGE_LOOP('',(#67));
#194=EDGE_LOOP('',(#68,#69,#70,#71,#72,#73));
#195=EDGE_LOOP('',(#74));
#196=EDGE_LOOP('',(#75));
#197=EDGE_LOOP('',(#76));
#198=EDGE_LOOP('',(#77));
#199=EDGE_LOOP('',(#78));
#200=EDGE_LOOP('',(#79));
#201=EDGE_LOOP('',(#80));
#202=EDGE_LOOP('',(#81));
#203=EDGE_LOOP('',(#82));
#204=EDGE_LOOP('',(#83));
#205=EDGE_LOOP('',(#84));
#206=EDGE_LOOP('',(#85));
#207=EDGE_LOOP('',(#86));
#208=EDGE_LOOP('',(#87));
#209=EDGE_LOOP('',(#88));
#210=EDGE_LOOP('',(#89));
#211=EDGE_LOOP('',(#90));
#212=EDGE_LOOP('',(#91));
#213=EDGE_LOOP('',(#92));
#214=EDGE_LOOP('',(#93));
#215=EDGE_LOOP('',(#94));
#216=EDGE_LOOP('',(#95));
#217=EDGE_LOOP('',(#96));
#218=EDGE_LOOP('',(#97,#98,#99,#100));
#219=EDGE_LOOP('',(#101,#102,#103,#104));
#220=EDGE_LOOP('',(#105,#106,#107,#108));
#221=EDGE_LOOP('',(#109,#110,#111,#112));
#222=EDGE_LOOP('',(#113,#114,#115,#116));
#223=EDGE_LOOP('',(#117,#118,#119,#120));
#224=EDGE_LOOP('',(#121,#122,#123,#124,#125,#126));
#225=FACE_BOUND('',#193,.T.);
#226=FACE_BOUND('',#194,.T.);
#227=FACE_BOUND('',#195,.T.);
#228=FACE_BOUND('',#196,.T.);
#229=FACE_BOUND('',#197,.T.);
#230=FACE_BOUND('',#198,.T.);
#231=FACE_BOUND('',#199,.T.);
#232=FACE_BOUND('',#200,.T.);
#233=FACE_BOUND('',#201,.T.);
#234=FACE_BOUND('',#202,.T.);
#235=FACE_BOUND('',#203,.T.);
#236=FACE_BOUND('',#204,.T.);
#237=FACE_BOUND('',#205,.T.);
#238=FACE_BOUND('',#206,.T.);
#239=FACE_BOUND('',#207,.T.);
#240=FACE_BOUND('',#208,.T.);
#241=FACE_BOUND('',#209,.T.);
#242=FACE_BOUND('',#210,.T.);
#243=FACE_BOUND('',#211,.T.);
#244=FACE_BOUND('',#212,.T.);
#245=FACE_BOUND('',#213,.T.);
#246=FACE_BOUND('',#214,.T.);
#247=FACE_BOUND('',#215,.T.);
#248=FACE_BOUND('',#216,.T.);
#249=FACE_BOUND('',#217,.T.);
#250=FACE_BOUND('',#218,.T.);
#251=FACE_BOUND('',#219,.T.);
#252=FACE_BOUND('',#220,.T.);
#253=FACE_BOUND('',#221,.T.);
#254=FACE_BOUND('',#222,.T.);
#255=FACE_BOUND('',#223,.T.);
#256=FACE_BOUND('',#224,.T.);
#257=CONICAL_SURFACE('',#293,4.33680868994202E-16,1.0471975511966);
#258=CONICAL_SURFACE('',#311,12.0585,0.785398163397448);
#259=CONICAL_SURFACE('',#315,13.2205,0.785398163397448);
#260=ADVANCED_FACE('',(#225,#226),#257,.F.);
#261=ADVANCED_FACE('',(#227,#228),#49,.F.);
#262=ADVANCED_FACE('',(#229,#230),#48,.T.);
#263=ADVANCED_FACE('',(#231,#232),#44,.T.);
#264=ADVANCED_FACE('',(#233,#234),#50,.F.);
#265=ADVANCED_FACE('',(#235,#236),#45,.T.);
#266=ADVANCED_FACE('',(#237,#238),#51,.F.);
#267=ADVANCED_FACE('',(#239,#240),#46,.T.);
#268=ADVANCED_FACE('',(#241,#242),#52,.F.);
#269=ADVANCED_FACE('',(#243,#244),#258,.T.);
#270=ADVANCED_FACE('',(#245,#246),#47,.T.);
#271=ADVANCED_FACE('',(#247,#248),#259,.T.);
#272=ADVANCED_FACE('',(#249),#53,.F.);
#273=ADVANCED_FACE('',(#250),#54,.F.);
#274=ADVANCED_FACE('',(#251),#55,.F.);
#275=ADVANCED_FACE('',(#252),#56,.F.);
#276=ADVANCED_FACE('',(#253),#57,.F.);
#277=ADVANCED_FACE('',(#254),#58,.F.);
#278=ADVANCED_FACE('',(#255),#59,.F.);
#279=ADVANCED_FACE('',(#256),#60,.T.);
#280=CLOSED_SHELL('',(#260,#261,#262,#263,#264,#265,#266,#267,#268,#269,
#270,#271,#272,#273,#274,#275,#276,#277,#278,#279));
#281=STYLED_ITEM('',(#282),#289);
#282=PRESENTATION_STYLE_ASSIGNMENT((#283));
#283=SURFACE_STYLE_USAGE(.BOTH.,#284);
#284=SURFACE_SIDE_STYLE('',(#285));
#285=SURFACE_STYLE_FILL_AREA(#286);
#286=FILL_AREA_STYLE('',(#287));
#287=FILL_AREA_STYLE_COLOUR('',#288);
#288=COLOUR_RGB('',0.689999997615814,0.689999997615814,0.689999997615814);
#289=MANIFOLD_SOLID_BREP('3572 B-3/4',#280);
#290=SHAPE_DEFINITION_REPRESENTATION(#510,#291);
#291=SHAPE_REPRESENTATION('3572 B-3/4',(#292),#505);
#292=AXIS2_PLACEMENT_3D('',#403,#325,#326);
#293=AXIS2_PLACEMENT_3D('',#404,#327,#328);
#294=AXIS2_PLACEMENT_3D('',#405,#329,#330);
#295=AXIS2_PLACEMENT_3D('',#445,#331,#332);
#296=AXIS2_PLACEMENT_3D('',#446,#333,#334);
#297=AXIS2_PLACEMENT_3D('',#448,#335,#336);
#298=AXIS2_PLACEMENT_3D('',#449,#337,#338);
#299=AXIS2_PLACEMENT_3D('',#451,#339,#340);
#300=AXIS2_PLACEMENT_3D('',#452,#341,#342);
#301=AXIS2_PLACEMENT_3D('',#454,#343,#344);
#302=AXIS2_PLACEMENT_3D('',#455,#345,#346);
#303=AXIS2_PLACEMENT_3D('',#457,#347,#348);
#304=AXIS2_PLACEMENT_3D('',#458,#349,#350);
#305=AXIS2_PLACEMENT_3D('',#460,#351,#352);
#306=AXIS2_PLACEMENT_3D('',#461,#353,#354);
#307=AXIS2_PLACEMENT_3D('',#463,#355,#356);
#308=AXIS2_PLACEMENT_3D('',#464,#357,#358);
#309=AXIS2_PLACEMENT_3D('',#466,#359,#360);
#310=AXIS2_PLACEMENT_3D('',#467,#361,#362);
#311=AXIS2_PLACEMENT_3D('',#469,#363,#364);
#312=AXIS2_PLACEMENT_3D('',#470,#365,#366);
#313=AXIS2_PLACEMENT_3D('',#472,#367,#368);
#314=AXIS2_PLACEMENT_3D('',#473,#369,#370);
#315=AXIS2_PLACEMENT_3D('',#475,#371,#372);
#316=AXIS2_PLACEMENT_3D('',#476,#373,#374);
#317=AXIS2_PLACEMENT_3D('',#478,#375,#376);
#318=AXIS2_PLACEMENT_3D('',#479,#377,#378);
#319=AXIS2_PLACEMENT_3D('',#485,#382,#383);
#320=AXIS2_PLACEMENT_3D('',#489,#386,#387);
#321=AXIS2_PLACEMENT_3D('',#493,#390,#391);
#322=AXIS2_PLACEMENT_3D('',#497,#394,#395);
#323=AXIS2_PLACEMENT_3D('',#501,#398,#399);
#324=AXIS2_PLACEMENT_3D('',#503,#401,#402);
#325=DIRECTION('',(0.,0.,1.));
#326=DIRECTION('',(1.,0.,0.));
#327=DIRECTION('',(0.,-5.6060976044782E-17,1.));
#328=DIRECTION('',(0.,-1.,-5.6060976044782E-17));
#329=DIRECTION('',(0.,5.6060976044782E-17,-1.));
#330=DIRECTION('',(0.,1.,5.6060976044782E-17));
#331=DIRECTION('',(0.,5.6060976044782E-17,-1.));
#332=DIRECTION('',(0.,1.,5.6060976044782E-17));
#333=DIRECTION('',(0.,5.6060976044782E-17,-1.));
#334=DIRECTION('',(0.,1.,5.6060976044782E-17));
#335=DIRECTION('',(0.,5.6060976044782E-17,-1.));
#336=DIRECTION('',(0.,1.,5.6060976044782E-17));
#337=DIRECTION('',(0.,5.6060976044782E-17,-1.));
#338=DIRECTION('',(0.,1.,5.6060976044782E-17));
#339=DIRECTION('',(0.,5.6060976044782E-17,-1.));
#340=DIRECTION('',(0.,1.,5.6060976044782E-17));
#341=DIRECTION('',(0.,5.6060976044782E-17,-1.));
#342=DIRECTION('',(0.,1.,5.6060976044782E-17));
#343=DIRECTION('',(0.,-5.6060976044782E-17,1.));
#344=DIRECTION('',(0.,-1.,-5.6060976044782E-17));
#345=DIRECTION('',(0.,5.6060976044782E-17,-1.));
#346=DIRECTION('',(0.,1.,5.6060976044782E-17));
#347=DIRECTION('',(0.,5.6060976044782E-17,-1.));
#348=DIRECTION('',(0.,1.,5.6060976044782E-17));
#349=DIRECTION('',(0.,5.6060976044782E-17,-1.));
#350=DIRECTION('',(0.,1.,5.6060976044782E-17));
#351=DIRECTION('',(0.,5.6060976044782E-17,-1.));
#352=DIRECTION('',(0.,1.,5.6060976044782E-17));
#353=DIRECTION('',(0.,5.6060976044782E-17,-1.));
#354=DIRECTION('',(0.,1.,5.6060976044782E-17));
#355=DIRECTION('',(0.,5.6060976044782E-17,-1.));
#356=DIRECTION('',(0.,1.,5.6060976044782E-17));
#357=DIRECTION('',(0.,5.6060976044782E-17,-1.));
#358=DIRECTION('',(0.,1.,5.6060976044782E-17));
#359=DIRECTION('',(0.,-5.6060976044782E-17,1.));
#360=DIRECTION('',(0.,-1.,-5.6060976044782E-17));
#361=DIRECTION('',(0.,5.6060976044782E-17,-1.));
#362=DIRECTION('',(0.,1.,5.6060976044782E-17));
#363=DIRECTION('',(0.,5.6060976044782E-17,-1.));
#364=DIRECTION('',(0.,1.,5.6060976044782E-17));
#365=DIRECTION('',(0.,5.6060976044782E-17,-1.));
#366=DIRECTION('',(0.,1.,5.6060976044782E-17));
#367=DIRECTION('',(0.,5.6060976044782E-17,-1.));
#368=DIRECTION('',(0.,1.,5.6060976044782E-17));
#369=DIRECTION('',(0.,5.6060976044782E-17,-1.));
#370=DIRECTION('',(0.,1.,5.6060976044782E-17));
#371=DIRECTION('',(0.,-5.6060976044782E-17,1.));
#372=DIRECTION('',(0.,-1.,-5.6060976044782E-17));
#373=DIRECTION('',(0.,5.6060976044782E-17,-1.));
#374=DIRECTION('',(0.,1.,5.6060976044782E-17));
#375=DIRECTION('',(0.,-5.6060976044782E-17,1.));
#376=DIRECTION('',(0.,-1.,-5.6060976044782E-17));
#377=DIRECTION('',(-1.,0.,0.));
#378=DIRECTION('',(0.,0.,1.));
#379=DIRECTION('',(0.,0.,1.));
#380=DIRECTION('',(0.,-1.,0.));
#381=DIRECTION('',(0.,0.,1.));
#382=DIRECTION('',(-0.5,-0.866025403784439,0.));
#383=DIRECTION('',(0.866025403784439,-0.5,0.));
#384=DIRECTION('',(0.,0.,1.));
#385=DIRECTION('',(0.866025403784439,-0.5,0.));
#386=DIRECTION('',(0.5,-0.866025403784439,0.));
#387=DIRECTION('',(0.866025403784439,0.5,0.));
#388=DIRECTION('',(0.,0.,1.));
#389=DIRECTION('',(0.866025403784439,0.5,0.));
#390=DIRECTION('',(1.,0.,0.));
#391=DIRECTION('',(0.,0.,-1.));
#392=DIRECTION('',(0.,0.,1.));
#393=DIRECTION('',(0.,1.,0.));
#394=DIRECTION('',(0.5,0.866025403784439,0.));
#395=DIRECTION('',(-0.866025403784439,0.5,0.));
#396=DIRECTION('',(0.,0.,1.));
#397=DIRECTION('',(-0.866025403784439,0.5,0.));
#398=DIRECTION('',(-0.5,0.866025403784439,0.));
#399=DIRECTION('',(-0.866025403784439,-0.5,0.));
#400=DIRECTION('',(-0.866025403784439,-0.5,0.));
#401=DIRECTION('',(0.,0.,1.));
#402=DIRECTION('',(1.,0.,0.));
#403=CARTESIAN_POINT('',(0.,0.,0.));
#404=CARTESIAN_POINT('',(0.,-8.88178419700125E-16,2.79307806183469));
#405=CARTESIAN_POINT('',(0.,-1.12121952089564E-15,6.95));
#406=CARTESIAN_POINT('',(0.,7.2,6.95));
#407=CARTESIAN_POINT('',(7.20081907322898E-14,-6.92820323027555,6.79307806183412));
#408=CARTESIAN_POINT('',(-0.979685695128214,-6.36258143047201,6.46651616345801));
#409=CARTESIAN_POINT('',(-2.98914742623381,-5.20241815909194,6.04805092016806));
#410=CARTESIAN_POINT('',(-5.01909321531196,-4.03042841132733,6.46610913360503));
#411=CARTESIAN_POINT('',(-6.00000000000004,-3.46410161513773,6.7930780618344));
#412=CARTESIAN_POINT('',(0.,-6.92820323027551,6.79307806183469));
#413=CARTESIAN_POINT('',(-6.,-3.46410161513775,6.79307806183469));
#414=CARTESIAN_POINT('',(-6.,-3.46410161513776,6.79307806183469));
#415=CARTESIAN_POINT('',(-6.,-2.90076743685651,6.6304574920975));
#416=CARTESIAN_POINT('',(-6.,-1.76613220211714,6.36038234876291));
#417=CARTESIAN_POINT('',(-6.,0.607878365706662,6.15324549542065));
#418=CARTESIAN_POINT('',(-6.,2.33548267170789,6.46727383643382));
#419=CARTESIAN_POINT('',(-6.,3.46410161513776,6.7930780618347));
#420=CARTESIAN_POINT('',(-6.,3.46410161513775,6.79307806183469));
#421=CARTESIAN_POINT('',(-6.00000000000007,3.46410161513771,6.79307806183412));
#422=CARTESIAN_POINT('',(-5.02031430487179,4.02972341494125,6.46651616345801));
#423=CARTESIAN_POINT('',(-3.0108525737662,5.18988668632132,6.04805092016806));
#424=CARTESIAN_POINT('',(-0.980906784688039,6.36187643408594,6.46610913360504));
#425=CARTESIAN_POINT('',(4.28939246384282E-14,6.92820323027553,6.7930780618344));
#426=CARTESIAN_POINT('',(0.,6.92820323027551,6.79307806183469));
#427=CARTESIAN_POINT('',(-7.24934570658247E-14,6.92820323027555,6.79307806183411));
#428=CARTESIAN_POINT('',(0.979685695128214,6.36258143047201,6.46651616345801));
#429=CARTESIAN_POINT('',(2.9891474262338,5.20241815909195,6.04805092016805));
#430=CARTESIAN_POINT('',(5.01909321531196,4.03042841132732,6.46610913360504));
#431=CARTESIAN_POINT('',(6.00000000000004,3.46410161513773,6.7930780618344));
#432=CARTESIAN_POINT('',(6.,3.46410161513775,6.79307806183469));
#433=CARTESIAN_POINT('',(6.,3.46410161513775,6.79307806183469));
#434=CARTESIAN_POINT('',(6.,2.90076743685651,6.6304574920975));
#435=CARTESIAN_POINT('',(6.,1.76613220211714,6.36038234876291));
#436=CARTESIAN_POINT('',(6.,-0.607878365706661,6.15324549542065));
#437=CARTESIAN_POINT('',(6.,-2.33548267170789,6.46727383643382));
#438=CARTESIAN_POINT('',(6.,-3.46410161513776,6.7930780618347));
#439=CARTESIAN_POINT('',(6.,-3.46410161513775,6.79307806183469));
#440=CARTESIAN_POINT('',(6.00000000000007,-3.46410161513771,6.79307806183411));
#441=CARTESIAN_POINT('',(5.02031430487179,-4.02972341494125,6.46651616345801));
#442=CARTESIAN_POINT('',(3.0108525737662,-5.18988668632132,6.04805092016806));
#443=CARTESIAN_POINT('',(0.980906784688041,-6.36187643408594,6.46610913360504));
#444=CARTESIAN_POINT('',(-4.17591647733132E-14,-6.92820323027553,6.7930780618344));
#445=CARTESIAN_POINT('',(0.,7.2,6.95));
#446=CARTESIAN_POINT('',(0.,-1.12121952089564E-15,6.95));
#447=CARTESIAN_POINT('',(0.,15.8,6.95));
#448=CARTESIAN_POINT('',(0.,0.,6.75));
#449=CARTESIAN_POINT('',(0.,-1.11000732568668E-15,6.75));
#450=CARTESIAN_POINT('',(0.,16.,6.75));
#451=CARTESIAN_POINT('',(0.,0.,-13.05));
#452=CARTESIAN_POINT('',(0.,-8.61470331888149E-16,2.31666666666666));
#453=CARTESIAN_POINT('',(0.,16.,2.31666666666667));
#454=CARTESIAN_POINT('',(0.,16.,2.31666666666667));
#455=CARTESIAN_POINT('',(0.,-8.61470331888149E-16,2.31666666666667));
#456=CARTESIAN_POINT('',(0.,14.4,2.31666666666667));
#457=CARTESIAN_POINT('',(0.,0.,-13.05));
#458=CARTESIAN_POINT('',(0.,-8.53061185481432E-16,2.16666666666667));
#459=CARTESIAN_POINT('',(0.,14.4,2.16666666666667));
#460=CARTESIAN_POINT('',(0.,14.4,2.16666666666667));
#461=CARTESIAN_POINT('',(0.,-8.53061185481432E-16,2.16666666666667));
#462=CARTESIAN_POINT('',(0.,16.,2.16666666666667));
#463=CARTESIAN_POINT('',(0.,0.,-13.05));
#464=CARTESIAN_POINT('',(0.,-7.31595737384404E-16,-1.73472347597681E-15));
#465=CARTESIAN_POINT('',(0.,16.,-8.37747859260296E-16));
#466=CARTESIAN_POINT('',(0.,16.,1.10482168540254E-16));
#467=CARTESIAN_POINT('',(0.,-7.31595737384405E-16,0.));
#468=CARTESIAN_POINT('',(0.,12.0585,6.76011279636003E-16));
#469=CARTESIAN_POINT('',(0.,-7.31595737384405E-16,0.));
#470=CARTESIAN_POINT('',(0.,-6.66452883220368E-16,-1.162));
#471=CARTESIAN_POINT('',(0.,13.2205,-1.162));
#472=CARTESIAN_POINT('',(0.,0.,-13.05));
#473=CARTESIAN_POINT('',(0.,-6.51428541640365E-17,-11.888));
#474=CARTESIAN_POINT('',(0.,13.2205,-11.888));
#475=CARTESIAN_POINT('',(0.,-6.51428541640365E-17,-11.888));
#476=CARTESIAN_POINT('',(0.,3.78978521536764E-32,-13.05));
#477=CARTESIAN_POINT('',(0.,12.0585,-13.05));
#478=CARTESIAN_POINT('',(0.,12.0585,-13.05));
#479=CARTESIAN_POINT('',(-6.,3.46410161513775,0.));
#480=CARTESIAN_POINT('',(-6.,-3.46410161513775,0.));
#481=CARTESIAN_POINT('',(-6.,-3.46410161513775,0.));
#482=CARTESIAN_POINT('',(-6.,3.46410161513775,0.));
#483=CARTESIAN_POINT('',(-6.,3.46410161513775,0.));
#484=CARTESIAN_POINT('',(-6.,3.46410161513775,0.));
#485=CARTESIAN_POINT('',(-6.,-3.46410161513775,0.));
#486=CARTESIAN_POINT('',(0.,-6.92820323027551,0.));
#487=CARTESIAN_POINT('',(0.,-6.92820323027551,0.));
#488=CARTESIAN_POINT('',(-6.,-3.46410161513775,0.));
#489=CARTESIAN_POINT('',(0.,-6.92820323027551,0.));
#490=CARTESIAN_POINT('',(6.,-3.46410161513775,0.));
#491=CARTESIAN_POINT('',(6.,-3.46410161513775,0.));
#492=CARTESIAN_POINT('',(0.,-6.92820323027551,0.));
#493=CARTESIAN_POINT('',(6.,-3.46410161513775,0.));
#494=CARTESIAN_POINT('',(6.,3.46410161513775,0.));
#495=CARTESIAN_POINT('',(6.,3.46410161513775,0.));
#496=CARTESIAN_POINT('',(6.,-3.46410161513775,0.));
#497=CARTESIAN_POINT('',(6.,3.46410161513775,0.));
#498=CARTESIAN_POINT('',(0.,6.92820323027551,0.));
#499=CARTESIAN_POINT('',(0.,6.92820323027551,0.));
#500=CARTESIAN_POINT('',(6.,3.46410161513775,0.));
#501=CARTESIAN_POINT('',(0.,6.92820323027551,0.));
#502=CARTESIAN_POINT('',(0.,6.92820323027551,0.));
#503=CARTESIAN_POINT('',(0.,0.,0.));
#504=MECHANICAL_DESIGN_GEOMETRIC_PRESENTATION_REPRESENTATION('',(#281),
#505);
#505=(
GEOMETRIC_REPRESENTATION_CONTEXT(3)
GLOBAL_UNCERTAINTY_ASSIGNED_CONTEXT((#506))
GLOBAL_UNIT_ASSIGNED_CONTEXT((#509,#508,#507))
REPRESENTATION_CONTEXT('3572 B-3/4','TOP_LEVEL_ASSEMBLY_PART')
);
#506=UNCERTAINTY_MEASURE_WITH_UNIT(LENGTH_MEASURE(0.005),#509,
'DISTANCE_ACCURACY_VALUE','Maximum Tolerance applied to model');
#507=(
NAMED_UNIT(*)
SI_UNIT($,.STERADIAN.)
SOLID_ANGLE_UNIT()
);
#508=(
NAMED_UNIT(*)
PLANE_ANGLE_UNIT()
SI_UNIT($,.RADIAN.)
);
#509=(
LENGTH_UNIT()
NAMED_UNIT(*)
SI_UNIT(.MILLI.,.METRE.)
);
#510=PRODUCT_DEFINITION_SHAPE('','',#511);
#511=PRODUCT_DEFINITION('','',#513,#512);
#512=PRODUCT_DEFINITION_CONTEXT('',#519,'design');
#513=PRODUCT_DEFINITION_FORMATION_WITH_SPECIFIED_SOURCE('','',#515,
 .NOT_KNOWN.);
#514=PRODUCT_RELATED_PRODUCT_CATEGORY('','',(#515));
#515=PRODUCT('3572 B-3/4','3572 B-3/4','3572 B-3/4',(#517));
#516=PRODUCT_CATEGORY('','');
#517=PRODUCT_CONTEXT('',#519,'mechanical');
#518=APPLICATION_PROTOCOL_DEFINITION('international standard',
'automotive_design',2010,#519);
#519=APPLICATION_CONTEXT(
'core data for automotive mechanical design processes');
ENDSEC;
END-ISO-10303-21;
