ISO-10303-21;
HEADER;
/* Generated by software containing ST-Developer
 * from STEP Tools, Inc. (www.steptools.com) 
 */
/* OPTION: using custom renumber hook */

FILE_DESCRIPTION(
/* description */ ('STEP AP214'),
/* implementation_level */ '2;1');

FILE_NAME(
/* name */ '36123_KSZ-M6',
/* time_stamp */ '2024-08-22T15:23:17+02:00',
/* author */ ('License CC BY-ND 4.0'),
/* organization */ ('CADENAS'),
/* preprocessor_version */ 'ST-DEVELOPER v19.3',
/* originating_system */ 'PARTsolutions',
/* authorisation */ '  ');

FILE_SCHEMA (('AUTOMOTIVE_DESIGN {1 0 10303 214 3 1 1}'));
ENDSEC;

DATA;
#10=PROPERTY_DEFINITION_REPRESENTATION(#14,#12);
#11=PROPERTY_DEFINITION_REPRESENTATION(#15,#13);
#12=REPRESENTATION('',(#16),#621);
#13=REPRESENTATION('',(#17),#621);
#14=PROPERTY_DEFINITION('pmi validation property','',#626);
#15=PROPERTY_DEFINITION('pmi validation property','',#626);
#16=VALUE_REPRESENTATION_ITEM('number of annotations',COUNT_MEASURE(0.));
#17=VALUE_REPRESENTATION_ITEM('number of views',COUNT_MEASURE(0.));
#18=SHAPE_REPRESENTATION_RELATIONSHIP('','',#375,#19);
#19=ADVANCED_BREP_SHAPE_REPRESENTATION('',(#373),#621);
#20=CONICAL_SURFACE('',#412,3.,0.785398163397448);
#21=CONICAL_SURFACE('',#416,2.4585,0.785398163397448);
#22=CYLINDRICAL_SURFACE('',#381,6.);
#23=CYLINDRICAL_SURFACE('',#388,2.75);
#24=CYLINDRICAL_SURFACE('',#391,2.75);
#25=CYLINDRICAL_SURFACE('',#394,2.75);
#26=CYLINDRICAL_SURFACE('',#397,2.75);
#27=CYLINDRICAL_SURFACE('',#407,9.);
#28=CYLINDRICAL_SURFACE('',#414,2.4585);
#29=CYLINDRICAL_SURFACE('',#418,4.);
#30=LINE('',#530,#50);
#31=LINE('',#534,#51);
#32=LINE('',#540,#52);
#33=LINE('',#542,#53);
#34=LINE('',#546,#54);
#35=LINE('',#547,#55);
#36=LINE('',#551,#56);
#37=LINE('',#554,#57);
#38=LINE('',#556,#58);
#39=LINE('',#558,#59);
#40=LINE('',#560,#60);
#41=LINE('',#562,#61);
#42=LINE('',#564,#62);
#43=LINE('',#566,#63);
#44=LINE('',#568,#64);
#45=LINE('',#570,#65);
#46=LINE('',#592,#66);
#47=LINE('',#593,#67);
#48=LINE('',#605,#68);
#49=LINE('',#608,#69);
#50=VECTOR('',#425,1000.);
#51=VECTOR('',#428,1000.);
#52=VECTOR('',#435,1000.);
#53=VECTOR('',#436,1000.);
#54=VECTOR('',#439,1000.);
#55=VECTOR('',#440,1000.);
#56=VECTOR('',#445,1000.);
#57=VECTOR('',#446,1000.);
#58=VECTOR('',#447,1000.);
#59=VECTOR('',#448,1000.);
#60=VECTOR('',#451,1000.);
#61=VECTOR('',#452,1000.);
#62=VECTOR('',#453,1000.);
#63=VECTOR('',#456,1000.);
#64=VECTOR('',#457,1000.);
#65=VECTOR('',#458,1000.);
#66=VECTOR('',#485,1000.);
#67=VECTOR('',#486,1000.);
#68=VECTOR('',#503,1000.);
#69=VECTOR('',#508,1000.);
#70=ORIENTED_EDGE('',*,*,#150,.F.);
#71=ORIENTED_EDGE('',*,*,#151,.F.);
#72=ORIENTED_EDGE('',*,*,#152,.F.);
#73=ORIENTED_EDGE('',*,*,#153,.F.);
#74=ORIENTED_EDGE('',*,*,#154,.T.);
#75=ORIENTED_EDGE('',*,*,#155,.F.);
#76=ORIENTED_EDGE('',*,*,#156,.F.);
#77=ORIENTED_EDGE('',*,*,#150,.T.);
#78=ORIENTED_EDGE('',*,*,#157,.F.);
#79=ORIENTED_EDGE('',*,*,#158,.F.);
#80=ORIENTED_EDGE('',*,*,#159,.F.);
#81=ORIENTED_EDGE('',*,*,#152,.T.);
#82=ORIENTED_EDGE('',*,*,#160,.F.);
#83=ORIENTED_EDGE('',*,*,#161,.F.);
#84=ORIENTED_EDGE('',*,*,#162,.T.);
#85=ORIENTED_EDGE('',*,*,#163,.F.);
#86=ORIENTED_EDGE('',*,*,#164,.F.);
#87=ORIENTED_EDGE('',*,*,#165,.T.);
#88=ORIENTED_EDGE('',*,*,#166,.T.);
#89=ORIENTED_EDGE('',*,*,#167,.F.);
#90=ORIENTED_EDGE('',*,*,#168,.F.);
#91=ORIENTED_EDGE('',*,*,#163,.T.);
#92=ORIENTED_EDGE('',*,*,#169,.T.);
#93=ORIENTED_EDGE('',*,*,#170,.F.);
#94=ORIENTED_EDGE('',*,*,#171,.F.);
#95=ORIENTED_EDGE('',*,*,#167,.T.);
#96=ORIENTED_EDGE('',*,*,#172,.T.);
#97=ORIENTED_EDGE('',*,*,#173,.F.);
#98=ORIENTED_EDGE('',*,*,#174,.T.);
#99=ORIENTED_EDGE('',*,*,#175,.F.);
#100=ORIENTED_EDGE('',*,*,#176,.T.);
#101=ORIENTED_EDGE('',*,*,#177,.F.);
#102=ORIENTED_EDGE('',*,*,#178,.T.);
#103=ORIENTED_EDGE('',*,*,#179,.F.);
#104=ORIENTED_EDGE('',*,*,#180,.T.);
#105=ORIENTED_EDGE('',*,*,#165,.F.);
#106=ORIENTED_EDGE('',*,*,#181,.F.);
#107=ORIENTED_EDGE('',*,*,#170,.T.);
#108=ORIENTED_EDGE('',*,*,#155,.T.);
#109=ORIENTED_EDGE('',*,*,#178,.F.);
#110=ORIENTED_EDGE('',*,*,#176,.F.);
#111=ORIENTED_EDGE('',*,*,#174,.F.);
#112=ORIENTED_EDGE('',*,*,#172,.F.);
#113=ORIENTED_EDGE('',*,*,#164,.T.);
#114=ORIENTED_EDGE('',*,*,#168,.T.);
#115=ORIENTED_EDGE('',*,*,#171,.T.);
#116=ORIENTED_EDGE('',*,*,#181,.T.);
#117=ORIENTED_EDGE('',*,*,#182,.F.);
#118=ORIENTED_EDGE('',*,*,#179,.T.);
#119=ORIENTED_EDGE('',*,*,#177,.T.);
#120=ORIENTED_EDGE('',*,*,#175,.T.);
#121=ORIENTED_EDGE('',*,*,#173,.T.);
#122=ORIENTED_EDGE('',*,*,#162,.F.);
#123=ORIENTED_EDGE('',*,*,#180,.F.);
#124=ORIENTED_EDGE('',*,*,#169,.F.);
#125=ORIENTED_EDGE('',*,*,#166,.F.);
#126=ORIENTED_EDGE('',*,*,#183,.F.);
#127=ORIENTED_EDGE('',*,*,#184,.T.);
#128=ORIENTED_EDGE('',*,*,#184,.F.);
#129=ORIENTED_EDGE('',*,*,#182,.T.);
#130=ORIENTED_EDGE('',*,*,#158,.T.);
#131=ORIENTED_EDGE('',*,*,#185,.T.);
#132=ORIENTED_EDGE('',*,*,#159,.T.);
#133=ORIENTED_EDGE('',*,*,#185,.F.);
#134=ORIENTED_EDGE('',*,*,#157,.T.);
#135=ORIENTED_EDGE('',*,*,#153,.T.);
#136=ORIENTED_EDGE('',*,*,#156,.T.);
#137=ORIENTED_EDGE('',*,*,#186,.F.);
#138=ORIENTED_EDGE('',*,*,#160,.T.);
#139=ORIENTED_EDGE('',*,*,#151,.T.);
#140=ORIENTED_EDGE('',*,*,#161,.T.);
#141=ORIENTED_EDGE('',*,*,#186,.T.);
#142=ORIENTED_EDGE('',*,*,#187,.T.);
#143=ORIENTED_EDGE('',*,*,#154,.F.);
#144=ORIENTED_EDGE('',*,*,#188,.T.);
#145=ORIENTED_EDGE('',*,*,#187,.F.);
#146=ORIENTED_EDGE('',*,*,#189,.T.);
#147=ORIENTED_EDGE('',*,*,#188,.F.);
#148=ORIENTED_EDGE('',*,*,#183,.T.);
#149=ORIENTED_EDGE('',*,*,#189,.F.);
#150=EDGE_CURVE('',#190,#191,#222,.T.);
#151=EDGE_CURVE('',#192,#190,#30,.T.);
#152=EDGE_CURVE('',#193,#192,#223,.T.);
#153=EDGE_CURVE('',#191,#193,#31,.T.);
#154=EDGE_CURVE('',#194,#194,#224,.T.);
#155=EDGE_CURVE('',#195,#195,#225,.F.);
#156=EDGE_CURVE('',#190,#196,#32,.T.);
#157=EDGE_CURVE('',#197,#191,#33,.F.);
#158=EDGE_CURVE('',#198,#197,#226,.T.);
#159=EDGE_CURVE('',#193,#198,#34,.T.);
#160=EDGE_CURVE('',#199,#192,#35,.F.);
#161=EDGE_CURVE('',#196,#199,#227,.T.);
#162=EDGE_CURVE('',#200,#201,#36,.T.);
#163=EDGE_CURVE('',#202,#201,#37,.T.);
#164=EDGE_CURVE('',#203,#202,#38,.T.);
#165=EDGE_CURVE('',#203,#200,#39,.T.);
#166=EDGE_CURVE('',#201,#204,#40,.T.);
#167=EDGE_CURVE('',#205,#204,#41,.T.);
#168=EDGE_CURVE('',#202,#205,#42,.T.);
#169=EDGE_CURVE('',#204,#206,#43,.T.);
#170=EDGE_CURVE('',#207,#206,#44,.T.);
#171=EDGE_CURVE('',#205,#207,#45,.T.);
#172=EDGE_CURVE('',#208,#208,#228,.T.);
#173=EDGE_CURVE('',#209,#209,#229,.T.);
#174=EDGE_CURVE('',#210,#210,#230,.T.);
#175=EDGE_CURVE('',#211,#211,#231,.T.);
#176=EDGE_CURVE('',#212,#212,#232,.T.);
#177=EDGE_CURVE('',#213,#213,#233,.T.);
#178=EDGE_CURVE('',#214,#214,#234,.T.);
#179=EDGE_CURVE('',#215,#215,#235,.T.);
#180=EDGE_CURVE('',#206,#200,#46,.T.);
#181=EDGE_CURVE('',#207,#203,#47,.T.);
#182=EDGE_CURVE('',#216,#216,#236,.F.);
#183=EDGE_CURVE('',#217,#217,#237,.T.);
#184=EDGE_CURVE('',#218,#218,#238,.T.);
#185=EDGE_CURVE('',#197,#198,#48,.T.);
#186=EDGE_CURVE('',#199,#196,#49,.T.);
#187=EDGE_CURVE('',#219,#219,#239,.T.);
#188=EDGE_CURVE('',#220,#220,#240,.T.);
#189=EDGE_CURVE('',#221,#221,#241,.T.);
#190=VERTEX_POINT('',#528);
#191=VERTEX_POINT('',#529);
#192=VERTEX_POINT('',#531);
#193=VERTEX_POINT('',#533);
#194=VERTEX_POINT('',#536);
#195=VERTEX_POINT('',#539);
#196=VERTEX_POINT('',#541);
#197=VERTEX_POINT('',#543);
#198=VERTEX_POINT('',#545);
#199=VERTEX_POINT('',#548);
#200=VERTEX_POINT('',#552);
#201=VERTEX_POINT('',#553);
#202=VERTEX_POINT('',#555);
#203=VERTEX_POINT('',#557);
#204=VERTEX_POINT('',#561);
#205=VERTEX_POINT('',#563);
#206=VERTEX_POINT('',#567);
#207=VERTEX_POINT('',#569);
#208=VERTEX_POINT('',#573);
#209=VERTEX_POINT('',#575);
#210=VERTEX_POINT('',#578);
#211=VERTEX_POINT('',#580);
#212=VERTEX_POINT('',#583);
#213=VERTEX_POINT('',#585);
#214=VERTEX_POINT('',#588);
#215=VERTEX_POINT('',#590);
#216=VERTEX_POINT('',#597);
#217=VERTEX_POINT('',#600);
#218=VERTEX_POINT('',#602);
#219=VERTEX_POINT('',#612);
#220=VERTEX_POINT('',#615);
#221=VERTEX_POINT('',#618);
#222=CIRCLE('',#378,6.);
#223=CIRCLE('',#379,6.);
#224=CIRCLE('',#380,3.);
#225=CIRCLE('',#382,6.);
#226=CIRCLE('',#383,6.);
#227=CIRCLE('',#384,6.);
#228=CIRCLE('',#389,2.75);
#229=CIRCLE('',#390,2.75);
#230=CIRCLE('',#392,2.75);
#231=CIRCLE('',#393,2.75);
#232=CIRCLE('',#395,2.75);
#233=CIRCLE('',#396,2.75);
#234=CIRCLE('',#398,2.75);
#235=CIRCLE('',#399,2.75);
#236=CIRCLE('',#403,9.);
#237=CIRCLE('',#405,4.);
#238=CIRCLE('',#406,9.);
#239=CIRCLE('',#413,2.4585);
#240=CIRCLE('',#415,2.4585);
#241=CIRCLE('',#417,4.);
#242=EDGE_LOOP('',(#70,#71,#72,#73));
#243=EDGE_LOOP('',(#74));
#244=EDGE_LOOP('',(#75));
#245=EDGE_LOOP('',(#76,#77,#78,#79,#80,#81,#82,#83));
#246=EDGE_LOOP('',(#84,#85,#86,#87));
#247=EDGE_LOOP('',(#88,#89,#90,#91));
#248=EDGE_LOOP('',(#92,#93,#94,#95));
#249=EDGE_LOOP('',(#96));
#250=EDGE_LOOP('',(#97));
#251=EDGE_LOOP('',(#98));
#252=EDGE_LOOP('',(#99));
#253=EDGE_LOOP('',(#100));
#254=EDGE_LOOP('',(#101));
#255=EDGE_LOOP('',(#102));
#256=EDGE_LOOP('',(#103));
#257=EDGE_LOOP('',(#104,#105,#106,#107));
#258=EDGE_LOOP('',(#108));
#259=EDGE_LOOP('',(#109));
#260=EDGE_LOOP('',(#110));
#261=EDGE_LOOP('',(#111));
#262=EDGE_LOOP('',(#112));
#263=EDGE_LOOP('',(#113,#114,#115,#116));
#264=EDGE_LOOP('',(#117));
#265=EDGE_LOOP('',(#118));
#266=EDGE_LOOP('',(#119));
#267=EDGE_LOOP('',(#120));
#268=EDGE_LOOP('',(#121));
#269=EDGE_LOOP('',(#122,#123,#124,#125));
#270=EDGE_LOOP('',(#126));
#271=EDGE_LOOP('',(#127));
#272=EDGE_LOOP('',(#128));
#273=EDGE_LOOP('',(#129));
#274=EDGE_LOOP('',(#130,#131));
#275=EDGE_LOOP('',(#132,#133,#134,#135));
#276=EDGE_LOOP('',(#136,#137,#138,#139));
#277=EDGE_LOOP('',(#140,#141));
#278=EDGE_LOOP('',(#142));
#279=EDGE_LOOP('',(#143));
#280=EDGE_LOOP('',(#144));
#281=EDGE_LOOP('',(#145));
#282=EDGE_LOOP('',(#146));
#283=EDGE_LOOP('',(#147));
#284=EDGE_LOOP('',(#148));
#285=EDGE_LOOP('',(#149));
#286=FACE_BOUND('',#242,.T.);
#287=FACE_BOUND('',#243,.T.);
#288=FACE_BOUND('',#244,.T.);
#289=FACE_BOUND('',#245,.T.);
#290=FACE_BOUND('',#246,.T.);
#291=FACE_BOUND('',#247,.T.);
#292=FACE_BOUND('',#248,.T.);
#293=FACE_BOUND('',#249,.T.);
#294=FACE_BOUND('',#250,.T.);
#295=FACE_BOUND('',#251,.T.);
#296=FACE_BOUND('',#252,.T.);
#297=FACE_BOUND('',#253,.T.);
#298=FACE_BOUND('',#254,.T.);
#299=FACE_BOUND('',#255,.T.);
#300=FACE_BOUND('',#256,.T.);
#301=FACE_BOUND('',#257,.T.);
#302=FACE_BOUND('',#258,.T.);
#303=FACE_BOUND('',#259,.T.);
#304=FACE_BOUND('',#260,.T.);
#305=FACE_BOUND('',#261,.T.);
#306=FACE_BOUND('',#262,.T.);
#307=FACE_BOUND('',#263,.T.);
#308=FACE_BOUND('',#264,.T.);
#309=FACE_BOUND('',#265,.T.);
#310=FACE_BOUND('',#266,.T.);
#311=FACE_BOUND('',#267,.T.);
#312=FACE_BOUND('',#268,.T.);
#313=FACE_BOUND('',#269,.T.);
#314=FACE_BOUND('',#270,.T.);
#315=FACE_BOUND('',#271,.T.);
#316=FACE_BOUND('',#272,.T.);
#317=FACE_BOUND('',#273,.T.);
#318=FACE_BOUND('',#274,.T.);
#319=FACE_BOUND('',#275,.T.);
#320=FACE_BOUND('',#276,.T.);
#321=FACE_BOUND('',#277,.T.);
#322=FACE_BOUND('',#278,.T.);
#323=FACE_BOUND('',#279,.T.);
#324=FACE_BOUND('',#280,.T.);
#325=FACE_BOUND('',#281,.T.);
#326=FACE_BOUND('',#282,.T.);
#327=FACE_BOUND('',#283,.T.);
#328=FACE_BOUND('',#284,.T.);
#329=FACE_BOUND('',#285,.T.);
#330=PLANE('',#377);
#331=PLANE('',#385);
#332=PLANE('',#386);
#333=PLANE('',#387);
#334=PLANE('',#400);
#335=PLANE('',#401);
#336=PLANE('',#402);
#337=PLANE('',#404);
#338=PLANE('',#408);
#339=PLANE('',#409);
#340=PLANE('',#410);
#341=PLANE('',#411);
#342=ADVANCED_FACE('',(#286,#287),#330,.F.);
#343=ADVANCED_FACE('',(#288,#289),#22,.T.);
#344=ADVANCED_FACE('',(#290),#331,.F.);
#345=ADVANCED_FACE('',(#291),#332,.F.);
#346=ADVANCED_FACE('',(#292),#333,.F.);
#347=ADVANCED_FACE('',(#293,#294),#23,.F.);
#348=ADVANCED_FACE('',(#295,#296),#24,.F.);
#349=ADVANCED_FACE('',(#297,#298),#25,.F.);
#350=ADVANCED_FACE('',(#299,#300),#26,.F.);
#351=ADVANCED_FACE('',(#301),#334,.F.);
#352=ADVANCED_FACE('',(#302,#303,#304,#305,#306,#307),#335,.T.);
#353=ADVANCED_FACE('',(#308,#309,#310,#311,#312,#313),#336,.F.);
#354=ADVANCED_FACE('',(#314,#315),#337,.F.);
#355=ADVANCED_FACE('',(#316,#317),#27,.T.);
#356=ADVANCED_FACE('',(#318),#338,.T.);
#357=ADVANCED_FACE('',(#319),#339,.T.);
#358=ADVANCED_FACE('',(#320),#340,.T.);
#359=ADVANCED_FACE('',(#321),#341,.T.);
#360=ADVANCED_FACE('',(#322,#323),#20,.F.);
#361=ADVANCED_FACE('',(#324,#325),#28,.F.);
#362=ADVANCED_FACE('',(#326,#327),#21,.F.);
#363=ADVANCED_FACE('',(#328,#329),#29,.F.);
#364=CLOSED_SHELL('',(#342,#343,#344,#345,#346,#347,#348,#349,#350,#351,
#352,#353,#354,#355,#356,#357,#358,#359,#360,#361,#362,#363));
#365=STYLED_ITEM('',(#366),#373);
#366=PRESENTATION_STYLE_ASSIGNMENT((#367));
#367=SURFACE_STYLE_USAGE(.BOTH.,#368);
#368=SURFACE_SIDE_STYLE('',(#369));
#369=SURFACE_STYLE_FILL_AREA(#370);
#370=FILL_AREA_STYLE('',(#371));
#371=FILL_AREA_STYLE_COLOUR('',#372);
#372=COLOUR_RGB('',0.689999997615814,0.689999997615814,0.689999997615814);
#373=MANIFOLD_SOLID_BREP('36123 KSZ-M6',#364);
#374=SHAPE_DEFINITION_REPRESENTATION(#626,#375);
#375=SHAPE_REPRESENTATION('36123 KSZ-M6',(#376),#621);
#376=AXIS2_PLACEMENT_3D('',#525,#419,#420);
#377=AXIS2_PLACEMENT_3D('',#526,#421,#422);
#378=AXIS2_PLACEMENT_3D('',#527,#423,#424);
#379=AXIS2_PLACEMENT_3D('',#532,#426,#427);
#380=AXIS2_PLACEMENT_3D('',#535,#429,#430);
#381=AXIS2_PLACEMENT_3D('',#537,#431,#432);
#382=AXIS2_PLACEMENT_3D('',#538,#433,#434);
#383=AXIS2_PLACEMENT_3D('',#544,#437,#438);
#384=AXIS2_PLACEMENT_3D('',#549,#441,#442);
#385=AXIS2_PLACEMENT_3D('',#550,#443,#444);
#386=AXIS2_PLACEMENT_3D('',#559,#449,#450);
#387=AXIS2_PLACEMENT_3D('',#565,#454,#455);
#388=AXIS2_PLACEMENT_3D('',#571,#459,#460);
#389=AXIS2_PLACEMENT_3D('',#572,#461,#462);
#390=AXIS2_PLACEMENT_3D('',#574,#463,#464);
#391=AXIS2_PLACEMENT_3D('',#576,#465,#466);
#392=AXIS2_PLACEMENT_3D('',#577,#467,#468);
#393=AXIS2_PLACEMENT_3D('',#579,#469,#470);
#394=AXIS2_PLACEMENT_3D('',#581,#471,#472);
#395=AXIS2_PLACEMENT_3D('',#582,#473,#474);
#396=AXIS2_PLACEMENT_3D('',#584,#475,#476);
#397=AXIS2_PLACEMENT_3D('',#586,#477,#478);
#398=AXIS2_PLACEMENT_3D('',#587,#479,#480);
#399=AXIS2_PLACEMENT_3D('',#589,#481,#482);
#400=AXIS2_PLACEMENT_3D('',#591,#483,#484);
#401=AXIS2_PLACEMENT_3D('',#594,#487,#488);
#402=AXIS2_PLACEMENT_3D('',#595,#489,#490);
#403=AXIS2_PLACEMENT_3D('',#596,#491,#492);
#404=AXIS2_PLACEMENT_3D('',#598,#493,#494);
#405=AXIS2_PLACEMENT_3D('',#599,#495,#496);
#406=AXIS2_PLACEMENT_3D('',#601,#497,#498);
#407=AXIS2_PLACEMENT_3D('',#603,#499,#500);
#408=AXIS2_PLACEMENT_3D('',#604,#501,#502);
#409=AXIS2_PLACEMENT_3D('',#606,#504,#505);
#410=AXIS2_PLACEMENT_3D('',#607,#506,#507);
#411=AXIS2_PLACEMENT_3D('',#609,#509,#510);
#412=AXIS2_PLACEMENT_3D('',#610,#511,#512);
#413=AXIS2_PLACEMENT_3D('',#611,#513,#514);
#414=AXIS2_PLACEMENT_3D('',#613,#515,#516);
#415=AXIS2_PLACEMENT_3D('',#614,#517,#518);
#416=AXIS2_PLACEMENT_3D('',#616,#519,#520);
#417=AXIS2_PLACEMENT_3D('',#617,#521,#522);
#418=AXIS2_PLACEMENT_3D('',#619,#523,#524);
#419=DIRECTION('',(0.,0.,1.));
#420=DIRECTION('',(1.,0.,0.));
#421=DIRECTION('',(0.,-1.,0.));
#422=DIRECTION('',(0.,0.,-1.));
#423=DIRECTION('',(0.,-1.,0.));
#424=DIRECTION('',(0.,0.,-1.));
#425=DIRECTION('',(1.,0.,0.));
#426=DIRECTION('',(0.,-1.,0.));
#427=DIRECTION('',(0.,0.,-1.));
#428=DIRECTION('',(-1.,0.,0.));
#429=DIRECTION('',(0.,-1.,0.));
#430=DIRECTION('',(0.,0.,-1.));
#431=DIRECTION('',(0.,-1.,0.));
#432=DIRECTION('',(0.,0.,-1.));
#433=DIRECTION('',(0.,1.,0.));
#434=DIRECTION('',(0.,0.,1.));
#435=DIRECTION('',(0.,-1.,0.));
#436=DIRECTION('',(0.,-1.,0.));
#437=DIRECTION('',(0.,1.,0.));
#438=DIRECTION('',(0.,0.,1.));
#439=DIRECTION('',(0.,-1.,0.));
#440=DIRECTION('',(0.,-1.,0.));
#441=DIRECTION('',(0.,1.,0.));
#442=DIRECTION('',(0.,0.,1.));
#443=DIRECTION('',(1.,0.,0.));
#444=DIRECTION('',(0.,0.,-1.));
#445=DIRECTION('',(0.,0.,1.));
#446=DIRECTION('',(0.,-1.,0.));
#447=DIRECTION('',(0.,0.,1.));
#448=DIRECTION('',(0.,-1.,0.));
#449=DIRECTION('',(0.,0.,-1.));
#450=DIRECTION('',(-1.,0.,0.));
#451=DIRECTION('',(1.,0.,0.));
#452=DIRECTION('',(0.,-1.,0.));
#453=DIRECTION('',(1.,0.,0.));
#454=DIRECTION('',(-1.,0.,0.));
#455=DIRECTION('',(0.,0.,1.));
#456=DIRECTION('',(0.,0.,-1.));
#457=DIRECTION('',(0.,-1.,0.));
#458=DIRECTION('',(0.,0.,-1.));
#459=DIRECTION('',(0.,-1.,0.));
#460=DIRECTION('',(0.,0.,-1.));
#461=DIRECTION('',(0.,1.,0.));
#462=DIRECTION('',(1.,0.,0.));
#463=DIRECTION('',(0.,1.,0.));
#464=DIRECTION('',(1.,0.,0.));
#465=DIRECTION('',(0.,-1.,0.));
#466=DIRECTION('',(0.,0.,-1.));
#467=DIRECTION('',(0.,1.,0.));
#468=DIRECTION('',(1.,0.,0.));
#469=DIRECTION('',(0.,1.,0.));
#470=DIRECTION('',(1.,0.,0.));
#471=DIRECTION('',(0.,-1.,0.));
#472=DIRECTION('',(0.,0.,-1.));
#473=DIRECTION('',(0.,1.,0.));
#474=DIRECTION('',(1.,0.,0.));
#475=DIRECTION('',(0.,1.,0.));
#476=DIRECTION('',(1.,0.,0.));
#477=DIRECTION('',(0.,-1.,0.));
#478=DIRECTION('',(0.,0.,-1.));
#479=DIRECTION('',(0.,1.,0.));
#480=DIRECTION('',(1.,0.,0.));
#481=DIRECTION('',(0.,1.,0.));
#482=DIRECTION('',(1.,0.,0.));
#483=DIRECTION('',(0.,0.,1.));
#484=DIRECTION('',(1.,0.,0.));
#485=DIRECTION('',(-1.,0.,0.));
#486=DIRECTION('',(-1.,0.,0.));
#487=DIRECTION('',(0.,1.,0.));
#488=DIRECTION('',(0.,0.,1.));
#489=DIRECTION('',(0.,1.,0.));
#490=DIRECTION('',(0.,0.,1.));
#491=DIRECTION('',(0.,1.,0.));
#492=DIRECTION('',(0.,0.,1.));
#493=DIRECTION('',(0.,1.,0.));
#494=DIRECTION('',(0.,0.,1.));
#495=DIRECTION('',(0.,-1.,0.));
#496=DIRECTION('',(0.,0.,-1.));
#497=DIRECTION('',(0.,-1.,0.));
#498=DIRECTION('',(0.,0.,-1.));
#499=DIRECTION('',(0.,-1.,0.));
#500=DIRECTION('',(0.,0.,-1.));
#501=DIRECTION('',(0.,1.,0.));
#502=DIRECTION('',(0.,0.,1.));
#503=DIRECTION('',(-1.,0.,0.));
#504=DIRECTION('',(0.,0.,1.));
#505=DIRECTION('',(1.,0.,0.));
#506=DIRECTION('',(0.,0.,-1.));
#507=DIRECTION('',(-1.,0.,0.));
#508=DIRECTION('',(1.,0.,0.));
#509=DIRECTION('',(0.,1.,0.));
#510=DIRECTION('',(0.,0.,1.));
#511=DIRECTION('',(0.,1.,0.));
#512=DIRECTION('',(0.,0.,1.));
#513=DIRECTION('',(0.,-1.,0.));
#514=DIRECTION('',(0.,0.,-1.));
#515=DIRECTION('',(0.,-1.,0.));
#516=DIRECTION('',(0.,0.,-1.));
#517=DIRECTION('',(0.,-1.,0.));
#518=DIRECTION('',(0.,0.,-1.));
#519=DIRECTION('',(0.,-1.,0.));
#520=DIRECTION('',(0.,0.,-1.));
#521=DIRECTION('',(0.,-1.,0.));
#522=DIRECTION('',(0.,0.,-1.));
#523=DIRECTION('',(0.,-1.,0.));
#524=DIRECTION('',(0.,0.,-1.));
#525=CARTESIAN_POINT('',(0.,0.,0.));
#526=CARTESIAN_POINT('',(0.,15.85,0.));
#527=CARTESIAN_POINT('',(0.,15.85,0.));
#528=CARTESIAN_POINT('',(3.3166247903554,15.85,-5.));
#529=CARTESIAN_POINT('',(3.3166247903554,15.85,5.));
#530=CARTESIAN_POINT('',(0.,15.85,-5.));
#531=CARTESIAN_POINT('',(-3.3166247903554,15.85,-5.));
#532=CARTESIAN_POINT('',(0.,15.85,0.));
#533=CARTESIAN_POINT('',(-3.3166247903554,15.85,5.));
#534=CARTESIAN_POINT('',(0.,15.85,5.));
#535=CARTESIAN_POINT('',(0.,15.85,0.));
#536=CARTESIAN_POINT('',(0.,15.85,-3.));
#537=CARTESIAN_POINT('',(0.,-0.15,0.));
#538=CARTESIAN_POINT('',(0.,8.,0.));
#539=CARTESIAN_POINT('',(0.,8.,6.));
#540=CARTESIAN_POINT('',(3.3166247903554,-0.15,-5.));
#541=CARTESIAN_POINT('',(3.3166247903554,9.45,-5.));
#542=CARTESIAN_POINT('',(3.3166247903554,-0.15,5.));
#543=CARTESIAN_POINT('',(3.3166247903554,9.45,5.));
#544=CARTESIAN_POINT('',(0.,9.45,0.));
#545=CARTESIAN_POINT('',(-3.3166247903554,9.45,5.));
#546=CARTESIAN_POINT('',(-3.3166247903554,-0.15,5.));
#547=CARTESIAN_POINT('',(-3.3166247903554,-0.15,-5.));
#548=CARTESIAN_POINT('',(-3.3166247903554,9.45,-5.));
#549=CARTESIAN_POINT('',(0.,9.45,0.));
#550=CARTESIAN_POINT('',(-15.,8.,-12.5));
#551=CARTESIAN_POINT('',(-15.,0.,-12.5));
#552=CARTESIAN_POINT('',(-15.,0.,-12.5));
#553=CARTESIAN_POINT('',(-15.,0.,12.5));
#554=CARTESIAN_POINT('',(-15.,8.,12.5));
#555=CARTESIAN_POINT('',(-15.,8.,12.5));
#556=CARTESIAN_POINT('',(-15.,8.,-12.5));
#557=CARTESIAN_POINT('',(-15.,8.,-12.5));
#558=CARTESIAN_POINT('',(-15.,8.,-12.5));
#559=CARTESIAN_POINT('',(-15.,8.,12.5));
#560=CARTESIAN_POINT('',(-15.,0.,12.5));
#561=CARTESIAN_POINT('',(15.,0.,12.5));
#562=CARTESIAN_POINT('',(15.,8.,12.5));
#563=CARTESIAN_POINT('',(15.,8.,12.5));
#564=CARTESIAN_POINT('',(-15.,8.,12.5));
#565=CARTESIAN_POINT('',(15.,8.,12.5));
#566=CARTESIAN_POINT('',(15.,0.,12.5));
#567=CARTESIAN_POINT('',(15.,0.,-12.5));
#568=CARTESIAN_POINT('',(15.,8.,-12.5));
#569=CARTESIAN_POINT('',(15.,8.,-12.5));
#570=CARTESIAN_POINT('',(15.,8.,12.5));
#571=CARTESIAN_POINT('',(10.,8.,-7.5));
#572=CARTESIAN_POINT('',(10.,8.,-7.5));
#573=CARTESIAN_POINT('',(12.75,8.,-7.5));
#574=CARTESIAN_POINT('',(10.,0.,-7.5));
#575=CARTESIAN_POINT('',(12.75,0.,-7.5));
#576=CARTESIAN_POINT('',(10.,8.,7.5));
#577=CARTESIAN_POINT('',(10.,8.,7.5));
#578=CARTESIAN_POINT('',(12.75,8.,7.5));
#579=CARTESIAN_POINT('',(10.,0.,7.5));
#580=CARTESIAN_POINT('',(12.75,0.,7.5));
#581=CARTESIAN_POINT('',(-10.,8.,-7.5));
#582=CARTESIAN_POINT('',(-10.,8.,-7.5));
#583=CARTESIAN_POINT('',(-7.25,8.,-7.5));
#584=CARTESIAN_POINT('',(-10.,0.,-7.5));
#585=CARTESIAN_POINT('',(-7.25,0.,-7.5));
#586=CARTESIAN_POINT('',(-10.,8.,7.5));
#587=CARTESIAN_POINT('',(-10.,8.,7.5));
#588=CARTESIAN_POINT('',(-7.25,8.,7.5));
#589=CARTESIAN_POINT('',(-10.,0.,7.5));
#590=CARTESIAN_POINT('',(-7.25,0.,7.5));
#591=CARTESIAN_POINT('',(15.,8.,-12.5));
#592=CARTESIAN_POINT('',(15.,0.,-12.5));
#593=CARTESIAN_POINT('',(15.,8.,-12.5));
#594=CARTESIAN_POINT('',(0.,8.,0.));
#595=CARTESIAN_POINT('',(0.,0.,0.));
#596=CARTESIAN_POINT('',(0.,0.,0.));
#597=CARTESIAN_POINT('',(0.,0.,9.));
#598=CARTESIAN_POINT('',(9.,-0.15,0.));
#599=CARTESIAN_POINT('',(0.,-0.15,0.));
#600=CARTESIAN_POINT('',(0.,-0.15,-4.));
#601=CARTESIAN_POINT('',(0.,-0.15,0.));
#602=CARTESIAN_POINT('',(0.,-0.15,-9.));
#603=CARTESIAN_POINT('',(0.,-0.15,0.));
#604=CARTESIAN_POINT('',(0.,9.45,0.));
#605=CARTESIAN_POINT('',(10.,9.45,5.));
#606=CARTESIAN_POINT('',(10.,22.25,5.));
#607=CARTESIAN_POINT('',(-8.5,22.25,-5.));
#608=CARTESIAN_POINT('',(-8.5,9.45,-5.));
#609=CARTESIAN_POINT('',(0.,9.45,0.));
#610=CARTESIAN_POINT('',(0.,15.85,0.));
#611=CARTESIAN_POINT('',(0.,15.3085,0.));
#612=CARTESIAN_POINT('',(0.,15.3085,-2.4585));
#613=CARTESIAN_POINT('',(0.,-0.15,0.));
#614=CARTESIAN_POINT('',(0.,3.3915,0.));
#615=CARTESIAN_POINT('',(0.,3.3915,-2.4585));
#616=CARTESIAN_POINT('',(0.,3.3915,0.));
#617=CARTESIAN_POINT('',(0.,1.85,0.));
#618=CARTESIAN_POINT('',(0.,1.85,-4.));
#619=CARTESIAN_POINT('',(0.,-0.15,0.));
#620=MECHANICAL_DESIGN_GEOMETRIC_PRESENTATION_REPRESENTATION('',(#365),
#621);
#621=(
GEOMETRIC_REPRESENTATION_CONTEXT(3)
GLOBAL_UNCERTAINTY_ASSIGNED_CONTEXT((#622))
GLOBAL_UNIT_ASSIGNED_CONTEXT((#625,#624,#623))
REPRESENTATION_CONTEXT('36123 KSZ-M6','TOP_LEVEL_ASSEMBLY_PART')
);
#622=UNCERTAINTY_MEASURE_WITH_UNIT(LENGTH_MEASURE(0.005),#625,
'DISTANCE_ACCURACY_VALUE','Maximum Tolerance applied to model');
#623=(
NAMED_UNIT(*)
SI_UNIT($,.STERADIAN.)
SOLID_ANGLE_UNIT()
);
#624=(
NAMED_UNIT(*)
PLANE_ANGLE_UNIT()
SI_UNIT($,.RADIAN.)
);
#625=(
LENGTH_UNIT()
NAMED_UNIT(*)
SI_UNIT(.MILLI.,.METRE.)
);
#626=PRODUCT_DEFINITION_SHAPE('','',#627);
#627=PRODUCT_DEFINITION('','',#629,#628);
#628=PRODUCT_DEFINITION_CONTEXT('',#635,'design');
#629=PRODUCT_DEFINITION_FORMATION_WITH_SPECIFIED_SOURCE('','',#631,
 .NOT_KNOWN.);
#630=PRODUCT_RELATED_PRODUCT_CATEGORY('','',(#631));
#631=PRODUCT('36123 KSZ-M6','36123 KSZ-M6','36123 KSZ-M6',(#633));
#632=PRODUCT_CATEGORY('','');
#633=PRODUCT_CONTEXT('',#635,'mechanical');
#634=APPLICATION_PROTOCOL_DEFINITION('international standard',
'automotive_design',2010,#635);
#635=APPLICATION_CONTEXT(
'core data for automotive mechanical design processes');
ENDSEC;
END-ISO-10303-21;
