ISO-10303-21;
HEADER;
/* Generated by software containing ST-Developer
 * from STEP Tools, Inc. (www.steptools.com) 
 */
/* OPTION: using custom renumber hook */

FILE_DESCRIPTION(
/* description */ ('STEP AP214'),
/* implementation_level */ '2;1');

FILE_NAME(
/* name */ '36126_KSZ-M12X125',
/* time_stamp */ '2024-08-26T14:18:00+02:00',
/* author */ ('License CC BY-ND 4.0'),
/* organization */ ('CADENAS'),
/* preprocessor_version */ 'ST-DEVELOPER v19.3',
/* originating_system */ 'PARTsolutions',
/* authorisation */ '  ');

FILE_SCHEMA (('AUTOMOTIVE_DESIGN {1 0 10303 214 3 1 1}'));
ENDSEC;

DATA;
#10=PROPERTY_DEFINITION_REPRESENTATION(#14,#12);
#11=PROPERTY_DEFINITION_REPRESENTATION(#15,#13);
#12=REPRESENTATION('',(#16),#601);
#13=REPRESENTATION('',(#17),#601);
#14=PROPERTY_DEFINITION('pmi validation property','',#606);
#15=PROPERTY_DEFINITION('pmi validation property','',#606);
#16=VALUE_REPRESENTATION_ITEM('number of annotations',COUNT_MEASURE(0.));
#17=VALUE_REPRESENTATION_ITEM('number of views',COUNT_MEASURE(0.));
#18=SHAPE_REPRESENTATION_RELATIONSHIP('','',#364,#19);
#19=ADVANCED_BREP_SHAPE_REPRESENTATION('',(#362),#601);
#20=CONICAL_SURFACE('',#401,6.,0.785398163397448);
#21=CONICAL_SURFACE('',#405,5.3235,0.785398163397447);
#22=CYLINDRICAL_SURFACE('',#370,8.5);
#23=CYLINDRICAL_SURFACE('',#377,2.75);
#24=CYLINDRICAL_SURFACE('',#380,2.75);
#25=CYLINDRICAL_SURFACE('',#383,2.75);
#26=CYLINDRICAL_SURFACE('',#386,2.75);
#27=CYLINDRICAL_SURFACE('',#396,13.);
#28=CYLINDRICAL_SURFACE('',#403,5.3235);
#29=LINE('',#513,#49);
#30=LINE('',#517,#50);
#31=LINE('',#523,#51);
#32=LINE('',#525,#52);
#33=LINE('',#529,#53);
#34=LINE('',#530,#54);
#35=LINE('',#534,#55);
#36=LINE('',#537,#56);
#37=LINE('',#539,#57);
#38=LINE('',#541,#58);
#39=LINE('',#543,#59);
#40=LINE('',#545,#60);
#41=LINE('',#547,#61);
#42=LINE('',#549,#62);
#43=LINE('',#551,#63);
#44=LINE('',#553,#64);
#45=LINE('',#575,#65);
#46=LINE('',#576,#66);
#47=LINE('',#588,#67);
#48=LINE('',#591,#68);
#49=VECTOR('',#412,1000.);
#50=VECTOR('',#415,1000.);
#51=VECTOR('',#422,1000.);
#52=VECTOR('',#423,1000.);
#53=VECTOR('',#426,1000.);
#54=VECTOR('',#427,1000.);
#55=VECTOR('',#432,1000.);
#56=VECTOR('',#433,1000.);
#57=VECTOR('',#434,1000.);
#58=VECTOR('',#435,1000.);
#59=VECTOR('',#438,1000.);
#60=VECTOR('',#439,1000.);
#61=VECTOR('',#440,1000.);
#62=VECTOR('',#443,1000.);
#63=VECTOR('',#444,1000.);
#64=VECTOR('',#445,1000.);
#65=VECTOR('',#472,1000.);
#66=VECTOR('',#473,1000.);
#67=VECTOR('',#490,1000.);
#68=VECTOR('',#495,1000.);
#69=ORIENTED_EDGE('',*,*,#147,.F.);
#70=ORIENTED_EDGE('',*,*,#148,.F.);
#71=ORIENTED_EDGE('',*,*,#149,.F.);
#72=ORIENTED_EDGE('',*,*,#150,.F.);
#73=ORIENTED_EDGE('',*,*,#151,.T.);
#74=ORIENTED_EDGE('',*,*,#152,.F.);
#75=ORIENTED_EDGE('',*,*,#153,.F.);
#76=ORIENTED_EDGE('',*,*,#147,.T.);
#77=ORIENTED_EDGE('',*,*,#154,.F.);
#78=ORIENTED_EDGE('',*,*,#155,.F.);
#79=ORIENTED_EDGE('',*,*,#156,.F.);
#80=ORIENTED_EDGE('',*,*,#149,.T.);
#81=ORIENTED_EDGE('',*,*,#157,.F.);
#82=ORIENTED_EDGE('',*,*,#158,.F.);
#83=ORIENTED_EDGE('',*,*,#159,.T.);
#84=ORIENTED_EDGE('',*,*,#160,.F.);
#85=ORIENTED_EDGE('',*,*,#161,.F.);
#86=ORIENTED_EDGE('',*,*,#162,.T.);
#87=ORIENTED_EDGE('',*,*,#163,.T.);
#88=ORIENTED_EDGE('',*,*,#164,.F.);
#89=ORIENTED_EDGE('',*,*,#165,.F.);
#90=ORIENTED_EDGE('',*,*,#160,.T.);
#91=ORIENTED_EDGE('',*,*,#166,.T.);
#92=ORIENTED_EDGE('',*,*,#167,.F.);
#93=ORIENTED_EDGE('',*,*,#168,.F.);
#94=ORIENTED_EDGE('',*,*,#164,.T.);
#95=ORIENTED_EDGE('',*,*,#169,.T.);
#96=ORIENTED_EDGE('',*,*,#170,.F.);
#97=ORIENTED_EDGE('',*,*,#171,.T.);
#98=ORIENTED_EDGE('',*,*,#172,.F.);
#99=ORIENTED_EDGE('',*,*,#173,.T.);
#100=ORIENTED_EDGE('',*,*,#174,.F.);
#101=ORIENTED_EDGE('',*,*,#175,.T.);
#102=ORIENTED_EDGE('',*,*,#176,.F.);
#103=ORIENTED_EDGE('',*,*,#177,.T.);
#104=ORIENTED_EDGE('',*,*,#162,.F.);
#105=ORIENTED_EDGE('',*,*,#178,.F.);
#106=ORIENTED_EDGE('',*,*,#167,.T.);
#107=ORIENTED_EDGE('',*,*,#152,.T.);
#108=ORIENTED_EDGE('',*,*,#175,.F.);
#109=ORIENTED_EDGE('',*,*,#173,.F.);
#110=ORIENTED_EDGE('',*,*,#171,.F.);
#111=ORIENTED_EDGE('',*,*,#169,.F.);
#112=ORIENTED_EDGE('',*,*,#161,.T.);
#113=ORIENTED_EDGE('',*,*,#165,.T.);
#114=ORIENTED_EDGE('',*,*,#168,.T.);
#115=ORIENTED_EDGE('',*,*,#178,.T.);
#116=ORIENTED_EDGE('',*,*,#179,.F.);
#117=ORIENTED_EDGE('',*,*,#176,.T.);
#118=ORIENTED_EDGE('',*,*,#174,.T.);
#119=ORIENTED_EDGE('',*,*,#172,.T.);
#120=ORIENTED_EDGE('',*,*,#170,.T.);
#121=ORIENTED_EDGE('',*,*,#159,.F.);
#122=ORIENTED_EDGE('',*,*,#177,.F.);
#123=ORIENTED_EDGE('',*,*,#166,.F.);
#124=ORIENTED_EDGE('',*,*,#163,.F.);
#125=ORIENTED_EDGE('',*,*,#180,.F.);
#126=ORIENTED_EDGE('',*,*,#181,.T.);
#127=ORIENTED_EDGE('',*,*,#181,.F.);
#128=ORIENTED_EDGE('',*,*,#179,.T.);
#129=ORIENTED_EDGE('',*,*,#155,.T.);
#130=ORIENTED_EDGE('',*,*,#182,.T.);
#131=ORIENTED_EDGE('',*,*,#156,.T.);
#132=ORIENTED_EDGE('',*,*,#182,.F.);
#133=ORIENTED_EDGE('',*,*,#154,.T.);
#134=ORIENTED_EDGE('',*,*,#150,.T.);
#135=ORIENTED_EDGE('',*,*,#153,.T.);
#136=ORIENTED_EDGE('',*,*,#183,.F.);
#137=ORIENTED_EDGE('',*,*,#157,.T.);
#138=ORIENTED_EDGE('',*,*,#148,.T.);
#139=ORIENTED_EDGE('',*,*,#158,.T.);
#140=ORIENTED_EDGE('',*,*,#183,.T.);
#141=ORIENTED_EDGE('',*,*,#184,.T.);
#142=ORIENTED_EDGE('',*,*,#151,.F.);
#143=ORIENTED_EDGE('',*,*,#185,.T.);
#144=ORIENTED_EDGE('',*,*,#184,.F.);
#145=ORIENTED_EDGE('',*,*,#180,.T.);
#146=ORIENTED_EDGE('',*,*,#185,.F.);
#147=EDGE_CURVE('',#186,#187,#217,.T.);
#148=EDGE_CURVE('',#188,#186,#29,.T.);
#149=EDGE_CURVE('',#189,#188,#218,.T.);
#150=EDGE_CURVE('',#187,#189,#30,.T.);
#151=EDGE_CURVE('',#190,#190,#219,.T.);
#152=EDGE_CURVE('',#191,#191,#220,.F.);
#153=EDGE_CURVE('',#186,#192,#31,.T.);
#154=EDGE_CURVE('',#193,#187,#32,.F.);
#155=EDGE_CURVE('',#194,#193,#221,.T.);
#156=EDGE_CURVE('',#189,#194,#33,.T.);
#157=EDGE_CURVE('',#195,#188,#34,.F.);
#158=EDGE_CURVE('',#192,#195,#222,.T.);
#159=EDGE_CURVE('',#196,#197,#35,.T.);
#160=EDGE_CURVE('',#198,#197,#36,.T.);
#161=EDGE_CURVE('',#199,#198,#37,.T.);
#162=EDGE_CURVE('',#199,#196,#38,.T.);
#163=EDGE_CURVE('',#197,#200,#39,.T.);
#164=EDGE_CURVE('',#201,#200,#40,.T.);
#165=EDGE_CURVE('',#198,#201,#41,.T.);
#166=EDGE_CURVE('',#200,#202,#42,.T.);
#167=EDGE_CURVE('',#203,#202,#43,.T.);
#168=EDGE_CURVE('',#201,#203,#44,.T.);
#169=EDGE_CURVE('',#204,#204,#223,.T.);
#170=EDGE_CURVE('',#205,#205,#224,.T.);
#171=EDGE_CURVE('',#206,#206,#225,.T.);
#172=EDGE_CURVE('',#207,#207,#226,.T.);
#173=EDGE_CURVE('',#208,#208,#227,.T.);
#174=EDGE_CURVE('',#209,#209,#228,.T.);
#175=EDGE_CURVE('',#210,#210,#229,.T.);
#176=EDGE_CURVE('',#211,#211,#230,.T.);
#177=EDGE_CURVE('',#202,#196,#45,.T.);
#178=EDGE_CURVE('',#203,#199,#46,.T.);
#179=EDGE_CURVE('',#212,#212,#231,.F.);
#180=EDGE_CURVE('',#213,#213,#232,.T.);
#181=EDGE_CURVE('',#214,#214,#233,.T.);
#182=EDGE_CURVE('',#193,#194,#47,.T.);
#183=EDGE_CURVE('',#195,#192,#48,.T.);
#184=EDGE_CURVE('',#215,#215,#234,.T.);
#185=EDGE_CURVE('',#216,#216,#235,.T.);
#186=VERTEX_POINT('',#511);
#187=VERTEX_POINT('',#512);
#188=VERTEX_POINT('',#514);
#189=VERTEX_POINT('',#516);
#190=VERTEX_POINT('',#519);
#191=VERTEX_POINT('',#522);
#192=VERTEX_POINT('',#524);
#193=VERTEX_POINT('',#526);
#194=VERTEX_POINT('',#528);
#195=VERTEX_POINT('',#531);
#196=VERTEX_POINT('',#535);
#197=VERTEX_POINT('',#536);
#198=VERTEX_POINT('',#538);
#199=VERTEX_POINT('',#540);
#200=VERTEX_POINT('',#544);
#201=VERTEX_POINT('',#546);
#202=VERTEX_POINT('',#550);
#203=VERTEX_POINT('',#552);
#204=VERTEX_POINT('',#556);
#205=VERTEX_POINT('',#558);
#206=VERTEX_POINT('',#561);
#207=VERTEX_POINT('',#563);
#208=VERTEX_POINT('',#566);
#209=VERTEX_POINT('',#568);
#210=VERTEX_POINT('',#571);
#211=VERTEX_POINT('',#573);
#212=VERTEX_POINT('',#580);
#213=VERTEX_POINT('',#583);
#214=VERTEX_POINT('',#585);
#215=VERTEX_POINT('',#595);
#216=VERTEX_POINT('',#598);
#217=CIRCLE('',#367,8.5);
#218=CIRCLE('',#368,8.5);
#219=CIRCLE('',#369,6.);
#220=CIRCLE('',#371,8.5);
#221=CIRCLE('',#372,8.5);
#222=CIRCLE('',#373,8.5);
#223=CIRCLE('',#378,2.75);
#224=CIRCLE('',#379,2.75);
#225=CIRCLE('',#381,2.75);
#226=CIRCLE('',#382,2.75);
#227=CIRCLE('',#384,2.75);
#228=CIRCLE('',#385,2.75);
#229=CIRCLE('',#387,2.75);
#230=CIRCLE('',#388,2.75);
#231=CIRCLE('',#392,13.);
#232=CIRCLE('',#394,6.);
#233=CIRCLE('',#395,13.);
#234=CIRCLE('',#402,5.3235);
#235=CIRCLE('',#404,5.3235);
#236=EDGE_LOOP('',(#69,#70,#71,#72));
#237=EDGE_LOOP('',(#73));
#238=EDGE_LOOP('',(#74));
#239=EDGE_LOOP('',(#75,#76,#77,#78,#79,#80,#81,#82));
#240=EDGE_LOOP('',(#83,#84,#85,#86));
#241=EDGE_LOOP('',(#87,#88,#89,#90));
#242=EDGE_LOOP('',(#91,#92,#93,#94));
#243=EDGE_LOOP('',(#95));
#244=EDGE_LOOP('',(#96));
#245=EDGE_LOOP('',(#97));
#246=EDGE_LOOP('',(#98));
#247=EDGE_LOOP('',(#99));
#248=EDGE_LOOP('',(#100));
#249=EDGE_LOOP('',(#101));
#250=EDGE_LOOP('',(#102));
#251=EDGE_LOOP('',(#103,#104,#105,#106));
#252=EDGE_LOOP('',(#107));
#253=EDGE_LOOP('',(#108));
#254=EDGE_LOOP('',(#109));
#255=EDGE_LOOP('',(#110));
#256=EDGE_LOOP('',(#111));
#257=EDGE_LOOP('',(#112,#113,#114,#115));
#258=EDGE_LOOP('',(#116));
#259=EDGE_LOOP('',(#117));
#260=EDGE_LOOP('',(#118));
#261=EDGE_LOOP('',(#119));
#262=EDGE_LOOP('',(#120));
#263=EDGE_LOOP('',(#121,#122,#123,#124));
#264=EDGE_LOOP('',(#125));
#265=EDGE_LOOP('',(#126));
#266=EDGE_LOOP('',(#127));
#267=EDGE_LOOP('',(#128));
#268=EDGE_LOOP('',(#129,#130));
#269=EDGE_LOOP('',(#131,#132,#133,#134));
#270=EDGE_LOOP('',(#135,#136,#137,#138));
#271=EDGE_LOOP('',(#139,#140));
#272=EDGE_LOOP('',(#141));
#273=EDGE_LOOP('',(#142));
#274=EDGE_LOOP('',(#143));
#275=EDGE_LOOP('',(#144));
#276=EDGE_LOOP('',(#145));
#277=EDGE_LOOP('',(#146));
#278=FACE_BOUND('',#236,.T.);
#279=FACE_BOUND('',#237,.T.);
#280=FACE_BOUND('',#238,.T.);
#281=FACE_BOUND('',#239,.T.);
#282=FACE_BOUND('',#240,.T.);
#283=FACE_BOUND('',#241,.T.);
#284=FACE_BOUND('',#242,.T.);
#285=FACE_BOUND('',#243,.T.);
#286=FACE_BOUND('',#244,.T.);
#287=FACE_BOUND('',#245,.T.);
#288=FACE_BOUND('',#246,.T.);
#289=FACE_BOUND('',#247,.T.);
#290=FACE_BOUND('',#248,.T.);
#291=FACE_BOUND('',#249,.T.);
#292=FACE_BOUND('',#250,.T.);
#293=FACE_BOUND('',#251,.T.);
#294=FACE_BOUND('',#252,.T.);
#295=FACE_BOUND('',#253,.T.);
#296=FACE_BOUND('',#254,.T.);
#297=FACE_BOUND('',#255,.T.);
#298=FACE_BOUND('',#256,.T.);
#299=FACE_BOUND('',#257,.T.);
#300=FACE_BOUND('',#258,.T.);
#301=FACE_BOUND('',#259,.T.);
#302=FACE_BOUND('',#260,.T.);
#303=FACE_BOUND('',#261,.T.);
#304=FACE_BOUND('',#262,.T.);
#305=FACE_BOUND('',#263,.T.);
#306=FACE_BOUND('',#264,.T.);
#307=FACE_BOUND('',#265,.T.);
#308=FACE_BOUND('',#266,.T.);
#309=FACE_BOUND('',#267,.T.);
#310=FACE_BOUND('',#268,.T.);
#311=FACE_BOUND('',#269,.T.);
#312=FACE_BOUND('',#270,.T.);
#313=FACE_BOUND('',#271,.T.);
#314=FACE_BOUND('',#272,.T.);
#315=FACE_BOUND('',#273,.T.);
#316=FACE_BOUND('',#274,.T.);
#317=FACE_BOUND('',#275,.T.);
#318=FACE_BOUND('',#276,.T.);
#319=FACE_BOUND('',#277,.T.);
#320=PLANE('',#366);
#321=PLANE('',#374);
#322=PLANE('',#375);
#323=PLANE('',#376);
#324=PLANE('',#389);
#325=PLANE('',#390);
#326=PLANE('',#391);
#327=PLANE('',#393);
#328=PLANE('',#397);
#329=PLANE('',#398);
#330=PLANE('',#399);
#331=PLANE('',#400);
#332=ADVANCED_FACE('',(#278,#279),#320,.F.);
#333=ADVANCED_FACE('',(#280,#281),#22,.T.);
#334=ADVANCED_FACE('',(#282),#321,.F.);
#335=ADVANCED_FACE('',(#283),#322,.F.);
#336=ADVANCED_FACE('',(#284),#323,.F.);
#337=ADVANCED_FACE('',(#285,#286),#23,.F.);
#338=ADVANCED_FACE('',(#287,#288),#24,.F.);
#339=ADVANCED_FACE('',(#289,#290),#25,.F.);
#340=ADVANCED_FACE('',(#291,#292),#26,.F.);
#341=ADVANCED_FACE('',(#293),#324,.F.);
#342=ADVANCED_FACE('',(#294,#295,#296,#297,#298,#299),#325,.T.);
#343=ADVANCED_FACE('',(#300,#301,#302,#303,#304,#305),#326,.F.);
#344=ADVANCED_FACE('',(#306,#307),#327,.F.);
#345=ADVANCED_FACE('',(#308,#309),#27,.T.);
#346=ADVANCED_FACE('',(#310),#328,.T.);
#347=ADVANCED_FACE('',(#311),#329,.T.);
#348=ADVANCED_FACE('',(#312),#330,.T.);
#349=ADVANCED_FACE('',(#313),#331,.T.);
#350=ADVANCED_FACE('',(#314,#315),#20,.F.);
#351=ADVANCED_FACE('',(#316,#317),#28,.F.);
#352=ADVANCED_FACE('',(#318,#319),#21,.F.);
#353=CLOSED_SHELL('',(#332,#333,#334,#335,#336,#337,#338,#339,#340,#341,
#342,#343,#344,#345,#346,#347,#348,#349,#350,#351,#352));
#354=STYLED_ITEM('',(#355),#362);
#355=PRESENTATION_STYLE_ASSIGNMENT((#356));
#356=SURFACE_STYLE_USAGE(.BOTH.,#357);
#357=SURFACE_SIDE_STYLE('',(#358));
#358=SURFACE_STYLE_FILL_AREA(#359);
#359=FILL_AREA_STYLE('',(#360));
#360=FILL_AREA_STYLE_COLOUR('',#361);
#361=COLOUR_RGB('',0.689999997615814,0.689999997615814,0.689999997615814);
#362=MANIFOLD_SOLID_BREP('36126 KSZ-M12x1,25',#353);
#363=SHAPE_DEFINITION_REPRESENTATION(#606,#364);
#364=SHAPE_REPRESENTATION('36126 KSZ-M12x1,25',(#365),#601);
#365=AXIS2_PLACEMENT_3D('',#508,#406,#407);
#366=AXIS2_PLACEMENT_3D('',#509,#408,#409);
#367=AXIS2_PLACEMENT_3D('',#510,#410,#411);
#368=AXIS2_PLACEMENT_3D('',#515,#413,#414);
#369=AXIS2_PLACEMENT_3D('',#518,#416,#417);
#370=AXIS2_PLACEMENT_3D('',#520,#418,#419);
#371=AXIS2_PLACEMENT_3D('',#521,#420,#421);
#372=AXIS2_PLACEMENT_3D('',#527,#424,#425);
#373=AXIS2_PLACEMENT_3D('',#532,#428,#429);
#374=AXIS2_PLACEMENT_3D('',#533,#430,#431);
#375=AXIS2_PLACEMENT_3D('',#542,#436,#437);
#376=AXIS2_PLACEMENT_3D('',#548,#441,#442);
#377=AXIS2_PLACEMENT_3D('',#554,#446,#447);
#378=AXIS2_PLACEMENT_3D('',#555,#448,#449);
#379=AXIS2_PLACEMENT_3D('',#557,#450,#451);
#380=AXIS2_PLACEMENT_3D('',#559,#452,#453);
#381=AXIS2_PLACEMENT_3D('',#560,#454,#455);
#382=AXIS2_PLACEMENT_3D('',#562,#456,#457);
#383=AXIS2_PLACEMENT_3D('',#564,#458,#459);
#384=AXIS2_PLACEMENT_3D('',#565,#460,#461);
#385=AXIS2_PLACEMENT_3D('',#567,#462,#463);
#386=AXIS2_PLACEMENT_3D('',#569,#464,#465);
#387=AXIS2_PLACEMENT_3D('',#570,#466,#467);
#388=AXIS2_PLACEMENT_3D('',#572,#468,#469);
#389=AXIS2_PLACEMENT_3D('',#574,#470,#471);
#390=AXIS2_PLACEMENT_3D('',#577,#474,#475);
#391=AXIS2_PLACEMENT_3D('',#578,#476,#477);
#392=AXIS2_PLACEMENT_3D('',#579,#478,#479);
#393=AXIS2_PLACEMENT_3D('',#581,#480,#481);
#394=AXIS2_PLACEMENT_3D('',#582,#482,#483);
#395=AXIS2_PLACEMENT_3D('',#584,#484,#485);
#396=AXIS2_PLACEMENT_3D('',#586,#486,#487);
#397=AXIS2_PLACEMENT_3D('',#587,#488,#489);
#398=AXIS2_PLACEMENT_3D('',#589,#491,#492);
#399=AXIS2_PLACEMENT_3D('',#590,#493,#494);
#400=AXIS2_PLACEMENT_3D('',#592,#496,#497);
#401=AXIS2_PLACEMENT_3D('',#593,#498,#499);
#402=AXIS2_PLACEMENT_3D('',#594,#500,#501);
#403=AXIS2_PLACEMENT_3D('',#596,#502,#503);
#404=AXIS2_PLACEMENT_3D('',#597,#504,#505);
#405=AXIS2_PLACEMENT_3D('',#599,#506,#507);
#406=DIRECTION('',(0.,0.,1.));
#407=DIRECTION('',(1.,0.,0.));
#408=DIRECTION('',(0.,-1.,0.));
#409=DIRECTION('',(0.,0.,-1.));
#410=DIRECTION('',(0.,-1.,0.));
#411=DIRECTION('',(0.,0.,-1.));
#412=DIRECTION('',(1.,0.,0.));
#413=DIRECTION('',(0.,-1.,0.));
#414=DIRECTION('',(0.,0.,-1.));
#415=DIRECTION('',(-1.,0.,0.));
#416=DIRECTION('',(0.,-1.,0.));
#417=DIRECTION('',(0.,0.,-1.));
#418=DIRECTION('',(0.,-1.,0.));
#419=DIRECTION('',(0.,0.,-1.));
#420=DIRECTION('',(0.,1.,0.));
#421=DIRECTION('',(0.,0.,1.));
#422=DIRECTION('',(0.,-1.,0.));
#423=DIRECTION('',(0.,-1.,0.));
#424=DIRECTION('',(0.,1.,0.));
#425=DIRECTION('',(0.,0.,1.));
#426=DIRECTION('',(0.,-1.,0.));
#427=DIRECTION('',(0.,-1.,0.));
#428=DIRECTION('',(0.,1.,0.));
#429=DIRECTION('',(0.,0.,1.));
#430=DIRECTION('',(1.,0.,0.));
#431=DIRECTION('',(0.,0.,-1.));
#432=DIRECTION('',(0.,0.,1.));
#433=DIRECTION('',(0.,-1.,0.));
#434=DIRECTION('',(0.,0.,1.));
#435=DIRECTION('',(0.,-1.,0.));
#436=DIRECTION('',(0.,0.,-1.));
#437=DIRECTION('',(-1.,0.,0.));
#438=DIRECTION('',(1.,0.,0.));
#439=DIRECTION('',(0.,-1.,0.));
#440=DIRECTION('',(1.,0.,0.));
#441=DIRECTION('',(-1.,0.,0.));
#442=DIRECTION('',(0.,0.,1.));
#443=DIRECTION('',(0.,0.,-1.));
#444=DIRECTION('',(0.,-1.,0.));
#445=DIRECTION('',(0.,0.,-1.));
#446=DIRECTION('',(0.,-1.,0.));
#447=DIRECTION('',(0.,0.,-1.));
#448=DIRECTION('',(0.,1.,0.));
#449=DIRECTION('',(1.,0.,0.));
#450=DIRECTION('',(0.,1.,0.));
#451=DIRECTION('',(1.,0.,0.));
#452=DIRECTION('',(0.,-1.,0.));
#453=DIRECTION('',(0.,0.,-1.));
#454=DIRECTION('',(0.,1.,0.));
#455=DIRECTION('',(1.,0.,0.));
#456=DIRECTION('',(0.,1.,0.));
#457=DIRECTION('',(1.,0.,0.));
#458=DIRECTION('',(0.,-1.,0.));
#459=DIRECTION('',(0.,0.,-1.));
#460=DIRECTION('',(0.,1.,0.));
#461=DIRECTION('',(1.,0.,0.));
#462=DIRECTION('',(0.,1.,0.));
#463=DIRECTION('',(1.,0.,0.));
#464=DIRECTION('',(0.,-1.,0.));
#465=DIRECTION('',(0.,0.,-1.));
#466=DIRECTION('',(0.,1.,0.));
#467=DIRECTION('',(1.,0.,0.));
#468=DIRECTION('',(0.,1.,0.));
#469=DIRECTION('',(1.,0.,0.));
#470=DIRECTION('',(0.,0.,1.));
#471=DIRECTION('',(1.,0.,0.));
#472=DIRECTION('',(-1.,0.,0.));
#473=DIRECTION('',(-1.,0.,0.));
#474=DIRECTION('',(0.,1.,0.));
#475=DIRECTION('',(0.,0.,1.));
#476=DIRECTION('',(0.,1.,0.));
#477=DIRECTION('',(0.,0.,1.));
#478=DIRECTION('',(0.,1.,0.));
#479=DIRECTION('',(0.,0.,1.));
#480=DIRECTION('',(0.,1.,0.));
#481=DIRECTION('',(0.,0.,1.));
#482=DIRECTION('',(0.,-1.,0.));
#483=DIRECTION('',(0.,0.,-1.));
#484=DIRECTION('',(0.,-1.,0.));
#485=DIRECTION('',(0.,0.,-1.));
#486=DIRECTION('',(0.,-1.,0.));
#487=DIRECTION('',(0.,0.,-1.));
#488=DIRECTION('',(0.,1.,0.));
#489=DIRECTION('',(0.,0.,1.));
#490=DIRECTION('',(-1.,0.,0.));
#491=DIRECTION('',(0.,0.,1.));
#492=DIRECTION('',(1.,0.,0.));
#493=DIRECTION('',(0.,0.,-1.));
#494=DIRECTION('',(-1.,0.,0.));
#495=DIRECTION('',(1.,0.,0.));
#496=DIRECTION('',(0.,1.,0.));
#497=DIRECTION('',(0.,0.,1.));
#498=DIRECTION('',(0.,1.,0.));
#499=DIRECTION('',(0.,0.,1.));
#500=DIRECTION('',(0.,-1.,0.));
#501=DIRECTION('',(0.,0.,-1.));
#502=DIRECTION('',(0.,-1.,0.));
#503=DIRECTION('',(0.,0.,-1.));
#504=DIRECTION('',(0.,-1.,0.));
#505=DIRECTION('',(0.,0.,-1.));
#506=DIRECTION('',(0.,-1.,0.));
#507=DIRECTION('',(0.,0.,-1.));
#508=CARTESIAN_POINT('',(0.,0.,0.));
#509=CARTESIAN_POINT('',(0.,21.85,0.));
#510=CARTESIAN_POINT('',(0.,21.85,0.));
#511=CARTESIAN_POINT('',(4.,21.85,-7.5));
#512=CARTESIAN_POINT('',(4.,21.85,7.5));
#513=CARTESIAN_POINT('',(0.,21.85,-7.5));
#514=CARTESIAN_POINT('',(-4.,21.85,-7.5));
#515=CARTESIAN_POINT('',(0.,21.85,0.));
#516=CARTESIAN_POINT('',(-4.,21.85,7.5));
#517=CARTESIAN_POINT('',(0.,21.85,7.5));
#518=CARTESIAN_POINT('',(0.,21.85,0.));
#519=CARTESIAN_POINT('',(0.,21.85,-6.));
#520=CARTESIAN_POINT('',(0.,-0.15,0.));
#521=CARTESIAN_POINT('',(0.,12.,0.));
#522=CARTESIAN_POINT('',(0.,12.,8.5));
#523=CARTESIAN_POINT('',(4.,-0.15,-7.5));
#524=CARTESIAN_POINT('',(4.,13.05,-7.5));
#525=CARTESIAN_POINT('',(4.,-0.15,7.5));
#526=CARTESIAN_POINT('',(4.,13.05,7.5));
#527=CARTESIAN_POINT('',(0.,13.05,0.));
#528=CARTESIAN_POINT('',(-4.,13.05,7.5));
#529=CARTESIAN_POINT('',(-4.,-0.15,7.5));
#530=CARTESIAN_POINT('',(-4.,-0.15,-7.5));
#531=CARTESIAN_POINT('',(-4.,13.05,-7.5));
#532=CARTESIAN_POINT('',(0.,13.05,0.));
#533=CARTESIAN_POINT('',(-25.,12.,-20.));
#534=CARTESIAN_POINT('',(-25.,0.,-20.));
#535=CARTESIAN_POINT('',(-25.,0.,-20.));
#536=CARTESIAN_POINT('',(-25.,0.,20.));
#537=CARTESIAN_POINT('',(-25.,12.,20.));
#538=CARTESIAN_POINT('',(-25.,12.,20.));
#539=CARTESIAN_POINT('',(-25.,12.,-20.));
#540=CARTESIAN_POINT('',(-25.,12.,-20.));
#541=CARTESIAN_POINT('',(-25.,12.,-20.));
#542=CARTESIAN_POINT('',(-25.,12.,20.));
#543=CARTESIAN_POINT('',(-25.,0.,20.));
#544=CARTESIAN_POINT('',(25.,0.,20.));
#545=CARTESIAN_POINT('',(25.,12.,20.));
#546=CARTESIAN_POINT('',(25.,12.,20.));
#547=CARTESIAN_POINT('',(-25.,12.,20.));
#548=CARTESIAN_POINT('',(25.,12.,20.));
#549=CARTESIAN_POINT('',(25.,0.,20.));
#550=CARTESIAN_POINT('',(25.,0.,-20.));
#551=CARTESIAN_POINT('',(25.,12.,-20.));
#552=CARTESIAN_POINT('',(25.,12.,-20.));
#553=CARTESIAN_POINT('',(25.,12.,20.));
#554=CARTESIAN_POINT('',(20.,12.,-15.));
#555=CARTESIAN_POINT('',(20.,12.,-15.));
#556=CARTESIAN_POINT('',(22.75,12.,-15.));
#557=CARTESIAN_POINT('',(20.,0.,-15.));
#558=CARTESIAN_POINT('',(22.75,0.,-15.));
#559=CARTESIAN_POINT('',(20.,12.,15.));
#560=CARTESIAN_POINT('',(20.,12.,15.));
#561=CARTESIAN_POINT('',(22.75,12.,15.));
#562=CARTESIAN_POINT('',(20.,0.,15.));
#563=CARTESIAN_POINT('',(22.75,0.,15.));
#564=CARTESIAN_POINT('',(-20.,12.,-15.));
#565=CARTESIAN_POINT('',(-20.,12.,-15.));
#566=CARTESIAN_POINT('',(-17.25,12.,-15.));
#567=CARTESIAN_POINT('',(-20.,0.,-15.));
#568=CARTESIAN_POINT('',(-17.25,0.,-15.));
#569=CARTESIAN_POINT('',(-20.,12.,15.));
#570=CARTESIAN_POINT('',(-20.,12.,15.));
#571=CARTESIAN_POINT('',(-17.25,12.,15.));
#572=CARTESIAN_POINT('',(-20.,0.,15.));
#573=CARTESIAN_POINT('',(-17.25,0.,15.));
#574=CARTESIAN_POINT('',(25.,12.,-20.));
#575=CARTESIAN_POINT('',(25.,0.,-20.));
#576=CARTESIAN_POINT('',(25.,12.,-20.));
#577=CARTESIAN_POINT('',(0.,12.,0.));
#578=CARTESIAN_POINT('',(0.,0.,0.));
#579=CARTESIAN_POINT('',(0.,0.,0.));
#580=CARTESIAN_POINT('',(0.,0.,13.));
#581=CARTESIAN_POINT('',(13.,-0.15,0.));
#582=CARTESIAN_POINT('',(0.,-0.149999999999999,0.));
#583=CARTESIAN_POINT('',(0.,-0.149999999999999,-6.));
#584=CARTESIAN_POINT('',(0.,-0.149999999999999,0.));
#585=CARTESIAN_POINT('',(0.,-0.149999999999999,-13.));
#586=CARTESIAN_POINT('',(0.,-0.15,0.));
#587=CARTESIAN_POINT('',(0.,13.05,0.));
#588=CARTESIAN_POINT('',(15.,13.05,7.5));
#589=CARTESIAN_POINT('',(15.,30.65,7.5));
#590=CARTESIAN_POINT('',(-13.5,30.65,-7.5));
#591=CARTESIAN_POINT('',(-13.5,13.05,-7.5));
#592=CARTESIAN_POINT('',(0.,13.05,0.));
#593=CARTESIAN_POINT('',(0.,21.85,0.));
#594=CARTESIAN_POINT('',(0.,21.1735,0.));
#595=CARTESIAN_POINT('',(0.,21.1735,-5.3235));
#596=CARTESIAN_POINT('',(0.,-0.15,0.));
#597=CARTESIAN_POINT('',(0.,0.526500000000003,0.));
#598=CARTESIAN_POINT('',(0.,0.526500000000003,-5.3235));
#599=CARTESIAN_POINT('',(0.,0.526500000000003,0.));
#600=MECHANICAL_DESIGN_GEOMETRIC_PRESENTATION_REPRESENTATION('',(#354),
#601);
#601=(
GEOMETRIC_REPRESENTATION_CONTEXT(3)
GLOBAL_UNCERTAINTY_ASSIGNED_CONTEXT((#602))
GLOBAL_UNIT_ASSIGNED_CONTEXT((#605,#604,#603))
REPRESENTATION_CONTEXT('36126 KSZ-M12x1,25','TOP_LEVEL_ASSEMBLY_PART')
);
#602=UNCERTAINTY_MEASURE_WITH_UNIT(LENGTH_MEASURE(0.005),#605,
'DISTANCE_ACCURACY_VALUE','Maximum Tolerance applied to model');
#603=(
NAMED_UNIT(*)
SI_UNIT($,.STERADIAN.)
SOLID_ANGLE_UNIT()
);
#604=(
NAMED_UNIT(*)
PLANE_ANGLE_UNIT()
SI_UNIT($,.RADIAN.)
);
#605=(
LENGTH_UNIT()
NAMED_UNIT(*)
SI_UNIT(.MILLI.,.METRE.)
);
#606=PRODUCT_DEFINITION_SHAPE('','',#607);
#607=PRODUCT_DEFINITION('','',#609,#608);
#608=PRODUCT_DEFINITION_CONTEXT('',#615,'design');
#609=PRODUCT_DEFINITION_FORMATION_WITH_SPECIFIED_SOURCE('','',#611,
 .NOT_KNOWN.);
#610=PRODUCT_RELATED_PRODUCT_CATEGORY('','',(#611));
#611=PRODUCT('36126 KSZ-M12x1,25','36126 KSZ-M12x1,25',
'36126 KSZ-M12x1,25',(#613));
#612=PRODUCT_CATEGORY('','');
#613=PRODUCT_CONTEXT('',#615,'mechanical');
#614=APPLICATION_PROTOCOL_DEFINITION('international standard',
'automotive_design',2010,#615);
#615=APPLICATION_CONTEXT(
'core data for automotive mechanical design processes');
ENDSEC;
END-ISO-10303-21;
