ISO-10303-21;
HEADER;
/* Generated by software containing ST-Developer
 * from STEP Tools, Inc. (www.steptools.com) 
 */
/* OPTION: using custom renumber hook */

FILE_DESCRIPTION(
/* description */ ('STEP AP214'),
/* implementation_level */ '2;1');

FILE_NAME(
/* name */ '36486_EB-145-60',
/* time_stamp */ '2024-08-27T10:08:14+02:00',
/* author */ ('License CC BY-ND 4.0'),
/* organization */ ('CADENAS'),
/* preprocessor_version */ 'ST-DEVELOPER v19.3',
/* originating_system */ 'PARTsolutions',
/* authorisation */ '  ');

FILE_SCHEMA (('AUTOMOTIVE_DESIGN {1 0 10303 214 3 1 1}'));
ENDSEC;

DATA;
#10=PROPERTY_DEFINITION_REPRESENTATION(#14,#12);
#11=PROPERTY_DEFINITION_REPRESENTATION(#15,#13);
#12=REPRESENTATION('',(#16),#543);
#13=REPRESENTATION('',(#17),#543);
#14=PROPERTY_DEFINITION('pmi validation property','',#548);
#15=PROPERTY_DEFINITION('pmi validation property','',#548);
#16=VALUE_REPRESENTATION_ITEM('number of annotations',COUNT_MEASURE(0.));
#17=VALUE_REPRESENTATION_ITEM('number of views',COUNT_MEASURE(0.));
#18=SHAPE_REPRESENTATION_RELATIONSHIP('','',#368,#19);
#19=ADVANCED_BREP_SHAPE_REPRESENTATION('',(#366),#543);
#20=VERTEX_LOOP('',#104);
#21=VERTEX_LOOP('',#108);
#22=VERTEX_LOOP('',#111);
#23=CONICAL_SURFACE('',#391,4.283,0.785398163397442);
#24=CONICAL_SURFACE('',#392,0.,1.0471975511966);
#25=CONICAL_SURFACE('',#396,3.3235,0.785398163397451);
#26=CONICAL_SURFACE('',#397,4.,0.785398163397452);
#27=CONICAL_SURFACE('',#401,3.32349999999999,1.0471975511966);
#28=CONICAL_SURFACE('',#402,4.,0.785398163397447);
#29=CONICAL_SURFACE('',#406,3.32350000000001,1.0471975511966);
#30=CYLINDRICAL_SURFACE('',#389,4.283);
#31=CYLINDRICAL_SURFACE('',#394,3.3235);
#32=CYLINDRICAL_SURFACE('',#399,3.32349999999999);
#33=CYLINDRICAL_SURFACE('',#404,3.32350000000001);
#34=DEGENERATE_TOROIDAL_SURFACE('',#378,33.,39.,.T.);
#35=TOROIDAL_SURFACE('',#374,37.,8.);
#36=TOROIDAL_SURFACE('',#382,37.,8.);
#37=ORIENTED_EDGE('',*,*,#73,.F.);
#38=ORIENTED_EDGE('',*,*,#74,.F.);
#39=ORIENTED_EDGE('',*,*,#75,.F.);
#40=ORIENTED_EDGE('',*,*,#73,.T.);
#41=ORIENTED_EDGE('',*,*,#76,.F.);
#42=ORIENTED_EDGE('',*,*,#77,.F.);
#43=ORIENTED_EDGE('',*,*,#76,.T.);
#44=ORIENTED_EDGE('',*,*,#77,.T.);
#45=ORIENTED_EDGE('',*,*,#78,.F.);
#46=ORIENTED_EDGE('',*,*,#79,.F.);
#47=ORIENTED_EDGE('',*,*,#78,.T.);
#48=ORIENTED_EDGE('',*,*,#79,.T.);
#49=ORIENTED_EDGE('',*,*,#80,.F.);
#50=ORIENTED_EDGE('',*,*,#81,.F.);
#51=ORIENTED_EDGE('',*,*,#80,.T.);
#52=ORIENTED_EDGE('',*,*,#82,.T.);
#53=ORIENTED_EDGE('',*,*,#83,.T.);
#54=ORIENTED_EDGE('',*,*,#84,.T.);
#55=ORIENTED_EDGE('',*,*,#83,.F.);
#56=ORIENTED_EDGE('',*,*,#75,.T.);
#57=ORIENTED_EDGE('',*,*,#84,.F.);
#58=ORIENTED_EDGE('',*,*,#85,.T.);
#59=ORIENTED_EDGE('',*,*,#86,.T.);
#60=ORIENTED_EDGE('',*,*,#85,.F.);
#61=ORIENTED_EDGE('',*,*,#74,.T.);
#62=ORIENTED_EDGE('',*,*,#86,.F.);
#63=ORIENTED_EDGE('',*,*,#87,.T.);
#64=ORIENTED_EDGE('',*,*,#82,.F.);
#65=ORIENTED_EDGE('',*,*,#88,.T.);
#66=ORIENTED_EDGE('',*,*,#87,.F.);
#67=ORIENTED_EDGE('',*,*,#88,.F.);
#68=ORIENTED_EDGE('',*,*,#89,.T.);
#69=ORIENTED_EDGE('',*,*,#81,.T.);
#70=ORIENTED_EDGE('',*,*,#90,.T.);
#71=ORIENTED_EDGE('',*,*,#89,.F.);
#72=ORIENTED_EDGE('',*,*,#90,.F.);
#73=EDGE_CURVE('',#91,#91,#112,.T.);
#74=EDGE_CURVE('',#92,#92,#113,.F.);
#75=EDGE_CURVE('',#93,#93,#114,.T.);
#76=EDGE_CURVE('',#94,#94,#115,.T.);
#77=EDGE_CURVE('',#95,#95,#116,.T.);
#78=EDGE_CURVE('',#96,#96,#117,.T.);
#79=EDGE_CURVE('',#97,#97,#118,.T.);
#80=EDGE_CURVE('',#98,#98,#119,.T.);
#81=EDGE_CURVE('',#99,#99,#120,.F.);
#82=EDGE_CURVE('',#100,#100,#121,.T.);
#83=EDGE_CURVE('',#101,#101,#122,.T.);
#84=EDGE_CURVE('',#102,#102,#123,.T.);
#85=EDGE_CURVE('',#103,#103,#124,.T.);
#86=EDGE_CURVE('',#105,#105,#125,.T.);
#87=EDGE_CURVE('',#106,#106,#126,.T.);
#88=EDGE_CURVE('',#107,#107,#127,.T.);
#89=EDGE_CURVE('',#109,#109,#128,.T.);
#90=EDGE_CURVE('',#110,#110,#129,.T.);
#91=VERTEX_POINT('',#486);
#92=VERTEX_POINT('',#488);
#93=VERTEX_POINT('',#490);
#94=VERTEX_POINT('',#493);
#95=VERTEX_POINT('',#496);
#96=VERTEX_POINT('',#499);
#97=VERTEX_POINT('',#502);
#98=VERTEX_POINT('',#505);
#99=VERTEX_POINT('',#508);
#100=VERTEX_POINT('',#510);
#101=VERTEX_POINT('',#513);
#102=VERTEX_POINT('',#516);
#103=VERTEX_POINT('',#520);
#104=VERTEX_POINT('',#521);
#105=VERTEX_POINT('',#524);
#106=VERTEX_POINT('',#528);
#107=VERTEX_POINT('',#531);
#108=VERTEX_POINT('',#533);
#109=VERTEX_POINT('',#536);
#110=VERTEX_POINT('',#539);
#111=VERTEX_POINT('',#541);
#112=CIRCLE('',#371,37.);
#113=CIRCLE('',#372,4.);
#114=CIRCLE('',#373,4.864);
#115=CIRCLE('',#375,37.);
#116=CIRCLE('',#377,33.);
#117=CIRCLE('',#379,33.);
#118=CIRCLE('',#381,37.);
#119=CIRCLE('',#383,37.);
#120=CIRCLE('',#385,4.);
#121=CIRCLE('',#386,4.);
#122=CIRCLE('',#388,4.283);
#123=CIRCLE('',#390,4.283);
#124=CIRCLE('',#393,3.3235);
#125=CIRCLE('',#395,3.3235);
#126=CIRCLE('',#398,3.32349999999999);
#127=CIRCLE('',#400,3.32349999999999);
#128=CIRCLE('',#403,3.32350000000001);
#129=CIRCLE('',#405,3.32350000000001);
#130=EDGE_LOOP('',(#37));
#131=EDGE_LOOP('',(#38));
#132=EDGE_LOOP('',(#39));
#133=EDGE_LOOP('',(#40));
#134=EDGE_LOOP('',(#41));
#135=EDGE_LOOP('',(#42));
#136=EDGE_LOOP('',(#43));
#137=EDGE_LOOP('',(#44));
#138=EDGE_LOOP('',(#45));
#139=EDGE_LOOP('',(#46));
#140=EDGE_LOOP('',(#47));
#141=EDGE_LOOP('',(#48));
#142=EDGE_LOOP('',(#49));
#143=EDGE_LOOP('',(#50));
#144=EDGE_LOOP('',(#51));
#145=EDGE_LOOP('',(#52));
#146=EDGE_LOOP('',(#53));
#147=EDGE_LOOP('',(#54));
#148=EDGE_LOOP('',(#55));
#149=EDGE_LOOP('',(#56));
#150=EDGE_LOOP('',(#57));
#151=EDGE_LOOP('',(#58));
#152=EDGE_LOOP('',(#59));
#153=EDGE_LOOP('',(#60));
#154=EDGE_LOOP('',(#61));
#155=EDGE_LOOP('',(#62));
#156=EDGE_LOOP('',(#63));
#157=EDGE_LOOP('',(#64));
#158=EDGE_LOOP('',(#65));
#159=EDGE_LOOP('',(#66));
#160=EDGE_LOOP('',(#67));
#161=EDGE_LOOP('',(#68));
#162=EDGE_LOOP('',(#69));
#163=EDGE_LOOP('',(#70));
#164=EDGE_LOOP('',(#71));
#165=EDGE_LOOP('',(#72));
#166=FACE_BOUND('',#130,.T.);
#167=FACE_BOUND('',#131,.T.);
#168=FACE_BOUND('',#132,.T.);
#169=FACE_BOUND('',#133,.T.);
#170=FACE_BOUND('',#134,.T.);
#171=FACE_BOUND('',#135,.T.);
#172=FACE_BOUND('',#136,.T.);
#173=FACE_BOUND('',#137,.T.);
#174=FACE_BOUND('',#138,.T.);
#175=FACE_BOUND('',#139,.T.);
#176=FACE_BOUND('',#140,.T.);
#177=FACE_BOUND('',#141,.T.);
#178=FACE_BOUND('',#142,.T.);
#179=FACE_BOUND('',#143,.T.);
#180=FACE_BOUND('',#144,.T.);
#181=FACE_BOUND('',#145,.T.);
#182=FACE_BOUND('',#146,.T.);
#183=FACE_BOUND('',#147,.T.);
#184=FACE_BOUND('',#148,.T.);
#185=FACE_BOUND('',#149,.T.);
#186=FACE_BOUND('',#150,.T.);
#187=FACE_BOUND('',#151,.T.);
#188=FACE_BOUND('',#20,.T.);
#189=FACE_BOUND('',#152,.T.);
#190=FACE_BOUND('',#153,.T.);
#191=FACE_BOUND('',#154,.T.);
#192=FACE_BOUND('',#155,.T.);
#193=FACE_BOUND('',#156,.T.);
#194=FACE_BOUND('',#157,.T.);
#195=FACE_BOUND('',#158,.T.);
#196=FACE_BOUND('',#159,.T.);
#197=FACE_BOUND('',#21,.T.);
#198=FACE_BOUND('',#160,.T.);
#199=FACE_BOUND('',#161,.T.);
#200=FACE_BOUND('',#162,.T.);
#201=FACE_BOUND('',#163,.T.);
#202=FACE_BOUND('',#164,.T.);
#203=FACE_BOUND('',#22,.T.);
#204=FACE_BOUND('',#165,.T.);
#205=PLANE('',#370);
#206=PLANE('',#376);
#207=PLANE('',#380);
#208=PLANE('',#384);
#209=PLANE('',#387);
#210=STYLED_ITEM('',(#229),#346);
#211=STYLED_ITEM('',(#230),#347);
#212=STYLED_ITEM('',(#231),#348);
#213=STYLED_ITEM('',(#232),#349);
#214=STYLED_ITEM('',(#233),#350);
#215=STYLED_ITEM('',(#234),#351);
#216=STYLED_ITEM('',(#235),#352);
#217=STYLED_ITEM('',(#236),#353);
#218=STYLED_ITEM('',(#237),#354);
#219=STYLED_ITEM('',(#238),#355);
#220=STYLED_ITEM('',(#239),#356);
#221=STYLED_ITEM('',(#240),#357);
#222=STYLED_ITEM('',(#241),#358);
#223=STYLED_ITEM('',(#242),#359);
#224=STYLED_ITEM('',(#243),#360);
#225=STYLED_ITEM('',(#244),#361);
#226=STYLED_ITEM('',(#245),#362);
#227=STYLED_ITEM('',(#246),#363);
#228=STYLED_ITEM('',(#247),#364);
#229=PRESENTATION_STYLE_ASSIGNMENT((#248));
#230=PRESENTATION_STYLE_ASSIGNMENT((#249));
#231=PRESENTATION_STYLE_ASSIGNMENT((#250));
#232=PRESENTATION_STYLE_ASSIGNMENT((#251));
#233=PRESENTATION_STYLE_ASSIGNMENT((#252));
#234=PRESENTATION_STYLE_ASSIGNMENT((#253));
#235=PRESENTATION_STYLE_ASSIGNMENT((#254));
#236=PRESENTATION_STYLE_ASSIGNMENT((#255));
#237=PRESENTATION_STYLE_ASSIGNMENT((#256));
#238=PRESENTATION_STYLE_ASSIGNMENT((#257));
#239=PRESENTATION_STYLE_ASSIGNMENT((#258));
#240=PRESENTATION_STYLE_ASSIGNMENT((#259));
#241=PRESENTATION_STYLE_ASSIGNMENT((#260));
#242=PRESENTATION_STYLE_ASSIGNMENT((#261));
#243=PRESENTATION_STYLE_ASSIGNMENT((#262));
#244=PRESENTATION_STYLE_ASSIGNMENT((#263));
#245=PRESENTATION_STYLE_ASSIGNMENT((#264));
#246=PRESENTATION_STYLE_ASSIGNMENT((#265));
#247=PRESENTATION_STYLE_ASSIGNMENT((#266));
#248=SURFACE_STYLE_USAGE(.BOTH.,#267);
#249=SURFACE_STYLE_USAGE(.BOTH.,#268);
#250=SURFACE_STYLE_USAGE(.BOTH.,#269);
#251=SURFACE_STYLE_USAGE(.BOTH.,#270);
#252=SURFACE_STYLE_USAGE(.BOTH.,#271);
#253=SURFACE_STYLE_USAGE(.BOTH.,#272);
#254=SURFACE_STYLE_USAGE(.BOTH.,#273);
#255=SURFACE_STYLE_USAGE(.BOTH.,#274);
#256=SURFACE_STYLE_USAGE(.BOTH.,#275);
#257=SURFACE_STYLE_USAGE(.BOTH.,#276);
#258=SURFACE_STYLE_USAGE(.BOTH.,#277);
#259=SURFACE_STYLE_USAGE(.BOTH.,#278);
#260=SURFACE_STYLE_USAGE(.BOTH.,#279);
#261=SURFACE_STYLE_USAGE(.BOTH.,#280);
#262=SURFACE_STYLE_USAGE(.BOTH.,#281);
#263=SURFACE_STYLE_USAGE(.BOTH.,#282);
#264=SURFACE_STYLE_USAGE(.BOTH.,#283);
#265=SURFACE_STYLE_USAGE(.BOTH.,#284);
#266=SURFACE_STYLE_USAGE(.BOTH.,#285);
#267=SURFACE_SIDE_STYLE('',(#286));
#268=SURFACE_SIDE_STYLE('',(#287));
#269=SURFACE_SIDE_STYLE('',(#288));
#270=SURFACE_SIDE_STYLE('',(#289));
#271=SURFACE_SIDE_STYLE('',(#290));
#272=SURFACE_SIDE_STYLE('',(#291));
#273=SURFACE_SIDE_STYLE('',(#292));
#274=SURFACE_SIDE_STYLE('',(#293));
#275=SURFACE_SIDE_STYLE('',(#294));
#276=SURFACE_SIDE_STYLE('',(#295));
#277=SURFACE_SIDE_STYLE('',(#296));
#278=SURFACE_SIDE_STYLE('',(#297));
#279=SURFACE_SIDE_STYLE('',(#298));
#280=SURFACE_SIDE_STYLE('',(#299));
#281=SURFACE_SIDE_STYLE('',(#300));
#282=SURFACE_SIDE_STYLE('',(#301));
#283=SURFACE_SIDE_STYLE('',(#302));
#284=SURFACE_SIDE_STYLE('',(#303));
#285=SURFACE_SIDE_STYLE('',(#304));
#286=SURFACE_STYLE_FILL_AREA(#305);
#287=SURFACE_STYLE_FILL_AREA(#306);
#288=SURFACE_STYLE_FILL_AREA(#307);
#289=SURFACE_STYLE_FILL_AREA(#308);
#290=SURFACE_STYLE_FILL_AREA(#309);
#291=SURFACE_STYLE_FILL_AREA(#310);
#292=SURFACE_STYLE_FILL_AREA(#311);
#293=SURFACE_STYLE_FILL_AREA(#312);
#294=SURFACE_STYLE_FILL_AREA(#313);
#295=SURFACE_STYLE_FILL_AREA(#314);
#296=SURFACE_STYLE_FILL_AREA(#315);
#297=SURFACE_STYLE_FILL_AREA(#316);
#298=SURFACE_STYLE_FILL_AREA(#317);
#299=SURFACE_STYLE_FILL_AREA(#318);
#300=SURFACE_STYLE_FILL_AREA(#319);
#301=SURFACE_STYLE_FILL_AREA(#320);
#302=SURFACE_STYLE_FILL_AREA(#321);
#303=SURFACE_STYLE_FILL_AREA(#322);
#304=SURFACE_STYLE_FILL_AREA(#323);
#305=FILL_AREA_STYLE('',(#324));
#306=FILL_AREA_STYLE('',(#325));
#307=FILL_AREA_STYLE('',(#326));
#308=FILL_AREA_STYLE('',(#327));
#309=FILL_AREA_STYLE('',(#328));
#310=FILL_AREA_STYLE('',(#329));
#311=FILL_AREA_STYLE('',(#330));
#312=FILL_AREA_STYLE('',(#331));
#313=FILL_AREA_STYLE('',(#332));
#314=FILL_AREA_STYLE('',(#333));
#315=FILL_AREA_STYLE('',(#334));
#316=FILL_AREA_STYLE('',(#335));
#317=FILL_AREA_STYLE('',(#336));
#318=FILL_AREA_STYLE('',(#337));
#319=FILL_AREA_STYLE('',(#338));
#320=FILL_AREA_STYLE('',(#339));
#321=FILL_AREA_STYLE('',(#340));
#322=FILL_AREA_STYLE('',(#341));
#323=FILL_AREA_STYLE('',(#342));
#324=FILL_AREA_STYLE_COLOUR('',#343);
#325=FILL_AREA_STYLE_COLOUR('',#343);
#326=FILL_AREA_STYLE_COLOUR('',#344);
#327=FILL_AREA_STYLE_COLOUR('',#344);
#328=FILL_AREA_STYLE_COLOUR('',#344);
#329=FILL_AREA_STYLE_COLOUR('',#343);
#330=FILL_AREA_STYLE_COLOUR('',#343);
#331=FILL_AREA_STYLE_COLOUR('',#345);
#332=FILL_AREA_STYLE_COLOUR('',#345);
#333=FILL_AREA_STYLE_COLOUR('',#345);
#334=FILL_AREA_STYLE_COLOUR('',#345);
#335=FILL_AREA_STYLE_COLOUR('',#345);
#336=FILL_AREA_STYLE_COLOUR('',#345);
#337=FILL_AREA_STYLE_COLOUR('',#345);
#338=FILL_AREA_STYLE_COLOUR('',#345);
#339=FILL_AREA_STYLE_COLOUR('',#345);
#340=FILL_AREA_STYLE_COLOUR('',#345);
#341=FILL_AREA_STYLE_COLOUR('',#345);
#342=FILL_AREA_STYLE_COLOUR('',#345);
#343=COLOUR_RGB('',0.75300002098083,0.75300002098083,0.75300002098083);
#344=COLOUR_RGB('',0.31400001049042,0.31400001049042,0.31400001049042);
#345=COLOUR_RGB('',0.689999997615814,0.689999997615814,0.689999997615814);
#346=ADVANCED_FACE('',(#166,#167,#168),#205,.F.);
#347=ADVANCED_FACE('',(#169,#170),#35,.T.);
#348=ADVANCED_FACE('',(#171,#172),#206,.F.);
#349=ADVANCED_FACE('',(#173,#174),#34,.T.);
#350=ADVANCED_FACE('',(#175,#176),#207,.F.);
#351=ADVANCED_FACE('',(#177,#178),#36,.T.);
#352=ADVANCED_FACE('',(#179,#180,#181),#208,.F.);
#353=ADVANCED_FACE('',(#182),#209,.T.);
#354=ADVANCED_FACE('',(#183,#184),#30,.F.);
#355=ADVANCED_FACE('',(#185,#186),#23,.F.);
#356=ADVANCED_FACE('',(#187,#188),#24,.F.);
#357=ADVANCED_FACE('',(#189,#190),#31,.F.);
#358=ADVANCED_FACE('',(#191,#192),#25,.F.);
#359=ADVANCED_FACE('',(#193,#194),#26,.F.);
#360=ADVANCED_FACE('',(#195,#196),#32,.F.);
#361=ADVANCED_FACE('',(#197,#198),#27,.F.);
#362=ADVANCED_FACE('',(#199,#200),#28,.F.);
#363=ADVANCED_FACE('',(#201,#202),#33,.F.);
#364=ADVANCED_FACE('',(#203,#204),#29,.F.);
#365=CLOSED_SHELL('',(#346,#347,#348,#349,#350,#351,#352,#353,#354,#355,
#356,#357,#358,#359,#360,#361,#362,#363,#364));
#366=MANIFOLD_SOLID_BREP('36486 EB-145-60---(110)',#365);
#367=SHAPE_DEFINITION_REPRESENTATION(#548,#368);
#368=SHAPE_REPRESENTATION('36486 EB-145-60---(110)',(#369),#543);
#369=AXIS2_PLACEMENT_3D('',#483,#407,#408);
#370=AXIS2_PLACEMENT_3D('',#484,#409,#410);
#371=AXIS2_PLACEMENT_3D('',#485,#411,#412);
#372=AXIS2_PLACEMENT_3D('',#487,#413,#414);
#373=AXIS2_PLACEMENT_3D('',#489,#415,#416);
#374=AXIS2_PLACEMENT_3D('',#491,#417,#418);
#375=AXIS2_PLACEMENT_3D('',#492,#419,#420);
#376=AXIS2_PLACEMENT_3D('',#494,#421,#422);
#377=AXIS2_PLACEMENT_3D('',#495,#423,#424);
#378=AXIS2_PLACEMENT_3D('',#497,#425,#426);
#379=AXIS2_PLACEMENT_3D('',#498,#427,#428);
#380=AXIS2_PLACEMENT_3D('',#500,#429,#430);
#381=AXIS2_PLACEMENT_3D('',#501,#431,#432);
#382=AXIS2_PLACEMENT_3D('',#503,#433,#434);
#383=AXIS2_PLACEMENT_3D('',#504,#435,#436);
#384=AXIS2_PLACEMENT_3D('',#506,#437,#438);
#385=AXIS2_PLACEMENT_3D('',#507,#439,#440);
#386=AXIS2_PLACEMENT_3D('',#509,#441,#442);
#387=AXIS2_PLACEMENT_3D('',#511,#443,#444);
#388=AXIS2_PLACEMENT_3D('',#512,#445,#446);
#389=AXIS2_PLACEMENT_3D('',#514,#447,#448);
#390=AXIS2_PLACEMENT_3D('',#515,#449,#450);
#391=AXIS2_PLACEMENT_3D('',#517,#451,#452);
#392=AXIS2_PLACEMENT_3D('',#518,#453,#454);
#393=AXIS2_PLACEMENT_3D('',#519,#455,#456);
#394=AXIS2_PLACEMENT_3D('',#522,#457,#458);
#395=AXIS2_PLACEMENT_3D('',#523,#459,#460);
#396=AXIS2_PLACEMENT_3D('',#525,#461,#462);
#397=AXIS2_PLACEMENT_3D('',#526,#463,#464);
#398=AXIS2_PLACEMENT_3D('',#527,#465,#466);
#399=AXIS2_PLACEMENT_3D('',#529,#467,#468);
#400=AXIS2_PLACEMENT_3D('',#530,#469,#470);
#401=AXIS2_PLACEMENT_3D('',#532,#471,#472);
#402=AXIS2_PLACEMENT_3D('',#534,#473,#474);
#403=AXIS2_PLACEMENT_3D('',#535,#475,#476);
#404=AXIS2_PLACEMENT_3D('',#537,#477,#478);
#405=AXIS2_PLACEMENT_3D('',#538,#479,#480);
#406=AXIS2_PLACEMENT_3D('',#540,#481,#482);
#407=DIRECTION('',(0.,0.,1.));
#408=DIRECTION('',(1.,0.,0.));
#409=DIRECTION('',(0.,-1.,0.));
#410=DIRECTION('',(0.,0.,-1.));
#411=DIRECTION('',(0.,-1.,0.));
#412=DIRECTION('',(0.,0.,-1.));
#413=DIRECTION('',(0.,-1.,0.));
#414=DIRECTION('',(0.,0.,-1.));
#415=DIRECTION('',(0.,1.,0.));
#416=DIRECTION('',(0.,0.,1.));
#417=DIRECTION('',(0.,-1.,0.));
#418=DIRECTION('',(0.,0.,-1.));
#419=DIRECTION('',(0.,-1.,0.));
#420=DIRECTION('',(0.,0.,-1.));
#421=DIRECTION('',(0.,1.,0.));
#422=DIRECTION('',(0.,0.,1.));
#423=DIRECTION('',(0.,-1.,0.));
#424=DIRECTION('',(0.,0.,-1.));
#425=DIRECTION('',(0.,-1.,0.));
#426=DIRECTION('',(0.,0.,-1.));
#427=DIRECTION('',(0.,-1.,0.));
#428=DIRECTION('',(0.,0.,-1.));
#429=DIRECTION('',(0.,-1.,0.));
#430=DIRECTION('',(0.,0.,-1.));
#431=DIRECTION('',(0.,-1.,0.));
#432=DIRECTION('',(0.,0.,-1.));
#433=DIRECTION('',(0.,-1.,0.));
#434=DIRECTION('',(0.,0.,-1.));
#435=DIRECTION('',(0.,-1.,0.));
#436=DIRECTION('',(0.,0.,-1.));
#437=DIRECTION('',(0.,1.,0.));
#438=DIRECTION('',(0.,0.,1.));
#439=DIRECTION('',(0.,1.,0.));
#440=DIRECTION('',(0.,0.,1.));
#441=DIRECTION('',(0.,1.,0.));
#442=DIRECTION('',(0.,0.,1.));
#443=DIRECTION('',(0.,1.,0.));
#444=DIRECTION('',(0.,0.,1.));
#445=DIRECTION('',(0.,1.,0.));
#446=DIRECTION('',(0.,0.,1.));
#447=DIRECTION('',(0.,1.,0.));
#448=DIRECTION('',(0.,0.,1.));
#449=DIRECTION('',(0.,1.,0.));
#450=DIRECTION('',(0.,0.,1.));
#451=DIRECTION('',(0.,1.,0.));
#452=DIRECTION('',(0.,0.,1.));
#453=DIRECTION('',(0.,1.,0.));
#454=DIRECTION('',(0.,0.,1.));
#455=DIRECTION('',(0.,1.,0.));
#456=DIRECTION('',(0.,0.,1.));
#457=DIRECTION('',(0.,1.,0.));
#458=DIRECTION('',(0.,0.,1.));
#459=DIRECTION('',(0.,1.,0.));
#460=DIRECTION('',(0.,0.,1.));
#461=DIRECTION('',(0.,1.,0.));
#462=DIRECTION('',(0.,0.,1.));
#463=DIRECTION('',(0.,-1.,0.));
#464=DIRECTION('',(0.,0.,-1.));
#465=DIRECTION('',(0.,1.,0.));
#466=DIRECTION('',(0.,0.,1.));
#467=DIRECTION('',(0.,1.,0.));
#468=DIRECTION('',(0.,0.,1.));
#469=DIRECTION('',(0.,1.,0.));
#470=DIRECTION('',(0.,0.,1.));
#471=DIRECTION('',(0.,-1.,0.));
#472=DIRECTION('',(0.,0.,-1.));
#473=DIRECTION('',(0.,-1.,0.));
#474=DIRECTION('',(0.,0.,-1.));
#475=DIRECTION('',(0.,1.,0.));
#476=DIRECTION('',(0.,0.,1.));
#477=DIRECTION('',(0.,1.,0.));
#478=DIRECTION('',(0.,0.,1.));
#479=DIRECTION('',(0.,1.,0.));
#480=DIRECTION('',(0.,0.,1.));
#481=DIRECTION('',(0.,-1.,0.));
#482=DIRECTION('',(0.,0.,-1.));
#483=CARTESIAN_POINT('',(0.,0.,0.));
#484=CARTESIAN_POINT('',(0.,55.,0.));
#485=CARTESIAN_POINT('',(0.,55.,0.));
#486=CARTESIAN_POINT('',(0.,55.,-37.));
#487=CARTESIAN_POINT('',(10.,55.,0.));
#488=CARTESIAN_POINT('',(10.,55.,-4.));
#489=CARTESIAN_POINT('',(-10.,55.,0.));
#490=CARTESIAN_POINT('',(-10.,55.,4.864));
#491=CARTESIAN_POINT('',(0.,47.,0.));
#492=CARTESIAN_POINT('',(0.,39.,0.));
#493=CARTESIAN_POINT('',(0.,39.,-37.));
#494=CARTESIAN_POINT('',(37.,39.,0.));
#495=CARTESIAN_POINT('',(0.,39.,0.));
#496=CARTESIAN_POINT('',(0.,39.,-33.));
#497=CARTESIAN_POINT('',(0.,0.,0.));
#498=CARTESIAN_POINT('',(0.,-39.,0.));
#499=CARTESIAN_POINT('',(0.,-39.,-33.));
#500=CARTESIAN_POINT('',(33.,-39.,0.));
#501=CARTESIAN_POINT('',(0.,-39.,0.));
#502=CARTESIAN_POINT('',(0.,-39.,-37.));
#503=CARTESIAN_POINT('',(0.,-47.,0.));
#504=CARTESIAN_POINT('',(0.,-55.,0.));
#505=CARTESIAN_POINT('',(0.,-55.,-37.));
#506=CARTESIAN_POINT('',(37.,-55.,0.));
#507=CARTESIAN_POINT('',(10.,-55.,0.));
#508=CARTESIAN_POINT('',(10.,-55.,4.));
#509=CARTESIAN_POINT('',(-10.,-55.,0.));
#510=CARTESIAN_POINT('',(-10.,-55.,4.));
#511=CARTESIAN_POINT('',(-10.,39.,0.));
#512=CARTESIAN_POINT('',(-10.,39.,0.));
#513=CARTESIAN_POINT('',(-10.,39.,4.283));
#514=CARTESIAN_POINT('',(-10.,55.,0.));
#515=CARTESIAN_POINT('',(-10.,54.419,0.));
#516=CARTESIAN_POINT('',(-10.,54.419,4.283));
#517=CARTESIAN_POINT('',(-10.,54.419,0.));
#518=CARTESIAN_POINT('',(10.,38.0811763803483,0.));
#519=CARTESIAN_POINT('',(10.,40.,0.));
#520=CARTESIAN_POINT('',(10.,40.,3.3235));
#521=CARTESIAN_POINT('',(10.,38.0811763803483,0.));
#522=CARTESIAN_POINT('',(10.,55.,0.));
#523=CARTESIAN_POINT('',(10.,54.3235,0.));
#524=CARTESIAN_POINT('',(10.,54.3235,3.3235));
#525=CARTESIAN_POINT('',(10.,54.3235,0.));
#526=CARTESIAN_POINT('',(-10.,-55.,0.));
#527=CARTESIAN_POINT('',(-10.,-54.3235,0.));
#528=CARTESIAN_POINT('',(-10.,-54.3235,3.32349999999999));
#529=CARTESIAN_POINT('',(-10.,-38.0811763803483,0.));
#530=CARTESIAN_POINT('',(-10.,-40.,0.));
#531=CARTESIAN_POINT('',(-10.,-40.,3.32349999999999));
#532=CARTESIAN_POINT('',(-10.,-40.,0.));
#533=CARTESIAN_POINT('',(-10.,-38.0811763803483,0.));
#534=CARTESIAN_POINT('',(10.,-55.,0.));
#535=CARTESIAN_POINT('',(10.,-54.3235,0.));
#536=CARTESIAN_POINT('',(10.,-54.3235,3.32350000000001));
#537=CARTESIAN_POINT('',(10.,-38.0811763803483,0.));
#538=CARTESIAN_POINT('',(10.,-40.,0.));
#539=CARTESIAN_POINT('',(10.,-40.,3.32350000000001));
#540=CARTESIAN_POINT('',(10.,-40.,0.));
#541=CARTESIAN_POINT('',(10.,-38.0811763803483,0.));
#542=MECHANICAL_DESIGN_GEOMETRIC_PRESENTATION_REPRESENTATION('',(#210,#211,
#212,#213,#214,#215,#216,#217,#218,#219,#220,#221,#222,#223,#224,#225,#226,
#227,#228),#543);
#543=(
GEOMETRIC_REPRESENTATION_CONTEXT(3)
GLOBAL_UNCERTAINTY_ASSIGNED_CONTEXT((#544))
GLOBAL_UNIT_ASSIGNED_CONTEXT((#547,#546,#545))
REPRESENTATION_CONTEXT('36486 EB-145-60---(110)',
'TOP_LEVEL_ASSEMBLY_PART')
);
#544=UNCERTAINTY_MEASURE_WITH_UNIT(LENGTH_MEASURE(0.005),#547,
'DISTANCE_ACCURACY_VALUE','Maximum Tolerance applied to model');
#545=(
NAMED_UNIT(*)
SI_UNIT($,.STERADIAN.)
SOLID_ANGLE_UNIT()
);
#546=(
NAMED_UNIT(*)
PLANE_ANGLE_UNIT()
SI_UNIT($,.RADIAN.)
);
#547=(
LENGTH_UNIT()
NAMED_UNIT(*)
SI_UNIT(.MILLI.,.METRE.)
);
#548=PRODUCT_DEFINITION_SHAPE('','',#549);
#549=PRODUCT_DEFINITION('','',#551,#550);
#550=PRODUCT_DEFINITION_CONTEXT('',#557,'design');
#551=PRODUCT_DEFINITION_FORMATION_WITH_SPECIFIED_SOURCE('','',#553,
 .NOT_KNOWN.);
#552=PRODUCT_RELATED_PRODUCT_CATEGORY('','',(#553));
#553=PRODUCT('36486 EB-145-60---(110)','36486 EB-145-60---(110)',
'36486 EB-145-60---(110)',(#555));
#554=PRODUCT_CATEGORY('','');
#555=PRODUCT_CONTEXT('',#557,'mechanical');
#556=APPLICATION_PROTOCOL_DEFINITION('international standard',
'automotive_design',2010,#557);
#557=APPLICATION_CONTEXT(
'core data for automotive mechanical design processes');
ENDSEC;
END-ISO-10303-21;
