ISO-10303-21;
HEADER;
/* Generated by software containing ST-Developer
 * from STEP Tools, Inc. (www.steptools.com) 
 */
/* OPTION: using custom renumber hook */

FILE_DESCRIPTION(
/* description */ ('STEP AP214'),
/* implementation_level */ '2;1');

FILE_NAME(
/* name */ '36490_EB-145-100',
/* time_stamp */ '2024-08-27T11:55:41+02:00',
/* author */ ('License CC BY-ND 4.0'),
/* organization */ ('CADENAS'),
/* preprocessor_version */ 'ST-DEVELOPER v19.3',
/* originating_system */ 'PARTsolutions',
/* authorisation */ '  ');

FILE_SCHEMA (('AUTOMOTIVE_DESIGN {1 0 10303 214 3 1 1}'));
ENDSEC;

DATA;
#10=PROPERTY_DEFINITION_REPRESENTATION(#14,#12);
#11=PROPERTY_DEFINITION_REPRESENTATION(#15,#13);
#12=REPRESENTATION('',(#16),#758);
#13=REPRESENTATION('',(#17),#758);
#14=PROPERTY_DEFINITION('pmi validation property','',#763);
#15=PROPERTY_DEFINITION('pmi validation property','',#763);
#16=VALUE_REPRESENTATION_ITEM('number of annotations',COUNT_MEASURE(0.));
#17=VALUE_REPRESENTATION_ITEM('number of views',COUNT_MEASURE(0.));
#18=SHAPE_REPRESENTATION_RELATIONSHIP('','',#511,#19);
#19=ADVANCED_BREP_SHAPE_REPRESENTATION('',(#509),#758);
#20=VERTEX_LOOP('',#140);
#21=VERTEX_LOOP('',#143);
#22=VERTEX_LOOP('',#146);
#23=CONICAL_SURFACE('',#550,4.283,0.785398163397448);
#24=CONICAL_SURFACE('',#551,0.,1.0471975511966);
#25=CONICAL_SURFACE('',#555,3.3235,0.785398163397431);
#26=CONICAL_SURFACE('',#556,0.,1.0471975511966);
#27=CONICAL_SURFACE('',#560,3.3235,0.785398163397448);
#28=CONICAL_SURFACE('',#561,0.,1.0471975511966);
#29=CONICAL_SURFACE('',#565,3.3235,0.785398163397448);
#30=CYLINDRICAL_SURFACE('',#525,37.);
#31=CYLINDRICAL_SURFACE('',#529,40.);
#32=CYLINDRICAL_SURFACE('',#533,37.);
#33=CYLINDRICAL_SURFACE('',#548,4.283);
#34=CYLINDRICAL_SURFACE('',#553,3.3235);
#35=CYLINDRICAL_SURFACE('',#558,3.3235);
#36=CYLINDRICAL_SURFACE('',#563,3.3235);
#37=TOROIDAL_SURFACE('',#517,37.,8.00000000000001);
#38=TOROIDAL_SURFACE('',#521,41.,31.5);
#39=TOROIDAL_SURFACE('',#537,41.,31.5);
#40=TOROIDAL_SURFACE('',#541,37.,8.);
#41=ORIENTED_EDGE('',*,*,#93,.F.);
#42=ORIENTED_EDGE('',*,*,#94,.F.);
#43=ORIENTED_EDGE('',*,*,#95,.F.);
#44=ORIENTED_EDGE('',*,*,#93,.T.);
#45=ORIENTED_EDGE('',*,*,#96,.F.);
#46=ORIENTED_EDGE('',*,*,#97,.F.);
#47=ORIENTED_EDGE('',*,*,#96,.T.);
#48=ORIENTED_EDGE('',*,*,#97,.T.);
#49=ORIENTED_EDGE('',*,*,#98,.F.);
#50=ORIENTED_EDGE('',*,*,#99,.F.);
#51=ORIENTED_EDGE('',*,*,#98,.T.);
#52=ORIENTED_EDGE('',*,*,#100,.F.);
#53=ORIENTED_EDGE('',*,*,#99,.T.);
#54=ORIENTED_EDGE('',*,*,#101,.F.);
#55=ORIENTED_EDGE('',*,*,#100,.T.);
#56=ORIENTED_EDGE('',*,*,#102,.F.);
#57=ORIENTED_EDGE('',*,*,#101,.T.);
#58=ORIENTED_EDGE('',*,*,#103,.F.);
#59=ORIENTED_EDGE('',*,*,#102,.T.);
#60=ORIENTED_EDGE('',*,*,#104,.F.);
#61=ORIENTED_EDGE('',*,*,#103,.T.);
#62=ORIENTED_EDGE('',*,*,#105,.F.);
#63=ORIENTED_EDGE('',*,*,#104,.T.);
#64=ORIENTED_EDGE('',*,*,#105,.T.);
#65=ORIENTED_EDGE('',*,*,#106,.F.);
#66=ORIENTED_EDGE('',*,*,#107,.F.);
#67=ORIENTED_EDGE('',*,*,#106,.T.);
#68=ORIENTED_EDGE('',*,*,#107,.T.);
#69=ORIENTED_EDGE('',*,*,#108,.F.);
#70=ORIENTED_EDGE('',*,*,#109,.F.);
#71=ORIENTED_EDGE('',*,*,#108,.T.);
#72=ORIENTED_EDGE('',*,*,#110,.F.);
#73=ORIENTED_EDGE('',*,*,#111,.T.);
#74=ORIENTED_EDGE('',*,*,#112,.T.);
#75=ORIENTED_EDGE('',*,*,#111,.F.);
#76=ORIENTED_EDGE('',*,*,#95,.T.);
#77=ORIENTED_EDGE('',*,*,#112,.F.);
#78=ORIENTED_EDGE('',*,*,#113,.T.);
#79=ORIENTED_EDGE('',*,*,#114,.T.);
#80=ORIENTED_EDGE('',*,*,#113,.F.);
#81=ORIENTED_EDGE('',*,*,#94,.T.);
#82=ORIENTED_EDGE('',*,*,#114,.F.);
#83=ORIENTED_EDGE('',*,*,#115,.T.);
#84=ORIENTED_EDGE('',*,*,#116,.T.);
#85=ORIENTED_EDGE('',*,*,#115,.F.);
#86=ORIENTED_EDGE('',*,*,#110,.T.);
#87=ORIENTED_EDGE('',*,*,#116,.F.);
#88=ORIENTED_EDGE('',*,*,#117,.T.);
#89=ORIENTED_EDGE('',*,*,#118,.T.);
#90=ORIENTED_EDGE('',*,*,#117,.F.);
#91=ORIENTED_EDGE('',*,*,#109,.T.);
#92=ORIENTED_EDGE('',*,*,#118,.F.);
#93=EDGE_CURVE('',#119,#119,#148,.T.);
#94=EDGE_CURVE('',#120,#120,#149,.F.);
#95=EDGE_CURVE('',#121,#121,#150,.T.);
#96=EDGE_CURVE('',#122,#122,#151,.T.);
#97=EDGE_CURVE('',#123,#123,#152,.T.);
#98=EDGE_CURVE('',#124,#124,#153,.T.);
#99=EDGE_CURVE('',#125,#125,#154,.T.);
#100=EDGE_CURVE('',#126,#126,#155,.T.);
#101=EDGE_CURVE('',#127,#127,#156,.T.);
#102=EDGE_CURVE('',#128,#128,#157,.T.);
#103=EDGE_CURVE('',#129,#129,#158,.T.);
#104=EDGE_CURVE('',#130,#130,#159,.T.);
#105=EDGE_CURVE('',#131,#131,#160,.T.);
#106=EDGE_CURVE('',#132,#132,#161,.T.);
#107=EDGE_CURVE('',#133,#133,#162,.T.);
#108=EDGE_CURVE('',#134,#134,#163,.T.);
#109=EDGE_CURVE('',#135,#135,#164,.F.);
#110=EDGE_CURVE('',#136,#136,#165,.T.);
#111=EDGE_CURVE('',#137,#137,#166,.T.);
#112=EDGE_CURVE('',#138,#138,#167,.T.);
#113=EDGE_CURVE('',#139,#139,#168,.T.);
#114=EDGE_CURVE('',#141,#141,#169,.T.);
#115=EDGE_CURVE('',#142,#142,#170,.T.);
#116=EDGE_CURVE('',#144,#144,#171,.T.);
#117=EDGE_CURVE('',#145,#145,#172,.T.);
#118=EDGE_CURVE('',#147,#147,#173,.T.);
#119=VERTEX_POINT('',#677);
#120=VERTEX_POINT('',#679);
#121=VERTEX_POINT('',#681);
#122=VERTEX_POINT('',#684);
#123=VERTEX_POINT('',#687);
#124=VERTEX_POINT('',#690);
#125=VERTEX_POINT('',#693);
#126=VERTEX_POINT('',#696);
#127=VERTEX_POINT('',#699);
#128=VERTEX_POINT('',#702);
#129=VERTEX_POINT('',#705);
#130=VERTEX_POINT('',#708);
#131=VERTEX_POINT('',#711);
#132=VERTEX_POINT('',#714);
#133=VERTEX_POINT('',#717);
#134=VERTEX_POINT('',#720);
#135=VERTEX_POINT('',#723);
#136=VERTEX_POINT('',#725);
#137=VERTEX_POINT('',#728);
#138=VERTEX_POINT('',#731);
#139=VERTEX_POINT('',#735);
#140=VERTEX_POINT('',#736);
#141=VERTEX_POINT('',#739);
#142=VERTEX_POINT('',#743);
#143=VERTEX_POINT('',#744);
#144=VERTEX_POINT('',#747);
#145=VERTEX_POINT('',#751);
#146=VERTEX_POINT('',#752);
#147=VERTEX_POINT('',#755);
#148=CIRCLE('',#514,37.);
#149=CIRCLE('',#515,4.);
#150=CIRCLE('',#516,4.864);
#151=CIRCLE('',#518,37.);
#152=CIRCLE('',#520,41.);
#153=CIRCLE('',#522,41.);
#154=CIRCLE('',#524,37.);
#155=CIRCLE('',#526,37.);
#156=CIRCLE('',#528,40.);
#157=CIRCLE('',#530,40.);
#158=CIRCLE('',#532,37.);
#159=CIRCLE('',#534,37.);
#160=CIRCLE('',#536,41.);
#161=CIRCLE('',#538,41.);
#162=CIRCLE('',#540,37.);
#163=CIRCLE('',#542,37.);
#164=CIRCLE('',#544,4.);
#165=CIRCLE('',#545,4.);
#166=CIRCLE('',#547,4.283);
#167=CIRCLE('',#549,4.283);
#168=CIRCLE('',#552,3.3235);
#169=CIRCLE('',#554,3.3235);
#170=CIRCLE('',#557,3.3235);
#171=CIRCLE('',#559,3.3235);
#172=CIRCLE('',#562,3.3235);
#173=CIRCLE('',#564,3.3235);
#174=EDGE_LOOP('',(#41));
#175=EDGE_LOOP('',(#42));
#176=EDGE_LOOP('',(#43));
#177=EDGE_LOOP('',(#44));
#178=EDGE_LOOP('',(#45));
#179=EDGE_LOOP('',(#46));
#180=EDGE_LOOP('',(#47));
#181=EDGE_LOOP('',(#48));
#182=EDGE_LOOP('',(#49));
#183=EDGE_LOOP('',(#50));
#184=EDGE_LOOP('',(#51));
#185=EDGE_LOOP('',(#52));
#186=EDGE_LOOP('',(#53));
#187=EDGE_LOOP('',(#54));
#188=EDGE_LOOP('',(#55));
#189=EDGE_LOOP('',(#56));
#190=EDGE_LOOP('',(#57));
#191=EDGE_LOOP('',(#58));
#192=EDGE_LOOP('',(#59));
#193=EDGE_LOOP('',(#60));
#194=EDGE_LOOP('',(#61));
#195=EDGE_LOOP('',(#62));
#196=EDGE_LOOP('',(#63));
#197=EDGE_LOOP('',(#64));
#198=EDGE_LOOP('',(#65));
#199=EDGE_LOOP('',(#66));
#200=EDGE_LOOP('',(#67));
#201=EDGE_LOOP('',(#68));
#202=EDGE_LOOP('',(#69));
#203=EDGE_LOOP('',(#70));
#204=EDGE_LOOP('',(#71));
#205=EDGE_LOOP('',(#72));
#206=EDGE_LOOP('',(#73));
#207=EDGE_LOOP('',(#74));
#208=EDGE_LOOP('',(#75));
#209=EDGE_LOOP('',(#76));
#210=EDGE_LOOP('',(#77));
#211=EDGE_LOOP('',(#78));
#212=EDGE_LOOP('',(#79));
#213=EDGE_LOOP('',(#80));
#214=EDGE_LOOP('',(#81));
#215=EDGE_LOOP('',(#82));
#216=EDGE_LOOP('',(#83));
#217=EDGE_LOOP('',(#84));
#218=EDGE_LOOP('',(#85));
#219=EDGE_LOOP('',(#86));
#220=EDGE_LOOP('',(#87));
#221=EDGE_LOOP('',(#88));
#222=EDGE_LOOP('',(#89));
#223=EDGE_LOOP('',(#90));
#224=EDGE_LOOP('',(#91));
#225=EDGE_LOOP('',(#92));
#226=FACE_BOUND('',#174,.T.);
#227=FACE_BOUND('',#175,.T.);
#228=FACE_BOUND('',#176,.T.);
#229=FACE_BOUND('',#177,.T.);
#230=FACE_BOUND('',#178,.T.);
#231=FACE_BOUND('',#179,.T.);
#232=FACE_BOUND('',#180,.T.);
#233=FACE_BOUND('',#181,.T.);
#234=FACE_BOUND('',#182,.T.);
#235=FACE_BOUND('',#183,.T.);
#236=FACE_BOUND('',#184,.T.);
#237=FACE_BOUND('',#185,.T.);
#238=FACE_BOUND('',#186,.T.);
#239=FACE_BOUND('',#187,.T.);
#240=FACE_BOUND('',#188,.T.);
#241=FACE_BOUND('',#189,.T.);
#242=FACE_BOUND('',#190,.T.);
#243=FACE_BOUND('',#191,.T.);
#244=FACE_BOUND('',#192,.T.);
#245=FACE_BOUND('',#193,.T.);
#246=FACE_BOUND('',#194,.T.);
#247=FACE_BOUND('',#195,.T.);
#248=FACE_BOUND('',#196,.T.);
#249=FACE_BOUND('',#197,.T.);
#250=FACE_BOUND('',#198,.T.);
#251=FACE_BOUND('',#199,.T.);
#252=FACE_BOUND('',#200,.T.);
#253=FACE_BOUND('',#201,.T.);
#254=FACE_BOUND('',#202,.T.);
#255=FACE_BOUND('',#203,.T.);
#256=FACE_BOUND('',#204,.T.);
#257=FACE_BOUND('',#205,.T.);
#258=FACE_BOUND('',#206,.T.);
#259=FACE_BOUND('',#207,.T.);
#260=FACE_BOUND('',#208,.T.);
#261=FACE_BOUND('',#209,.T.);
#262=FACE_BOUND('',#210,.T.);
#263=FACE_BOUND('',#211,.T.);
#264=FACE_BOUND('',#20,.T.);
#265=FACE_BOUND('',#212,.T.);
#266=FACE_BOUND('',#213,.T.);
#267=FACE_BOUND('',#214,.T.);
#268=FACE_BOUND('',#215,.T.);
#269=FACE_BOUND('',#216,.T.);
#270=FACE_BOUND('',#21,.T.);
#271=FACE_BOUND('',#217,.T.);
#272=FACE_BOUND('',#218,.T.);
#273=FACE_BOUND('',#219,.T.);
#274=FACE_BOUND('',#220,.T.);
#275=FACE_BOUND('',#221,.T.);
#276=FACE_BOUND('',#22,.T.);
#277=FACE_BOUND('',#222,.T.);
#278=FACE_BOUND('',#223,.T.);
#279=FACE_BOUND('',#224,.T.);
#280=FACE_BOUND('',#225,.T.);
#281=PLANE('',#513);
#282=PLANE('',#519);
#283=PLANE('',#523);
#284=PLANE('',#527);
#285=PLANE('',#531);
#286=PLANE('',#535);
#287=PLANE('',#539);
#288=PLANE('',#543);
#289=PLANE('',#546);
#290=STYLED_ITEM('',(#317),#481);
#291=STYLED_ITEM('',(#318),#482);
#292=STYLED_ITEM('',(#319),#483);
#293=STYLED_ITEM('',(#320),#484);
#294=STYLED_ITEM('',(#321),#485);
#295=STYLED_ITEM('',(#322),#486);
#296=STYLED_ITEM('',(#323),#487);
#297=STYLED_ITEM('',(#324),#488);
#298=STYLED_ITEM('',(#325),#489);
#299=STYLED_ITEM('',(#326),#490);
#300=STYLED_ITEM('',(#327),#491);
#301=STYLED_ITEM('',(#328),#492);
#302=STYLED_ITEM('',(#329),#493);
#303=STYLED_ITEM('',(#330),#494);
#304=STYLED_ITEM('',(#331),#495);
#305=STYLED_ITEM('',(#332),#496);
#306=STYLED_ITEM('',(#333),#497);
#307=STYLED_ITEM('',(#334),#498);
#308=STYLED_ITEM('',(#335),#499);
#309=STYLED_ITEM('',(#336),#500);
#310=STYLED_ITEM('',(#337),#501);
#311=STYLED_ITEM('',(#338),#502);
#312=STYLED_ITEM('',(#339),#503);
#313=STYLED_ITEM('',(#340),#504);
#314=STYLED_ITEM('',(#341),#505);
#315=STYLED_ITEM('',(#342),#506);
#316=STYLED_ITEM('',(#343),#507);
#317=PRESENTATION_STYLE_ASSIGNMENT((#344));
#318=PRESENTATION_STYLE_ASSIGNMENT((#345));
#319=PRESENTATION_STYLE_ASSIGNMENT((#346));
#320=PRESENTATION_STYLE_ASSIGNMENT((#347));
#321=PRESENTATION_STYLE_ASSIGNMENT((#348));
#322=PRESENTATION_STYLE_ASSIGNMENT((#349));
#323=PRESENTATION_STYLE_ASSIGNMENT((#350));
#324=PRESENTATION_STYLE_ASSIGNMENT((#351));
#325=PRESENTATION_STYLE_ASSIGNMENT((#352));
#326=PRESENTATION_STYLE_ASSIGNMENT((#353));
#327=PRESENTATION_STYLE_ASSIGNMENT((#354));
#328=PRESENTATION_STYLE_ASSIGNMENT((#355));
#329=PRESENTATION_STYLE_ASSIGNMENT((#356));
#330=PRESENTATION_STYLE_ASSIGNMENT((#357));
#331=PRESENTATION_STYLE_ASSIGNMENT((#358));
#332=PRESENTATION_STYLE_ASSIGNMENT((#359));
#333=PRESENTATION_STYLE_ASSIGNMENT((#360));
#334=PRESENTATION_STYLE_ASSIGNMENT((#361));
#335=PRESENTATION_STYLE_ASSIGNMENT((#362));
#336=PRESENTATION_STYLE_ASSIGNMENT((#363));
#337=PRESENTATION_STYLE_ASSIGNMENT((#364));
#338=PRESENTATION_STYLE_ASSIGNMENT((#365));
#339=PRESENTATION_STYLE_ASSIGNMENT((#366));
#340=PRESENTATION_STYLE_ASSIGNMENT((#367));
#341=PRESENTATION_STYLE_ASSIGNMENT((#368));
#342=PRESENTATION_STYLE_ASSIGNMENT((#369));
#343=PRESENTATION_STYLE_ASSIGNMENT((#370));
#344=SURFACE_STYLE_USAGE(.BOTH.,#371);
#345=SURFACE_STYLE_USAGE(.BOTH.,#372);
#346=SURFACE_STYLE_USAGE(.BOTH.,#373);
#347=SURFACE_STYLE_USAGE(.BOTH.,#374);
#348=SURFACE_STYLE_USAGE(.BOTH.,#375);
#349=SURFACE_STYLE_USAGE(.BOTH.,#376);
#350=SURFACE_STYLE_USAGE(.BOTH.,#377);
#351=SURFACE_STYLE_USAGE(.BOTH.,#378);
#352=SURFACE_STYLE_USAGE(.BOTH.,#379);
#353=SURFACE_STYLE_USAGE(.BOTH.,#380);
#354=SURFACE_STYLE_USAGE(.BOTH.,#381);
#355=SURFACE_STYLE_USAGE(.BOTH.,#382);
#356=SURFACE_STYLE_USAGE(.BOTH.,#383);
#357=SURFACE_STYLE_USAGE(.BOTH.,#384);
#358=SURFACE_STYLE_USAGE(.BOTH.,#385);
#359=SURFACE_STYLE_USAGE(.BOTH.,#386);
#360=SURFACE_STYLE_USAGE(.BOTH.,#387);
#361=SURFACE_STYLE_USAGE(.BOTH.,#388);
#362=SURFACE_STYLE_USAGE(.BOTH.,#389);
#363=SURFACE_STYLE_USAGE(.BOTH.,#390);
#364=SURFACE_STYLE_USAGE(.BOTH.,#391);
#365=SURFACE_STYLE_USAGE(.BOTH.,#392);
#366=SURFACE_STYLE_USAGE(.BOTH.,#393);
#367=SURFACE_STYLE_USAGE(.BOTH.,#394);
#368=SURFACE_STYLE_USAGE(.BOTH.,#395);
#369=SURFACE_STYLE_USAGE(.BOTH.,#396);
#370=SURFACE_STYLE_USAGE(.BOTH.,#397);
#371=SURFACE_SIDE_STYLE('',(#398));
#372=SURFACE_SIDE_STYLE('',(#399));
#373=SURFACE_SIDE_STYLE('',(#400));
#374=SURFACE_SIDE_STYLE('',(#401));
#375=SURFACE_SIDE_STYLE('',(#402));
#376=SURFACE_SIDE_STYLE('',(#403));
#377=SURFACE_SIDE_STYLE('',(#404));
#378=SURFACE_SIDE_STYLE('',(#405));
#379=SURFACE_SIDE_STYLE('',(#406));
#380=SURFACE_SIDE_STYLE('',(#407));
#381=SURFACE_SIDE_STYLE('',(#408));
#382=SURFACE_SIDE_STYLE('',(#409));
#383=SURFACE_SIDE_STYLE('',(#410));
#384=SURFACE_SIDE_STYLE('',(#411));
#385=SURFACE_SIDE_STYLE('',(#412));
#386=SURFACE_SIDE_STYLE('',(#413));
#387=SURFACE_SIDE_STYLE('',(#414));
#388=SURFACE_SIDE_STYLE('',(#415));
#389=SURFACE_SIDE_STYLE('',(#416));
#390=SURFACE_SIDE_STYLE('',(#417));
#391=SURFACE_SIDE_STYLE('',(#418));
#392=SURFACE_SIDE_STYLE('',(#419));
#393=SURFACE_SIDE_STYLE('',(#420));
#394=SURFACE_SIDE_STYLE('',(#421));
#395=SURFACE_SIDE_STYLE('',(#422));
#396=SURFACE_SIDE_STYLE('',(#423));
#397=SURFACE_SIDE_STYLE('',(#424));
#398=SURFACE_STYLE_FILL_AREA(#425);
#399=SURFACE_STYLE_FILL_AREA(#426);
#400=SURFACE_STYLE_FILL_AREA(#427);
#401=SURFACE_STYLE_FILL_AREA(#428);
#402=SURFACE_STYLE_FILL_AREA(#429);
#403=SURFACE_STYLE_FILL_AREA(#430);
#404=SURFACE_STYLE_FILL_AREA(#431);
#405=SURFACE_STYLE_FILL_AREA(#432);
#406=SURFACE_STYLE_FILL_AREA(#433);
#407=SURFACE_STYLE_FILL_AREA(#434);
#408=SURFACE_STYLE_FILL_AREA(#435);
#409=SURFACE_STYLE_FILL_AREA(#436);
#410=SURFACE_STYLE_FILL_AREA(#437);
#411=SURFACE_STYLE_FILL_AREA(#438);
#412=SURFACE_STYLE_FILL_AREA(#439);
#413=SURFACE_STYLE_FILL_AREA(#440);
#414=SURFACE_STYLE_FILL_AREA(#441);
#415=SURFACE_STYLE_FILL_AREA(#442);
#416=SURFACE_STYLE_FILL_AREA(#443);
#417=SURFACE_STYLE_FILL_AREA(#444);
#418=SURFACE_STYLE_FILL_AREA(#445);
#419=SURFACE_STYLE_FILL_AREA(#446);
#420=SURFACE_STYLE_FILL_AREA(#447);
#421=SURFACE_STYLE_FILL_AREA(#448);
#422=SURFACE_STYLE_FILL_AREA(#449);
#423=SURFACE_STYLE_FILL_AREA(#450);
#424=SURFACE_STYLE_FILL_AREA(#451);
#425=FILL_AREA_STYLE('',(#452));
#426=FILL_AREA_STYLE('',(#453));
#427=FILL_AREA_STYLE('',(#454));
#428=FILL_AREA_STYLE('',(#455));
#429=FILL_AREA_STYLE('',(#456));
#430=FILL_AREA_STYLE('',(#457));
#431=FILL_AREA_STYLE('',(#458));
#432=FILL_AREA_STYLE('',(#459));
#433=FILL_AREA_STYLE('',(#460));
#434=FILL_AREA_STYLE('',(#461));
#435=FILL_AREA_STYLE('',(#462));
#436=FILL_AREA_STYLE('',(#463));
#437=FILL_AREA_STYLE('',(#464));
#438=FILL_AREA_STYLE('',(#465));
#439=FILL_AREA_STYLE('',(#466));
#440=FILL_AREA_STYLE('',(#467));
#441=FILL_AREA_STYLE('',(#468));
#442=FILL_AREA_STYLE('',(#469));
#443=FILL_AREA_STYLE('',(#470));
#444=FILL_AREA_STYLE('',(#471));
#445=FILL_AREA_STYLE('',(#472));
#446=FILL_AREA_STYLE('',(#473));
#447=FILL_AREA_STYLE('',(#474));
#448=FILL_AREA_STYLE('',(#475));
#449=FILL_AREA_STYLE('',(#476));
#450=FILL_AREA_STYLE('',(#477));
#451=FILL_AREA_STYLE('',(#478));
#452=FILL_AREA_STYLE_COLOUR('',#479);
#453=FILL_AREA_STYLE_COLOUR('',#479);
#454=FILL_AREA_STYLE_COLOUR('',#480);
#455=FILL_AREA_STYLE_COLOUR('',#480);
#456=FILL_AREA_STYLE_COLOUR('',#480);
#457=FILL_AREA_STYLE_COLOUR('',#480);
#458=FILL_AREA_STYLE_COLOUR('',#480);
#459=FILL_AREA_STYLE_COLOUR('',#480);
#460=FILL_AREA_STYLE_COLOUR('',#480);
#461=FILL_AREA_STYLE_COLOUR('',#480);
#462=FILL_AREA_STYLE_COLOUR('',#480);
#463=FILL_AREA_STYLE_COLOUR('',#480);
#464=FILL_AREA_STYLE_COLOUR('',#480);
#465=FILL_AREA_STYLE_COLOUR('',#479);
#466=FILL_AREA_STYLE_COLOUR('',#479);
#467=FILL_AREA_STYLE_COLOUR('',#479);
#468=FILL_AREA_STYLE_COLOUR('',#479);
#469=FILL_AREA_STYLE_COLOUR('',#479);
#470=FILL_AREA_STYLE_COLOUR('',#479);
#471=FILL_AREA_STYLE_COLOUR('',#479);
#472=FILL_AREA_STYLE_COLOUR('',#479);
#473=FILL_AREA_STYLE_COLOUR('',#479);
#474=FILL_AREA_STYLE_COLOUR('',#479);
#475=FILL_AREA_STYLE_COLOUR('',#479);
#476=FILL_AREA_STYLE_COLOUR('',#479);
#477=FILL_AREA_STYLE_COLOUR('',#479);
#478=FILL_AREA_STYLE_COLOUR('',#479);
#479=COLOUR_RGB('',0.689999997615814,0.689999997615814,0.689999997615814);
#480=COLOUR_RGB('',0.31400001049042,0.31400001049042,0.31400001049042);
#481=ADVANCED_FACE('',(#226,#227,#228),#281,.F.);
#482=ADVANCED_FACE('',(#229,#230),#37,.T.);
#483=ADVANCED_FACE('',(#231,#232),#282,.F.);
#484=ADVANCED_FACE('',(#233,#234),#38,.T.);
#485=ADVANCED_FACE('',(#235,#236),#283,.F.);
#486=ADVANCED_FACE('',(#237,#238),#30,.T.);
#487=ADVANCED_FACE('',(#239,#240),#284,.F.);
#488=ADVANCED_FACE('',(#241,#242),#31,.T.);
#489=ADVANCED_FACE('',(#243,#244),#285,.F.);
#490=ADVANCED_FACE('',(#245,#246),#32,.T.);
#491=ADVANCED_FACE('',(#247,#248),#286,.F.);
#492=ADVANCED_FACE('',(#249,#250),#39,.T.);
#493=ADVANCED_FACE('',(#251,#252),#287,.F.);
#494=ADVANCED_FACE('',(#253,#254),#40,.T.);
#495=ADVANCED_FACE('',(#255,#256,#257),#288,.F.);
#496=ADVANCED_FACE('',(#258),#289,.T.);
#497=ADVANCED_FACE('',(#259,#260),#33,.F.);
#498=ADVANCED_FACE('',(#261,#262),#23,.F.);
#499=ADVANCED_FACE('',(#263,#264),#24,.F.);
#500=ADVANCED_FACE('',(#265,#266),#34,.F.);
#501=ADVANCED_FACE('',(#267,#268),#25,.F.);
#502=ADVANCED_FACE('',(#269,#270),#26,.F.);
#503=ADVANCED_FACE('',(#271,#272),#35,.F.);
#504=ADVANCED_FACE('',(#273,#274),#27,.F.);
#505=ADVANCED_FACE('',(#275,#276),#28,.F.);
#506=ADVANCED_FACE('',(#277,#278),#36,.F.);
#507=ADVANCED_FACE('',(#279,#280),#29,.F.);
#508=CLOSED_SHELL('',(#481,#482,#483,#484,#485,#486,#487,#488,#489,#490,
#491,#492,#493,#494,#495,#496,#497,#498,#499,#500,#501,#502,#503,#504,#505,
#506,#507));
#509=MANIFOLD_SOLID_BREP('36490 EB-145-100---(170)',#508);
#510=SHAPE_DEFINITION_REPRESENTATION(#763,#511);
#511=SHAPE_REPRESENTATION('36490 EB-145-100---(170)',(#512),#758);
#512=AXIS2_PLACEMENT_3D('',#674,#566,#567);
#513=AXIS2_PLACEMENT_3D('',#675,#568,#569);
#514=AXIS2_PLACEMENT_3D('',#676,#570,#571);
#515=AXIS2_PLACEMENT_3D('',#678,#572,#573);
#516=AXIS2_PLACEMENT_3D('',#680,#574,#575);
#517=AXIS2_PLACEMENT_3D('',#682,#576,#577);
#518=AXIS2_PLACEMENT_3D('',#683,#578,#579);
#519=AXIS2_PLACEMENT_3D('',#685,#580,#581);
#520=AXIS2_PLACEMENT_3D('',#686,#582,#583);
#521=AXIS2_PLACEMENT_3D('',#688,#584,#585);
#522=AXIS2_PLACEMENT_3D('',#689,#586,#587);
#523=AXIS2_PLACEMENT_3D('',#691,#588,#589);
#524=AXIS2_PLACEMENT_3D('',#692,#590,#591);
#525=AXIS2_PLACEMENT_3D('',#694,#592,#593);
#526=AXIS2_PLACEMENT_3D('',#695,#594,#595);
#527=AXIS2_PLACEMENT_3D('',#697,#596,#597);
#528=AXIS2_PLACEMENT_3D('',#698,#598,#599);
#529=AXIS2_PLACEMENT_3D('',#700,#600,#601);
#530=AXIS2_PLACEMENT_3D('',#701,#602,#603);
#531=AXIS2_PLACEMENT_3D('',#703,#604,#605);
#532=AXIS2_PLACEMENT_3D('',#704,#606,#607);
#533=AXIS2_PLACEMENT_3D('',#706,#608,#609);
#534=AXIS2_PLACEMENT_3D('',#707,#610,#611);
#535=AXIS2_PLACEMENT_3D('',#709,#612,#613);
#536=AXIS2_PLACEMENT_3D('',#710,#614,#615);
#537=AXIS2_PLACEMENT_3D('',#712,#616,#617);
#538=AXIS2_PLACEMENT_3D('',#713,#618,#619);
#539=AXIS2_PLACEMENT_3D('',#715,#620,#621);
#540=AXIS2_PLACEMENT_3D('',#716,#622,#623);
#541=AXIS2_PLACEMENT_3D('',#718,#624,#625);
#542=AXIS2_PLACEMENT_3D('',#719,#626,#627);
#543=AXIS2_PLACEMENT_3D('',#721,#628,#629);
#544=AXIS2_PLACEMENT_3D('',#722,#630,#631);
#545=AXIS2_PLACEMENT_3D('',#724,#632,#633);
#546=AXIS2_PLACEMENT_3D('',#726,#634,#635);
#547=AXIS2_PLACEMENT_3D('',#727,#636,#637);
#548=AXIS2_PLACEMENT_3D('',#729,#638,#639);
#549=AXIS2_PLACEMENT_3D('',#730,#640,#641);
#550=AXIS2_PLACEMENT_3D('',#732,#642,#643);
#551=AXIS2_PLACEMENT_3D('',#733,#644,#645);
#552=AXIS2_PLACEMENT_3D('',#734,#646,#647);
#553=AXIS2_PLACEMENT_3D('',#737,#648,#649);
#554=AXIS2_PLACEMENT_3D('',#738,#650,#651);
#555=AXIS2_PLACEMENT_3D('',#740,#652,#653);
#556=AXIS2_PLACEMENT_3D('',#741,#654,#655);
#557=AXIS2_PLACEMENT_3D('',#742,#656,#657);
#558=AXIS2_PLACEMENT_3D('',#745,#658,#659);
#559=AXIS2_PLACEMENT_3D('',#746,#660,#661);
#560=AXIS2_PLACEMENT_3D('',#748,#662,#663);
#561=AXIS2_PLACEMENT_3D('',#749,#664,#665);
#562=AXIS2_PLACEMENT_3D('',#750,#666,#667);
#563=AXIS2_PLACEMENT_3D('',#753,#668,#669);
#564=AXIS2_PLACEMENT_3D('',#754,#670,#671);
#565=AXIS2_PLACEMENT_3D('',#756,#672,#673);
#566=DIRECTION('',(0.,0.,1.));
#567=DIRECTION('',(1.,0.,0.));
#568=DIRECTION('',(0.,-1.,0.));
#569=DIRECTION('',(0.,0.,-1.));
#570=DIRECTION('',(0.,-1.,0.));
#571=DIRECTION('',(0.,0.,-1.));
#572=DIRECTION('',(0.,-1.,0.));
#573=DIRECTION('',(0.,0.,-1.));
#574=DIRECTION('',(0.,1.,0.));
#575=DIRECTION('',(0.,0.,1.));
#576=DIRECTION('',(0.,-1.,0.));
#577=DIRECTION('',(0.,0.,-1.));
#578=DIRECTION('',(0.,-1.,0.));
#579=DIRECTION('',(0.,0.,-1.));
#580=DIRECTION('',(0.,-1.,0.));
#581=DIRECTION('',(0.,0.,-1.));
#582=DIRECTION('',(0.,-1.,0.));
#583=DIRECTION('',(0.,0.,-1.));
#584=DIRECTION('',(0.,-1.,0.));
#585=DIRECTION('',(0.,0.,-1.));
#586=DIRECTION('',(0.,-1.,0.));
#587=DIRECTION('',(0.,0.,-1.));
#588=DIRECTION('',(0.,1.,0.));
#589=DIRECTION('',(0.,0.,1.));
#590=DIRECTION('',(0.,-1.,0.));
#591=DIRECTION('',(0.,0.,-1.));
#592=DIRECTION('',(0.,-1.,0.));
#593=DIRECTION('',(0.,0.,-1.));
#594=DIRECTION('',(0.,-1.,0.));
#595=DIRECTION('',(0.,0.,-1.));
#596=DIRECTION('',(0.,-1.,0.));
#597=DIRECTION('',(0.,0.,-1.));
#598=DIRECTION('',(0.,-1.,0.));
#599=DIRECTION('',(0.,0.,-1.));
#600=DIRECTION('',(0.,-1.,0.));
#601=DIRECTION('',(0.,0.,-1.));
#602=DIRECTION('',(0.,-1.,0.));
#603=DIRECTION('',(0.,0.,-1.));
#604=DIRECTION('',(0.,1.,0.));
#605=DIRECTION('',(0.,0.,1.));
#606=DIRECTION('',(0.,-1.,0.));
#607=DIRECTION('',(0.,0.,-1.));
#608=DIRECTION('',(0.,-1.,0.));
#609=DIRECTION('',(0.,0.,-1.));
#610=DIRECTION('',(0.,-1.,0.));
#611=DIRECTION('',(0.,0.,-1.));
#612=DIRECTION('',(0.,-1.,0.));
#613=DIRECTION('',(0.,0.,-1.));
#614=DIRECTION('',(0.,-1.,0.));
#615=DIRECTION('',(0.,0.,-1.));
#616=DIRECTION('',(0.,-1.,0.));
#617=DIRECTION('',(0.,0.,-1.));
#618=DIRECTION('',(0.,-1.,0.));
#619=DIRECTION('',(0.,0.,-1.));
#620=DIRECTION('',(0.,1.,0.));
#621=DIRECTION('',(0.,0.,1.));
#622=DIRECTION('',(0.,-1.,0.));
#623=DIRECTION('',(0.,0.,-1.));
#624=DIRECTION('',(0.,-1.,0.));
#625=DIRECTION('',(0.,0.,-1.));
#626=DIRECTION('',(0.,-1.,0.));
#627=DIRECTION('',(0.,0.,-1.));
#628=DIRECTION('',(0.,1.,0.));
#629=DIRECTION('',(0.,0.,1.));
#630=DIRECTION('',(0.,1.,0.));
#631=DIRECTION('',(0.,0.,1.));
#632=DIRECTION('',(0.,-1.,0.));
#633=DIRECTION('',(0.,0.,-1.));
#634=DIRECTION('',(0.,1.,0.));
#635=DIRECTION('',(0.,0.,1.));
#636=DIRECTION('',(0.,1.,0.));
#637=DIRECTION('',(0.,0.,1.));
#638=DIRECTION('',(0.,1.,0.));
#639=DIRECTION('',(0.,0.,1.));
#640=DIRECTION('',(0.,1.,0.));
#641=DIRECTION('',(0.,0.,1.));
#642=DIRECTION('',(0.,1.,0.));
#643=DIRECTION('',(0.,0.,1.));
#644=DIRECTION('',(0.,1.,0.));
#645=DIRECTION('',(0.,0.,1.));
#646=DIRECTION('',(0.,1.,0.));
#647=DIRECTION('',(0.,0.,1.));
#648=DIRECTION('',(0.,1.,0.));
#649=DIRECTION('',(0.,0.,1.));
#650=DIRECTION('',(0.,1.,0.));
#651=DIRECTION('',(0.,0.,1.));
#652=DIRECTION('',(0.,1.,0.));
#653=DIRECTION('',(0.,0.,1.));
#654=DIRECTION('',(0.,-1.,0.));
#655=DIRECTION('',(0.,0.,-1.));
#656=DIRECTION('',(0.,-1.,0.));
#657=DIRECTION('',(0.,0.,-1.));
#658=DIRECTION('',(0.,-1.,0.));
#659=DIRECTION('',(0.,0.,-1.));
#660=DIRECTION('',(0.,-1.,0.));
#661=DIRECTION('',(0.,0.,-1.));
#662=DIRECTION('',(0.,-1.,0.));
#663=DIRECTION('',(0.,0.,-1.));
#664=DIRECTION('',(0.,-1.,0.));
#665=DIRECTION('',(0.,0.,-1.));
#666=DIRECTION('',(0.,-1.,0.));
#667=DIRECTION('',(0.,0.,-1.));
#668=DIRECTION('',(0.,-1.,0.));
#669=DIRECTION('',(0.,0.,-1.));
#670=DIRECTION('',(0.,-1.,0.));
#671=DIRECTION('',(0.,0.,-1.));
#672=DIRECTION('',(0.,-1.,0.));
#673=DIRECTION('',(0.,0.,-1.));
#674=CARTESIAN_POINT('',(0.,0.,0.));
#675=CARTESIAN_POINT('',(0.,170.,0.));
#676=CARTESIAN_POINT('',(0.,170.,0.));
#677=CARTESIAN_POINT('',(0.,170.,-37.));
#678=CARTESIAN_POINT('',(10.,170.,0.));
#679=CARTESIAN_POINT('',(10.,170.,-4.));
#680=CARTESIAN_POINT('',(-10.,170.,0.));
#681=CARTESIAN_POINT('',(-10.,170.,4.864));
#682=CARTESIAN_POINT('',(0.,162.,0.));
#683=CARTESIAN_POINT('',(0.,154.,0.));
#684=CARTESIAN_POINT('',(0.,154.,-37.));
#685=CARTESIAN_POINT('',(37.,154.,0.));
#686=CARTESIAN_POINT('',(0.,154.,0.));
#687=CARTESIAN_POINT('',(0.,154.,-41.));
#688=CARTESIAN_POINT('',(0.,122.5,0.));
#689=CARTESIAN_POINT('',(0.,91.,0.));
#690=CARTESIAN_POINT('',(0.,91.,-41.));
#691=CARTESIAN_POINT('',(41.,91.,0.));
#692=CARTESIAN_POINT('',(0.,91.,0.));
#693=CARTESIAN_POINT('',(0.,91.,-37.));
#694=CARTESIAN_POINT('',(0.,0.,0.));
#695=CARTESIAN_POINT('',(0.,90.,0.));
#696=CARTESIAN_POINT('',(0.,90.,-37.));
#697=CARTESIAN_POINT('',(37.,90.,0.));
#698=CARTESIAN_POINT('',(0.,90.,0.));
#699=CARTESIAN_POINT('',(0.,90.,-40.));
#700=CARTESIAN_POINT('',(0.,0.,0.));
#701=CARTESIAN_POINT('',(0.,80.,0.));
#702=CARTESIAN_POINT('',(0.,80.,-40.));
#703=CARTESIAN_POINT('',(40.,80.,0.));
#704=CARTESIAN_POINT('',(0.,80.,0.));
#705=CARTESIAN_POINT('',(0.,80.,-37.));
#706=CARTESIAN_POINT('',(0.,0.,0.));
#707=CARTESIAN_POINT('',(0.,79.,0.));
#708=CARTESIAN_POINT('',(0.,79.,-37.));
#709=CARTESIAN_POINT('',(37.,79.,0.));
#710=CARTESIAN_POINT('',(0.,79.,0.));
#711=CARTESIAN_POINT('',(0.,79.,-41.));
#712=CARTESIAN_POINT('',(0.,47.5,0.));
#713=CARTESIAN_POINT('',(0.,16.,0.));
#714=CARTESIAN_POINT('',(0.,16.,-41.));
#715=CARTESIAN_POINT('',(41.,16.,0.));
#716=CARTESIAN_POINT('',(0.,16.,0.));
#717=CARTESIAN_POINT('',(0.,16.,-37.));
#718=CARTESIAN_POINT('',(0.,8.,0.));
#719=CARTESIAN_POINT('',(0.,0.,0.));
#720=CARTESIAN_POINT('',(0.,0.,-37.));
#721=CARTESIAN_POINT('',(37.,0.,0.));
#722=CARTESIAN_POINT('',(10.,0.,0.));
#723=CARTESIAN_POINT('',(10.,0.,4.));
#724=CARTESIAN_POINT('',(-10.,0.,0.));
#725=CARTESIAN_POINT('',(-10.,0.,-4.));
#726=CARTESIAN_POINT('',(-10.,154.,0.));
#727=CARTESIAN_POINT('',(-10.,154.,0.));
#728=CARTESIAN_POINT('',(-10.,154.,4.283));
#729=CARTESIAN_POINT('',(-10.,170.,0.));
#730=CARTESIAN_POINT('',(-10.,169.419,0.));
#731=CARTESIAN_POINT('',(-10.,169.419,4.283));
#732=CARTESIAN_POINT('',(-10.,169.419,0.));
#733=CARTESIAN_POINT('',(10.,153.081176380348,0.));
#734=CARTESIAN_POINT('',(10.,155.,0.));
#735=CARTESIAN_POINT('',(10.,155.,3.3235));
#736=CARTESIAN_POINT('',(10.,153.081176380348,0.));
#737=CARTESIAN_POINT('',(10.,170.,0.));
#738=CARTESIAN_POINT('',(10.,169.3235,0.));
#739=CARTESIAN_POINT('',(10.,169.3235,3.3235));
#740=CARTESIAN_POINT('',(10.,169.3235,0.));
#741=CARTESIAN_POINT('',(-10.,15.9188236196517,0.));
#742=CARTESIAN_POINT('',(-10.,14.,0.));
#743=CARTESIAN_POINT('',(-10.,14.,-3.3235));
#744=CARTESIAN_POINT('',(-10.,15.9188236196517,0.));
#745=CARTESIAN_POINT('',(-10.,0.,0.));
#746=CARTESIAN_POINT('',(-10.,0.6765,0.));
#747=CARTESIAN_POINT('',(-10.,0.6765,-3.3235));
#748=CARTESIAN_POINT('',(-10.,0.6765,0.));
#749=CARTESIAN_POINT('',(10.,15.9188236196517,0.));
#750=CARTESIAN_POINT('',(10.,14.,0.));
#751=CARTESIAN_POINT('',(10.,14.,-3.3235));
#752=CARTESIAN_POINT('',(10.,15.9188236196517,0.));
#753=CARTESIAN_POINT('',(10.,0.,0.));
#754=CARTESIAN_POINT('',(10.,0.6765,0.));
#755=CARTESIAN_POINT('',(10.,0.6765,-3.3235));
#756=CARTESIAN_POINT('',(10.,0.6765,0.));
#757=MECHANICAL_DESIGN_GEOMETRIC_PRESENTATION_REPRESENTATION('',(#290,#291,
#292,#293,#294,#295,#296,#297,#298,#299,#300,#301,#302,#303,#304,#305,#306,
#307,#308,#309,#310,#311,#312,#313,#314,#315,#316),#758);
#758=(
GEOMETRIC_REPRESENTATION_CONTEXT(3)
GLOBAL_UNCERTAINTY_ASSIGNED_CONTEXT((#759))
GLOBAL_UNIT_ASSIGNED_CONTEXT((#762,#761,#760))
REPRESENTATION_CONTEXT('36490 EB-145-100---(170)',
'TOP_LEVEL_ASSEMBLY_PART')
);
#759=UNCERTAINTY_MEASURE_WITH_UNIT(LENGTH_MEASURE(0.005),#762,
'DISTANCE_ACCURACY_VALUE','Maximum Tolerance applied to model');
#760=(
NAMED_UNIT(*)
SI_UNIT($,.STERADIAN.)
SOLID_ANGLE_UNIT()
);
#761=(
NAMED_UNIT(*)
PLANE_ANGLE_UNIT()
SI_UNIT($,.RADIAN.)
);
#762=(
LENGTH_UNIT()
NAMED_UNIT(*)
SI_UNIT(.MILLI.,.METRE.)
);
#763=PRODUCT_DEFINITION_SHAPE('','',#764);
#764=PRODUCT_DEFINITION('','',#766,#765);
#765=PRODUCT_DEFINITION_CONTEXT('',#772,'design');
#766=PRODUCT_DEFINITION_FORMATION_WITH_SPECIFIED_SOURCE('','',#768,
 .NOT_KNOWN.);
#767=PRODUCT_RELATED_PRODUCT_CATEGORY('','',(#768));
#768=PRODUCT('36490 EB-145-100---(170)','36490 EB-145-100---(170)',
'36490 EB-145-100---(170)',(#770));
#769=PRODUCT_CATEGORY('','');
#770=PRODUCT_CONTEXT('',#772,'mechanical');
#771=APPLICATION_PROTOCOL_DEFINITION('international standard',
'automotive_design',2010,#772);
#772=APPLICATION_CONTEXT(
'core data for automotive mechanical design processes');
ENDSEC;
END-ISO-10303-21;
